999
DXF file: E:\BT Custom\CADOUTPUT\_TOP.dxf
999
Pro/ENGINEER 2018400 by Parametric Technology Corporation
  0
SECTION
  2
HEADER
  9
$ACADVER
  1
AC1018
  9
$DWGCODEPAGE
  3
ANSI_1252
  9
$EXTMAX
 10
22.0
 20
17.0
 30
0.0
  9
$EXTMIN
 10
0.0
 20
0.0
 30
0.0
  9
$LIMMIN
 10
0.0
 20
0.0
  9
$LIMMAX
 10
22.0
 20
17.0
  9
$VIEWCTR
 10
11.0
 20
8.5
  9
$VIEWSIZE
 40
17.0
  9
$CLAYER
  8
0
  9
$LTSCALE
 40
1.21
  9
$CELTYPE
  6
BYLAYER
  9
$DIMSCALE
 40
1.0
  9
$DIMASZ
 40
0.1
  9
$DIMEXO
 40
0.0625
  9
$DIMDLI
 40
0.836
  9
$DIMEXE
 40
0.125
  9
$DIMCEN
 40
0.198
  9
$DIMLFAC
 40
1.0
  9
$DIMBLK
  1
_FILLED
  9
$DIMALT
 70
1
  9
$DIMALTD
 70
2
  9
$DIMALTTD
 70
2
  9
$DIMALTF
 40
25.4
  9
$DIMTXT
 40
0.08
  9
$DIMTOL
 70
1
  9
$DIMLIM
 70
0
  9
$DIMTFAC
 40
1.0
  9
$DIMTP
 40
0.001
  9
$DIMTM
 40
0.001
  9
$DIMGAP
 40
0.09
  9
$DIMDSEP
 70
46
  9
$AUNITS
 70
0
  9
$PDMODE
 70
3
  9
$PDSIZE
 40
0.06
  9
$HANDSEED
  5
2CB
  9
$TILEMODE
 70
1
  9
$MEASUREMENT
 70
0
  9
$INSUNITS
 70
1
  0
ENDSEC
  0
SECTION
  2
CLASSES
  0
CLASS
  1
ACDBDICTIONARYWDFLT
  2
AcDbDictionaryWithDefault
  3
AutoCAD 2000
 90
0
 91
1
280
0
281
0
  0
CLASS
  1
ACDBPLACEHOLDER
  2
AcDbPlaceHolder
  3
AutoCAD 2000
 90
0
 91
1
280
0
281
0
  0
CLASS
  1
LAYOUT
  2
AcDbLayout
  3
AutoCAD 2000
 90
0
 91
0
280
0
281
0
  0
ENDSEC
  0
SECTION
  2
TABLES
  0
TABLE
  2
VPORT
  5
8
100
AcDbSymbolTable
 70
2
  0
VPORT
  5
1F4
100
AcDbSymbolTableRecord
100
AcDbViewportTableRecord
  2
*ACTIVE
 70
0
 10
0.0
 20
0.0
 11
1.0
 21
1.0
 12
11.0
 22
8.5
 13
0.0
 23
0.0
 14
1.0
 24
1.0
 15
0.0
 25
0.0
 16
0.0
 26
0.0
 36
1.0
 17
0.0
 27
0.0
 37
0.0
 40
17.0
 41
1.2941176471
 42
50.0
 43
0.0
 44
0.0
 50
0.0
 51
0.0
 71
0
 72
100
 73
1
 74
1
 75
0
 76
0
 77
0
 78
0
  0
ENDTAB
  0
TABLE
  2
LTYPE
  5
5
100
AcDbSymbolTable
 70
6
  0
LTYPE
  5
14
100
AcDbSymbolTableRecord
100
AcDbLinetypeTableRecord
  2
BYBLOCK
 70
0
  3

 72
65
 73
0
 40
0.0
  0
LTYPE
  5
15
100
AcDbSymbolTableRecord
100
AcDbLinetypeTableRecord
  2
BYLAYER
 70
0
  3

 72
65
 73
0
 40
0.0
  0
LTYPE
  5
16
100
AcDbSymbolTableRecord
100
AcDbLinetypeTableRecord
  2
CONTINUOUS
 70
64
  3
Solid line
 72
65
 73
0
 40
0.0
  0
LTYPE
  5
1F5
100
AcDbSymbolTableRecord
100
AcDbLinetypeTableRecord
  2
CENTER
 70
64
  3
____ _ ____ _ ____ _ ____ _ ____ _ ____ _ ____
 72
65
 73
4
 40
0.6
 49
0.375
 74
0
 49
-0.075
 74
0
 49
0.075
 74
0
 49
-0.075
 74
0
  0
LTYPE
  5
1F6
100
AcDbSymbolTableRecord
100
AcDbLinetypeTableRecord
  2
HIDDEN
 70
64
  3
- - - - - - - - - - - - - - - - - - - -
 72
65
 73
2
 40
0.2
 49
0.1
 74
0
 49
-0.1
 74
0
  0
LTYPE
  5
1F7
100
AcDbSymbolTableRecord
100
AcDbLinetypeTableRecord
  2
PHANTOM
 70
64
  3
_____ _ _ _____ _ _ _____ _ _ _____
 72
65
 73
6
 40
0.8
 49
0.45
 74
0
 49
-0.05
 74
0
 49
0.1
 74
0
 49
-0.05
 74
0
 49
0.1
 74
0
 49
-0.05
 74
0
  0
LTYPE
  5
1F8
100
AcDbSymbolTableRecord
100
AcDbLinetypeTableRecord
  2
DOT
 70
64
  3
. . . . . . . . . . . . . . . . . . . .
 72
65
 73
2
 40
0.2
 49
0.1
 74
0
 49
-0.1
 74
0
  0
LTYPE
  5
1F9
100
AcDbSymbolTableRecord
100
AcDbLinetypeTableRecord
  2
DASHED
 70
64
  3
- - - - - - - - - - - - - - - - - - - -
 72
65
 73
2
 40
0.2
 49
0.1
 74
0
 49
-0.1
 74
0
  0
ENDTAB
  0
TABLE
  2
LAYER
  5
2
100
AcDbSymbolTable
 70
36
  0
LAYER
  5
10
100
AcDbSymbolTableRecord
100
AcDbLayerTableRecord
  2
0
 70
0
 62
7
  6
CONTINUOUS
370
-3
390
F
  0
LAYER
  5
1FA
100
AcDbSymbolTableRecord
100
AcDbLayerTableRecord
  2
DEFAULT_1
 70
0
 62
7
  6
CENTER
370
-3
390
F
  0
LAYER
  5
1FB
100
AcDbSymbolTableRecord
100
AcDbLayerTableRecord
  2
DEFAULT_2
 70
0
 62
8
  6
HIDDEN
370
-3
390
F
  0
LAYER
  5
1FC
100
AcDbSymbolTableRecord
100
AcDbLayerTableRecord
  2
DEFAULT_3
 70
0
 62
7
  6
PHANTOM
370
-3
390
F
  0
LAYER
  5
1FD
100
AcDbSymbolTableRecord
100
AcDbLayerTableRecord
  2
ALL_FEATURES
 70
0
 62
7
  6
CONTINUOUS
370
-3
390
F
  0
LAYER
  5
1FE
100
AcDbSymbolTableRecord
100
AcDbLayerTableRecord
  2
AXES_FEATURES
 70
0
 62
7
  6
CONTINUOUS
370
-3
390
F
  0
LAYER
  5
1FF
100
AcDbSymbolTableRecord
100
AcDbLayerTableRecord
  2
DEFAULT_COORDINATE_SYSTEM
 70
0
 62
7
  6
CONTINUOUS
370
-3
390
F
  0
LAYER
  5
200
100
AcDbSymbolTableRecord
100
AcDbLayerTableRecord
  2
DEFAULT_DATUM_AXES
 70
0
 62
7
  6
CONTINUOUS
370
-3
390
F
  0
LAYER
  5
201
100
AcDbSymbolTableRecord
100
AcDbLayerTableRecord
  2
DEFAULT_DATUM_PLANES
 70
0
 62
7
  6
CONTINUOUS
370
-3
390
F
  0
LAYER
  5
202
100
AcDbSymbolTableRecord
100
AcDbLayerTableRecord
  2
DIMENSIONS
 70
0
 62
7
  6
CONTINUOUS
370
-3
390
F
  0
ENDTAB
  0
TABLE
  2
STYLE
  5
3
100
AcDbSymbolTable
 70
1
  0
STYLE
  5
11
100
AcDbSymbolTableRecord
100
AcDbTextStyleTableRecord
  2
STANDARD
 70
0
 40
0.0
 41
0.8
 50
0.0
 71
0
 42
0.2
  3
txt
  4

  0
STYLE
  5
203
100
AcDbSymbolTableRecord
100
AcDbTextStyleTableRecord
  2
TEXTSTYLE_1
 70
0
 40
0.0
 41
0.8
 50
0.0
 71
0
 42
0.2
  3
gdt
  4

  0
ENDTAB
  0
TABLE
  2
VIEW
  5
6
100
AcDbSymbolTable
 70
0
  0
ENDTAB
  0
TABLE
  2
UCS
  5
7
100
AcDbSymbolTable
 70
0
  0
ENDTAB
  0
TABLE
  2
APPID
  5
9
100
AcDbSymbolTable
 70
1
  0
APPID
  5
204
100
AcDbSymbolTableRecord
100
AcDbRegAppTableRecord
  2
ACAD
 70
0
  0
ENDTAB
  0
TABLE
  2
BLOCK_RECORD
  5
1
100
AcDbSymbolTable
 70
0
  0
BLOCK_RECORD
  5
205
100
AcDbSymbolTableRecord
100
AcDbBlockTableRecord
  2
*Model_Space
  0
BLOCK_RECORD
  5
206
100
AcDbSymbolTableRecord
100
AcDbBlockTableRecord
  2
*Paper_Space
  0
BLOCK_RECORD
  5
207
100
AcDbSymbolTableRecord
100
AcDbBlockTableRecord
  2
_FILLED
  0
ENDTAB
  0
TABLE
  2
DIMSTYLE
  5
A
100
AcDbSymbolTable
 70
1
100
AcDbDimStyleTable
 71
0
  0
DIMSTYLE
105
208
100
AcDbSymbolTableRecord
100
AcDbDimStyleTableRecord
  2
STANDARD
 70
0
  3

  4

 40
1.0
 41
0.1
 42
0.0625
 43
0.38
 44
0.125
 45
0.0
 46
0.0
 47
0.001
 48
0.001
140
0.08
141
0.09
142
0.0
143
25.4
144
1.0
145
0.0
146
1.0
147
0.09
 71
1.0
 72
0.0
 73
1
 74
1
 75
0
 76
0
 77
0
 78
4
 79
1
170
1
171
2
172
0
173
0
174
0
175
0
176
0
177
0
178
0
270
2
179
3
271
3
272
3
273
2
274
2
275
0
280
0
281
0
282
0
283
1
284
4
285
0
286
0
287
3
288
0
340
11
278
46
341
207
342
207
343
207
344
207
  0
ENDTAB
  0
ENDSEC
  0
SECTION
  2
BLOCKS
  0
BLOCK
  5
20
100
AcDbEntity
  8
0
100
AcDbBlockBegin
  2
*Model_Space
 70
0
 10
0.0
 20
0.0
 30
0.0
  3
*Model_Space
  1

  0
ENDBLK
  5
21
100
AcDbEntity
  8
0
100
AcDbBlockEnd
  0
BLOCK
  5
1C
100
AcDbEntity
  8
0
100
AcDbBlockBegin
  2
*Paper_Space
 70
0
 10
0.0
 20
0.0
 30
0.0
  3
*Paper_Space
  1

  0
ENDBLK
  5
1D
100
AcDbEntity
  8
0
100
AcDbBlockEnd
  0
BLOCK
  5
209
100
AcDbEntity
  8
0
100
AcDbBlockBegin
  2
_FILLED
 70
64
 10
0.0
 20
0.0
  3
_FILLED
  1

  0
SOLID
  5
20A
100
AcDbEntity
  8
0
  6
BYBLOCK
 62
0
100
AcDbTrace
 10
0.0
 20
0.0
 11
-1.0
 21
0.2
 12
-1.0
 22
-0.2
 13
-1.0
 23
-0.2
  0
ENDBLK
  5
20B
100
AcDbEntity
  8
0
  6
BYBLOCK
 62
0
100
AcDbBlockEnd
  0
ENDSEC
  0
SECTION
  2
ENTITIES
  0
LINE
  5
20C
100
AcDbEntity
  8
0
100
AcDbLine
 62
7
  6
CONTINUOUS
 10
7.7973183383
 20
11.4303077147
 11
7.7973183383
 21
11.5697709751
  0
LINE
  5
20D
100
AcDbEntity
  8
0
100
AcDbLine
 62
7
  6
CONTINUOUS
 10
9.0473183383
 20
5.4293944618
 11
9.0473183383
 21
4.8325377656
  0
LINE
  5
20E
100
AcDbEntity
  8
0
100
AcDbLine
 62
7
  6
CONTINUOUS
 10
9.8573183383
 20
11.5697709751
 11
9.8573183383
 21
11.3375977279
  0
LINE
  5
20F
100
AcDbEntity
  8
0
100
AcDbLine
 62
7
  6
CONTINUOUS
 10
9.8598183383
 20
11.2567709751
 11
9.8598183383
 21
10.9117709751
  0
LINE
  5
210
100
AcDbEntity
  8
0
100
AcDbLine
 62
7
  6
CONTINUOUS
 10
10.3910683383
 20
9.5117709751
 11
10.3910683383
 21
10.8717709751
  0
LINE
  5
211
100
AcDbEntity
  8
0
100
AcDbLine
 62
7
  6
CONTINUOUS
 10
11.0455735249
 20
6.4967748563
 11
11.0488742171
 21
6.4967743015
  0
LINE
  5
212
100
AcDbEntity
  8
0
100
AcDbLine
 62
7
  6
CONTINUOUS
 10
10.4223183383
 20
10.8717709751
 11
10.4223183383
 21
10.8817709751
  0
LINE
  5
213
100
AcDbEntity
  8
0
100
AcDbLine
 62
7
  6
CONTINUOUS
 10
10.4723183383
 20
6.5833927287
 11
10.4723183383
 21
5.9187123544
  0
LINE
  5
214
100
AcDbEntity
  8
0
100
AcDbLine
 62
7
  6
CONTINUOUS
 10
10.5948183383
 20
7.099580679
 11
10.5948183383
 21
6.8718018917
  0
LINE
  5
215
100
AcDbEntity
  8
0
100
AcDbLine
 62
7
  6
CONTINUOUS
 10
10.6410683383
 20
11.1529138728
 11
10.6410683383
 21
7.3050312398
  0
LINE
  5
216
100
AcDbEntity
  8
0
100
AcDbLine
 62
7
  6
CONTINUOUS
 10
10.6410685839
 20
7.2745153568
 11
10.6410683383
 21
7.2553113224
  0
LINE
  5
217
100
AcDbEntity
  8
0
100
AcDbLine
 62
9
  6
CONTINUOUS
 10
10.6410685839
 20
7.2745153568
 11
10.6433954436
 21
7.2754634848
  0
LINE
  5
218
100
AcDbEntity
  8
0
100
AcDbLine
 62
7
  6
CONTINUOUS
 10
11.1568904109
 20
6.70074893
 11
11.1568904109
 21
6.5613584903
  0
LINE
  5
219
100
AcDbEntity
  8
0
100
AcDbLine
 62
7
  6
CONTINUOUS
 10
11.1770814628
 20
6.187295183
 11
11.1770814628
 21
5.9398078096
  0
LINE
  5
21A
100
AcDbEntity
  8
0
100
AcDbLine
 62
7
  6
CONTINUOUS
 10
11.3727462656
 20
6.7888717137
 11
11.3727462656
 21
6.649481274
  0
LINE
  5
21B
100
AcDbEntity
  8
0
100
AcDbLine
 62
7
  6
CONTINUOUS
 10
11.4675552138
 20
6.3058805952
 11
11.4675552138
 21
6.0583932218
  0
LINE
  5
21C
100
AcDbEntity
  8
0
100
AcDbLine
 62
7
  6
CONTINUOUS
 10
11.4998183383
 20
7.099580679
 11
11.4998183383
 21
6.8718018917
  0
LINE
  5
21D
100
AcDbEntity
  8
0
100
AcDbLine
 62
7
  6
CONTINUOUS
 10
11.6223183383
 20
6.5833927287
 11
11.6223183383
 21
5.9187123544
  0
LINE
  5
21E
100
AcDbEntity
  8
0
100
AcDbLine
 62
7
  6
CONTINUOUS
 10
11.6723183383
 20
10.8717709751
 11
11.6723183383
 21
10.8817709751
  0
LINE
  5
21F
100
AcDbEntity
  8
0
100
AcDbLine
 62
7
  6
CONTINUOUS
 10
11.7035683383
 20
9.5117709751
 11
11.7035683383
 21
10.8717709751
  0
LINE
  5
220
100
AcDbEntity
  8
0
100
AcDbLine
 62
7
  6
CONTINUOUS
 10
11.4535683383
 20
11.1529138728
 11
11.4535680927
 21
7.304715385
  0
LINE
  5
221
100
AcDbEntity
  8
0
100
AcDbLine
 62
7
  6
CONTINUOUS
 10
12.2348183383
 20
11.2567709751
 11
12.2348183383
 21
10.9117709751
  0
LINE
  5
222
100
AcDbEntity
  8
0
100
AcDbLine
 62
7
  6
CONTINUOUS
 10
12.2373183383
 20
11.5697709751
 11
12.2373183383
 21
11.3375977279
  0
LINE
  5
223
100
AcDbEntity
  8
0
100
AcDbLine
 62
7
  6
CONTINUOUS
 10
11.4675552138
 20
6.3058805952
 11
11.1770814628
 21
6.187295183
  0
LINE
  5
224
100
AcDbEntity
  8
0
100
AcDbLine
 62
7
  6
CONTINUOUS
 10
11.4675552138
 20
6.0583932218
 11
11.1770814628
 21
5.9398078096
  0
LINE
  5
225
100
AcDbEntity
  8
0
100
AcDbLine
 62
7
  6
CONTINUOUS
 10
13.0473183383
 20
5.4293944618
 11
13.0473183383
 21
4.8325377656
  0
LINE
  5
226
100
AcDbEntity
  8
0
100
AcDbLine
 62
9
  6
CONTINUOUS
 10
11.4535683383
 20
9.3197709751
 11
10.6410683383
 21
9.3197709751
  0
LINE
  5
227
100
AcDbEntity
  8
0
100
AcDbLine
 62
7
  6
CONTINUOUS
 10
11.6735667899
 20
9.4817709751
 11
11.4535683383
 21
9.4817709751
  0
LINE
  5
228
100
AcDbEntity
  8
0
100
AcDbLine
 62
7
  6
CONTINUOUS
 10
10.6410683383
 20
9.4817709751
 11
10.4210698867
 21
9.4817709751
  0
LINE
  5
229
100
AcDbEntity
  8
0
100
AcDbLine
 62
9
  6
CONTINUOUS
 10
11.7035683383
 20
9.5117709751
 11
11.4535683383
 21
9.5117709751
  0
LINE
  5
22A
100
AcDbEntity
  8
0
100
AcDbLine
 62
9
  6
CONTINUOUS
 10
10.6410683383
 20
9.5117709751
 11
10.3910683383
 21
9.5117709751
  0
LINE
  5
22B
100
AcDbEntity
  8
0
100
AcDbLine
 62
7
  6
CONTINUOUS
 10
14.2973183383
 20
11.4303077147
 11
14.2973183383
 21
11.5697709751
  0
LINE
  5
22C
100
AcDbEntity
  8
0
100
AcDbLine
 62
7
  6
CONTINUOUS
 10
11.7035669402
 20
10.8717709751
 11
11.4535683383
 21
10.8717709751
  0
LINE
  5
22D
100
AcDbEntity
  8
0
100
AcDbLine
 62
7
  6
CONTINUOUS
 10
10.3910697364
 20
10.8717709751
 11
10.6410683383
 21
10.8717709751
  0
LINE
  5
22E
100
AcDbEntity
  8
0
100
AcDbLine
 62
7
  6
CONTINUOUS
 10
12.2048183383
 20
10.8817709751
 11
11.4535683383
 21
10.8817709751
  0
LINE
  5
22F
100
AcDbEntity
  8
0
100
AcDbLine
 62
7
  6
CONTINUOUS
 10
10.6410683383
 20
10.8817709751
 11
9.8898183383
 21
10.8817709751
  0
LINE
  5
230
100
AcDbEntity
  8
0
100
AcDbLine
 62
9
  6
CONTINUOUS
 10
12.2348183383
 20
10.9117709751
 11
11.4535683383
 21
10.9117709751
  0
LINE
  5
231
100
AcDbEntity
  8
0
100
AcDbLine
 62
9
  6
CONTINUOUS
 10
10.6410683383
 20
10.9117709751
 11
9.8598183383
 21
10.9117709751
  0
LINE
  5
232
100
AcDbEntity
  8
0
100
AcDbLine
 62
7
  6
CONTINUOUS
 10
11.4945333056
 20
11.1529138728
 11
11.4978849088
 21
11.1531016814
  0
LINE
  5
233
100
AcDbEntity
  8
0
100
AcDbLine
 62
7
  6
CONTINUOUS
 10
10.600103371
 20
11.1529138728
 11
11.4945333056
 21
11.1529138728
  0
LINE
  5
234
100
AcDbEntity
  8
0
100
AcDbLine
 62
9
  6
CONTINUOUS
 10
11.4978849088
 20
11.1531016814
 11
10.5967517678
 21
11.1531016814
  0
LINE
  5
235
100
AcDbEntity
  8
0
100
AcDbLine
 62
7
  6
CONTINUOUS
 10
10.0247107922
 20
11.2567709751
 11
7.9644748485
 21
11.2567709751
  0
LINE
  5
236
100
AcDbEntity
  8
0
100
AcDbLine
 62
7
  6
CONTINUOUS
 10
12.0699258844
 20
11.2567709751
 11
14.130161828
 21
11.2567709751
  0
LINE
  5
237
100
AcDbEntity
  8
0
100
AcDbLine
 62
9
  6
CONTINUOUS
 10
12.2007135508
 20
11.2894254508
 11
9.8939231258
 21
11.2894254508
  0
LINE
  5
238
100
AcDbEntity
  8
0
100
AcDbLine
 62
9
  6
CONTINUOUS
 10
14.1895364896
 20
11.2987079848
 11
12.2185389743
 21
11.2987079848
  0
LINE
  5
239
100
AcDbEntity
  8
0
100
AcDbLine
 62
9
  6
CONTINUOUS
 10
9.8760977022
 20
11.2987079848
 11
7.9051001869
 21
11.2987079848
  0
LINE
  5
23A
100
AcDbEntity
  8
0
100
AcDbLine
 62
9
  6
CONTINUOUS
 10
12.2373183383
 20
11.3375977279
 11
9.8573183383
 21
11.3375977279
  0
LINE
  5
23B
100
AcDbEntity
  8
0
100
AcDbLine
 62
7
  6
CONTINUOUS
 10
10.600103371
 20
11.1529138728
 11
10.5967517678
 21
11.1531016814
  0
LINE
  5
23C
100
AcDbEntity
  8
0
100
AcDbLine
 62
9
  6
CONTINUOUS
 10
14.2588700226
 20
11.3722886248
 11
12.2373183383
 21
11.3722886248
  0
LINE
  5
23D
100
AcDbEntity
  8
0
100
AcDbLine
 62
9
  6
CONTINUOUS
 10
9.8573183383
 20
11.3722886248
 11
7.8357666539
 21
11.3722886248
  0
LINE
  5
23E
100
AcDbEntity
  8
0
100
AcDbLine
 62
9
  6
CONTINUOUS
 10
14.2973183383
 20
11.4303077147
 11
12.2373183383
 21
11.4303077147
  0
LINE
  5
23F
100
AcDbEntity
  8
0
100
AcDbLine
 62
9
  6
CONTINUOUS
 10
9.8573183383
 20
11.4303077147
 11
7.7973183383
 21
11.4303077147
  0
LINE
  5
240
100
AcDbEntity
  8
0
100
AcDbLine
 62
7
  6
CONTINUOUS
 10
7.7973183383
 20
11.5697709751
 11
14.2973183383
 21
11.5697709751
  0
ARC
  5
241
100
AcDbEntity
  8
0
100
AcDbCircle
 62
9
  6
CONTINUOUS
 10
11.0020645941
 20
6.584993427
 40
2.4522577798
100
AcDbArc
 50
252.811774895
 51
257.2120397455
  0
ARC
  5
242
100
AcDbEntity
  8
0
100
AcDbCircle
 62
9
  6
CONTINUOUS
 10
10.9765896425
 20
6.5017284443
 40
2.3651832928
100
AcDbArc
 50
251.3043242893
 51
252.7830900329
  0
ARC
  5
243
100
AcDbEntity
  8
0
100
AcDbCircle
 62
9
  6
CONTINUOUS
 10
10.6432786466
 20
5.8797697271
 40
1.6558911561
100
AcDbArc
 50
230.2145680464
 51
232.846560027
  0
ARC
  5
244
100
AcDbEntity
  8
0
100
AcDbCircle
 62
9
  6
CONTINUOUS
 10
10.9752259568
 20
4.9460676681
 40
1.357034462
100
AcDbArc
 50
111.761932877
 51
112.2075085144
  0
ARC
  5
245
100
AcDbEntity
  8
0
100
AcDbCircle
 62
9
  6
CONTINUOUS
 10
10.0545283039
 20
4.8329833142
 40
1.0072248414
100
AcDbArc
 50
184.0160532643
 51
187.5508495024
  0
ARC
  5
246
100
AcDbEntity
  8
0
100
AcDbCircle
 62
9
  6
CONTINUOUS
 10
10.0479474971
 20
4.8325381511
 40
1.0006290167
100
AcDbArc
 50
180.0000220737
 51
184.0170165567
  0
ARC
  5
247
100
AcDbEntity
  8
0
100
AcDbCircle
 62
7
  6
CONTINUOUS
 10
10.9969672915
 20
7.2757907033
 40
0.3927057574
100
AcDbArc
 50
242.8781369734
 51
243.9621075754
  0
ARC
  5
248
100
AcDbEntity
  8
0
100
AcDbCircle
 62
7
  6
CONTINUOUS
 10
10.8778466282
 20
7.076147789
 40
0.2882290413
100
AcDbArc
 50
145.1870758839
 51
148.2003496742
  0
ARC
  5
249
100
AcDbEntity
  8
0
100
AcDbCircle
 62
7
  6
CONTINUOUS
 10
10.9133476962
 20
7.2002661562
 40
0.2851244715
100
AcDbArc
 50
220.1301993818
 51
225.5007608731
  0
ARC
  5
24A
100
AcDbEntity
  8
0
100
AcDbCircle
 62
9
  6
CONTINUOUS
 10
10.8211047787
 20
6.8718008382
 40
0.226286385
100
AcDbArc
 50
179.9997332522
 51
183.0635097309
  0
ARC
  5
24B
100
AcDbEntity
  8
0
100
AcDbCircle
 62
7
  6
CONTINUOUS
 10
10.8505220455
 20
7.3058797753
 40
0.2095162587
100
AcDbArc
 50
188.9855513975
 51
193.5573444049
  0
ARC
  5
24C
100
AcDbEntity
  8
0
100
AcDbCircle
 62
7
  6
CONTINUOUS
 10
10.8475732567
 20
7.3053623486
 40
0.2065228498
100
AcDbArc
 50
188.6273887238
 51
188.9715358874
  0
ARC
  5
24D
100
AcDbEntity
  8
0
100
AcDbCircle
 62
7
  6
CONTINUOUS
 10
10.8453343991
 20
7.3050739179
 40
0.2042660648
100
AcDbArc
 50
180.0119710285
 51
188.6416040975
  0
ARC
  5
24E
100
AcDbEntity
  8
0
100
AcDbCircle
 62
7
  6
CONTINUOUS
 10
10.8400573481
 20
7.2562945802
 40
0.1990656534
100
AcDbArc
 50
189.5015427791
 51
194.4326445328
  0
ARC
  5
24F
100
AcDbEntity
  8
0
100
AcDbCircle
 62
7
  6
CONTINUOUS
 10
10.8396600248
 20
7.1567098593
 40
0.1986612462
100
AcDbArc
 50
190.3609567055
 51
194.3474642045
  0
ARC
  5
250
100
AcDbEntity
  8
0
100
AcDbCircle
 62
7
  6
CONTINUOUS
 10
10.8394394292
 20
7.206376657
 40
0.1984350873
100
AcDbArc
 50
189.905472945
 51
194.3997185664
  0
ARC
  5
251
100
AcDbEntity
  8
0
100
AcDbCircle
 62
7
  6
CONTINUOUS
 10
10.8345210422
 20
7.1558559674
 40
0.1934525054
100
AcDbArc
 50
180.0150392521
 51
190.3859158426
  0
ARC
  5
252
100
AcDbEntity
  8
0
100
AcDbCircle
 62
7
  6
CONTINUOUS
 10
10.8343913815
 20
7.2055659886
 40
0.1933228502
100
AcDbArc
 50
180.0128570373
 51
189.9261591267
  0
ARC
  5
253
100
AcDbEntity
  8
0
100
AcDbCircle
 62
7
  6
CONTINUOUS
 10
10.83427722
 20
7.2553487281
 40
0.1932086874
100
AcDbArc
 50
180.0110926176
 51
189.507851462
  0
ARC
  5
254
100
AcDbEntity
  8
0
100
AcDbCircle
 62
7
  6
CONTINUOUS
 10
10.8338046629
 20
7.1204427184
 40
0.1927377257
100
AcDbArc
 50
184.2663025706
 51
185.6376552204
  0
ARC
  5
255
100
AcDbEntity
  8
0
100
AcDbCircle
 62
7
  6
CONTINUOUS
 10
10.8337367318
 20
7.2229681726
 40
0.1926698131
100
AcDbArc
 50
184.8483085268
 51
185.1524253146
  0
ARC
  5
256
100
AcDbEntity
  8
0
100
AcDbCircle
 62
7
  6
CONTINUOUS
 10
10.8332053104
 20
7.2229265386
 40
0.1921367743
100
AcDbArc
 50
180.0019982885
 51
184.8493312537
  0
ARC
  5
257
100
AcDbEntity
  8
0
100
AcDbCircle
 62
7
  6
CONTINUOUS
 10
10.8330927585
 20
7.1716894686
 40
0.1920242224
100
AcDbArc
 50
174.9474451014
 51
184.7366355526
  0
ARC
  5
258
100
AcDbEntity
  8
0
100
AcDbCircle
 62
7
  6
CONTINUOUS
 10
10.8330852469
 20
7.2229182353
 40
0.1920167107
100
AcDbArc
 50
175.146449271
 51
179.9995219202
  0
ARC
  5
259
100
AcDbEntity
  8
0
100
AcDbCircle
 62
7
  6
CONTINUOUS
 10
10.8330792006
 20
7.1203945238
 40
0.1920106883
100
AcDbArc
 50
174.9048002212
 51
184.2680654452
  0
ARC
  5
25A
100
AcDbEntity
  8
0
100
AcDbCircle
 62
7
  6
CONTINUOUS
 10
10.8329650103
 20
7.2742038421
 40
0.1918966793
100
AcDbArc
 50
175.4690781554
 51
179.9069890707
  0
ARC
  5
25B
100
AcDbEntity
  8
0
100
AcDbCircle
 62
7
  6
CONTINUOUS
 10
10.4210683383
 20
9.5117709751
 40
0.03
100
AcDbArc
 50
180.0
 51
270.0
  0
ARC
  5
25C
100
AcDbEntity
  8
0
100
AcDbCircle
 62
7
  6
CONTINUOUS
 10
10.9951444261
 20
15.6249303909
 40
4.5
100
AcDbArc
 50
276.4144817261
 51
285.5395954904
  0
ARC
  5
25D
100
AcDbEntity
  8
0
100
AcDbCircle
 62
7
  6
CONTINUOUS
 10
7.7868835557
 20
11.2567709751
 40
0.1254347826
100
AcDbArc
 50
19.5319940446
 51
67.0635891141
  0
ARC
  5
25E
100
AcDbEntity
  8
0
100
AcDbCircle
 62
7
  6
CONTINUOUS
 10
7.8603183383
 20
11.4303077147
 40
0.063
100
AcDbArc
 50
180.0
 51
247.0635891141
  0
ARC
  5
25F
100
AcDbEntity
  8
0
100
AcDbCircle
 62
7
  6
CONTINUOUS
 10
7.9644748485
 20
11.3197709751
 40
0.063
100
AcDbArc
 50
199.5319940446
 51
270.0
  0
ARC
  5
260
100
AcDbEntity
  8
0
100
AcDbCircle
 62
7
  6
CONTINUOUS
 10
9.9073183383
 20
11.3375977279
 40
0.05
100
AcDbArc
 50
180.0
 51
254.4604045097
  0
ARC
  5
261
100
AcDbEntity
  8
0
100
AcDbCircle
 62
7
  6
CONTINUOUS
 10
9.8898183383
 20
10.9117709751
 40
0.03
100
AcDbArc
 50
180.0
 51
270.0
  0
ARC
  5
262
100
AcDbEntity
  8
0
100
AcDbCircle
 62
9
  6
CONTINUOUS
 10
11.4517618392
 20
5.8792600097
 40
1.6552410036
100
AcDbArc
 50
307.1503424632
 51
309.7935602394
  0
ARC
  5
263
100
AcDbEntity
  8
0
100
AcDbCircle
 62
7
  6
CONTINUOUS
 10
11.2146302873
 20
7.074691838
 40
0.2908332702
100
AcDbArc
 50
33.1176938464
 51
34.5513386892
  0
ARC
  5
264
100
AcDbEntity
  8
0
100
AcDbCircle
 62
7
  6
CONTINUOUS
 10
11.2174374251
 20
7.3157245563
 40
0.2380256513
100
AcDbArc
 50
332.9011677386
 51
333.60616114
  0
ARC
  5
265
100
AcDbEntity
  8
0
100
AcDbCircle
 62
7
  6
CONTINUOUS
 10
11.2307358984
 20
7.231712394
 40
0.2229436136
100
AcDbArc
 50
346.3648044595
 51
347.0235575838
  0
ARC
  5
266
100
AcDbEntity
  8
0
100
AcDbCircle
 62
7
  6
CONTINUOUS
 10
11.2307818992
 20
7.1820381652
 40
0.2228981605
100
AcDbArc
 50
346.3681805737
 51
346.9881374863
  0
ARC
  5
267
100
AcDbEntity
  8
0
100
AcDbCircle
 62
7
  6
CONTINUOUS
 10
11.2328234217
 20
7.1815775416
 40
0.2208053469
100
AcDbArc
 50
346.985319985
 51
350.8476806345
  0
ARC
  5
268
100
AcDbEntity
  8
0
100
AcDbCircle
 62
7
  6
CONTINUOUS
 10
11.2329567654
 20
7.231214087
 40
0.2206675674
100
AcDbArc
 50
347.0201522933
 51
351.2790371685
  0
ARC
  5
269
100
AcDbEntity
  8
0
100
AcDbCircle
 62
7
  6
CONTINUOUS
 10
11.2378993883
 20
7.2486040864
 40
0.2156700017
100
AcDbArc
 50
355.1987851685
 51
355.4217546106
  0
ARC
  5
26A
100
AcDbEntity
  8
0
100
AcDbCircle
 62
7
  6
CONTINUOUS
 10
11.2379988319
 20
7.1459889182
 40
0.2155700992
100
AcDbArc
 50
355.4221909658
 51
356.0032423848
  0
ARC
  5
26B
100
AcDbEntity
  8
0
100
AcDbCircle
 62
7
  6
CONTINUOUS
 10
11.2380230096
 20
7.180780201
 40
0.215545134
100
AcDbArc
 50
350.8370864433
 51
359.9905075019
  0
ARC
  5
26C
100
AcDbEntity
  8
0
100
AcDbCircle
 62
7
  6
CONTINUOUS
 10
11.2380486105
 20
7.2485485329
 40
0.2155195308
100
AcDbArc
 50
0.0041919576
 51
7.3165116658
  0
ARC
  5
26D
100
AcDbEntity
  8
0
100
AcDbCircle
 62
7
  6
CONTINUOUS
 10
11.238070362
 20
7.2304535645
 40
0.2154977808
100
AcDbArc
 50
351.2727607589
 51
359.9920351339
  0
ARC
  5
26E
100
AcDbEntity
  8
0
100
AcDbCircle
 62
7
  6
CONTINUOUS
 10
11.2383053871
 20
7.1459548153
 40
0.2152627536
100
AcDbArc
 50
0.0015749826
 51
4.6400671846
  0
ARC
  5
26F
100
AcDbEntity
  8
0
100
AcDbCircle
 62
7
  6
CONTINUOUS
 10
11.2384564979
 20
7.1459616085
 40
0.2151116428
100
AcDbArc
 50
356.0020022315
 51
359.9997666936
  0
ARC
  5
270
100
AcDbEntity
  8
0
100
AcDbCircle
 62
7
  6
CONTINUOUS
 10
11.2384697366
 20
7.2485656336
 40
0.215098404
100
AcDbArc
 50
355.4198379967
 51
359.9996450412
  0
ARC
  5
271
100
AcDbEntity
  8
0
100
AcDbCircle
 62
7
  6
CONTINUOUS
 10
11.2385016726
 20
7.1973001064
 40
0.2150664681
100
AcDbArc
 50
355.5918702526
 51
4.4213051022
  0
ARC
  5
272
100
AcDbEntity
  8
0
100
AcDbCircle
 62
7
  6
CONTINUOUS
 10
11.2327555297
 20
7.2713817023
 40
0.213692556
100
AcDbArc
 50
342.0468976128
 51
352.5806644314
  0
ARC
  5
273
100
AcDbEntity
  8
0
100
AcDbCircle
 62
7
  6
CONTINUOUS
 10
11.6735683383
 20
9.5117709751
 40
0.03
100
AcDbArc
 50
270.0
 51
360.0
  0
ARC
  5
274
100
AcDbEntity
  8
0
100
AcDbCircle
 62
7
  6
CONTINUOUS
 10
11.0994922504
 20
15.6249303909
 40
4.5
100
AcDbArc
 50
254.4604045096
 51
263.5855182739
  0
ARC
  5
275
100
AcDbEntity
  8
0
100
AcDbCircle
 62
7
  6
CONTINUOUS
 10
14.3077531209
 20
11.2567709751
 40
0.1254347826
100
AcDbArc
 50
112.9364108859
 51
160.4680059554
  0
ARC
  5
276
100
AcDbEntity
  8
0
100
AcDbCircle
 62
7
  6
CONTINUOUS
 10
14.2343183383
 20
11.4303077147
 40
0.063
100
AcDbArc
 50
292.9364108859
 51
360.0
  0
ARC
  5
277
100
AcDbEntity
  8
0
100
AcDbCircle
 62
7
  6
CONTINUOUS
 10
14.130161828
 20
11.3197709751
 40
0.063
100
AcDbArc
 50
270.0
 51
340.4680059554
  0
ARC
  5
278
100
AcDbEntity
  8
0
100
AcDbCircle
 62
7
  6
CONTINUOUS
 10
12.1873183383
 20
11.3375977279
 40
0.05
100
AcDbArc
 50
285.5395954903
 51
360.0
  0
ARC
  5
279
100
AcDbEntity
  8
0
100
AcDbCircle
 62
7
  6
CONTINUOUS
 10
12.2048183383
 20
10.9117709751
 40
0.03
100
AcDbArc
 50
270.0
 51
360.0
  0
SPLINE
  5
27A
100
AcDbEntity
  8
0
100
AcDbSpline
 62
7
  6
CONTINUOUS
 70
0
 71
3
 72
15
 73
11
 74
0
 42
0.0000001
 43
0.0000001
 44
0.0000000001
 40
0.0
 40
0.0
 40
0.0
 40
0.0
 40
0.1203306633
 40
0.2411405126
 40
0.3628965964
 40
0.4860415341
 40
0.6109834022
 40
0.7380879898
 40
0.8676716797
 40
1.0
 40
1.0
 40
1.0
 40
1.0
 10
10.6410684139
 20
7.1060759892
 30
0.0
 10
10.6410685121
 20
7.1004194969
 30
0.0
 10
10.6415702817
 20
7.0890776528
 30
0.0
 10
10.6438242676
 20
7.0721472321
 30
0.0
 10
10.6475706661
 20
7.0553469381
 30
0.0
 10
10.6527951774
 20
7.0387434094
 30
0.0
 10
10.6594764668
 20
7.0223996218
 30
0.0
 10
10.6675898564
 20
7.0063782569
 30
0.0
 10
10.6771022462
 20
6.9907403421
 30
0.0
 10
10.6842762026
 20
6.9807185365
 30
0.0
 10
10.6880736366
 20
6.9757916887
 30
0.0
  0
SPLINE
  5
27B
100
AcDbEntity
  8
0
100
AcDbSpline
 62
7
  6
CONTINUOUS
 70
0
 71
3
 72
17
 73
13
 74
0
 42
0.0000001
 43
0.0000001
 44
0.0000000001
 40
0.0
 40
0.0
 40
0.0
 40
0.0
 40
0.0532514667
 40
0.1078744359
 40
0.1639140692
 40
0.2213883779
 40
0.3405255046
 40
0.4650100939
 40
0.5941848788
 40
0.7271490079
 40
0.8628167243
 40
1.0
 40
1.0
 40
1.0
 40
1.0
 10
10.6880736366
 20
6.9757916887
 30
0.0
 10
10.6924142636
 20
6.9701600944
 30
0.0
 10
10.7016725654
 20
6.9591033332
 30
0.0
 10
10.7169723269
 20
6.94342702
 30
0.0
 10
10.7337874186
 20
6.9285229133
 30
0.0
 10
10.7584126529
 20
6.9095532858
 30
0.0
 10
10.7926367592
 20
6.8882366883
 30
0.0
 10
10.8378166963
 20
6.8670958593
 30
0.0
 10
10.8867925066
 20
6.8504668068
 30
0.0
 10
10.938674922
 20
6.8386665484
 30
0.0
 10
10.9925214891
 20
6.831921529
 30
0.0
 10
11.0290047646
 20
6.8308922371
 30
0.0
 10
11.0473183383
 20
6.8312490384
 30
0.0
  0
SPLINE
  5
27C
100
AcDbEntity
  8
0
100
AcDbSpline
 62
7
  6
CONTINUOUS
 70
0
 71
3
 72
11
 73
7
 74
0
 42
0.0000001
 43
0.0000001
 44
0.0000000001
 40
0.0
 40
0.0
 40
0.0
 40
0.0
 40
0.2406714805
 40
0.4866857401
 40
0.7394623664
 40
1.0
 40
1.0
 40
1.0
 40
1.0
 10
10.6471948673
 20
7.1074812714
 30
0.0
 10
10.6492561274
 20
7.0994163154
 30
0.0
 10
10.6544433159
 20
7.0833511234
 30
0.0
 10
10.6651511728
 20
7.0600642265
 30
0.0
 10
10.678768975
 20
7.0375471321
 30
0.0
 10
10.6895430467
 20
7.0233893851
 30
0.0
 10
10.6953467171
 20
7.0164958174
 30
0.0
  0
SPLINE
  5
27D
100
AcDbEntity
  8
0
100
AcDbSpline
 62
7
  6
CONTINUOUS
 70
0
 71
3
 72
22
 73
18
 74
0
 42
0.0000001
 43
0.0000001
 44
0.0000000001
 40
0.0
 40
0.0
 40
0.0
 40
0.0
 40
0.0507154106
 40
0.1025616034
 40
0.1558274362
 40
0.2107391583
 40
0.2674566487
 40
0.3260737726
 40
0.3866221281
 40
0.4490759969
 40
0.5133580341
 40
0.5793456583
 40
0.6468769581
 40
0.7157579972
 40
0.7857680094
 40
0.8566604007
 40
1.0
 40
1.0
 40
1.0
 40
1.0
 10
10.6472383026
 20
7.1570288016
 30
0.0
 10
10.6493073644
 20
7.1489623686
 30
0.0
 10
10.6545108488
 20
7.1328942742
 30
0.0
 10
10.6652438802
 20
7.1096073642
 30
0.0
 10
10.6788882556
 20
7.0870887041
 30
0.0
 10
10.6953325142
 20
7.0655178997
 30
0.0
 10
10.7144474152
 20
7.0450596135
 30
0.0
 10
10.7360842081
 20
7.0258706874
 30
0.0
 10
10.7600769714
 20
7.0080980204
 30
0.0
 10
10.7862431498
 20
6.9918784884
 30
0.0
 10
10.8143845295
 20
6.9773379253
 30
0.0
 10
10.8442879048
 20
6.9645895463
 30
0.0
 10
10.8757273342
 20
6.9537334512
 30
0.0
 10
10.9084645571
 20
6.9448563473
 30
0.0
 10
10.9422546267
 20
6.9380303071
 30
0.0
 10
10.9885200893
 20
6.9317164993
 30
0.0
 10
11.023786187
 20
6.9302459043
 30
0.0
 10
11.0473183383
 20
6.9307051892
 30
0.0
  0
SPLINE
  5
27E
100
AcDbEntity
  8
0
100
AcDbSpline
 62
7
  6
CONTINUOUS
 70
0
 71
3
 72
28
 73
24
 74
0
 42
0.0000001
 43
0.0000001
 44
0.0000000001
 40
0.0
 40
0.0
 40
0.0
 40
0.0
 40
0.0615997661
 40
0.1256602218
 40
0.1585264281
 40
0.1918688468
 40
0.2597043311
 40
0.3286264886
 40
0.3980081436
 40
0.467192168
 40
0.5355235353
 40
0.6023808964
 40
0.6672096808
 40
0.7295560798
 40
0.7597083481
 40
0.7891353338
 40
0.8457431414
 40
0.8729780563
 40
0.8995243715
 40
0.9254292073
 40
0.9507554089
 40
0.9755813535
 40
1.0
 40
1.0
 40
1.0
 40
1.0
 10
11.3431286757
 20
7.0773044706
 30
0.0
 10
11.3300315745
 20
7.0670938715
 30
0.0
 10
11.3018885601
 20
7.04804605
 30
0.0
 10
11.2637825133
 20
7.0284834644
 30
0.0
 10
11.2313005877
 20
7.0150900199
 30
0.0
 10
11.1971782736
 20
7.0031439396
 30
0.0
 10
11.1527438622
 20
6.9914521854
 30
0.0
 10
11.097762583
 20
6.9827707276
 30
0.0
 10
11.0418317076
 20
6.9794920599
 30
0.0
 10
10.9860068007
 20
6.9816572971
 30
0.0
 10
10.9313364498
 20
6.9892048425
 30
0.0
 10
10.8788462555
 20
7.001975307
 30
0.0
 10
10.8295262323
 20
7.019710696
 30
0.0
 10
10.7914054208
 20
7.0385555598
 30
0.0
 10
10.7634171915
 20
7.0558338071
 30
0.0
 10
10.7378749552
 20
7.0739915407
 30
0.0
 10
10.7148005166
 20
7.0941849631
 30
0.0
 10
10.6947753767
 20
7.1162337328
 30
0.0
 10
10.6816249458
 20
7.1332526545
 30
0.0
 10
10.670218829
 20
7.150877305
 30
0.0
 10
10.6606126172
 20
7.1690238784
 30
0.0
 10
10.652855577
 20
7.187600693
 30
0.0
 10
10.6489141197
 20
7.2003035897
 30
0.0
 10
10.6472739456
 20
7.206679118
 30
0.0
  0
SPLINE
  5
27F
100
AcDbEntity
  8
0
100
AcDbSpline
 62
7
  6
CONTINUOUS
 70
0
 71
3
 72
13
 73
9
 74
0
 42
0.0000001
 43
0.0000001
 44
0.0000000001
 40
0.0
 40
0.0
 40
0.0
 40
0.0
 40
0.1170534582
 40
0.2359238299
 40
0.3569075944
 40
0.4802486064
 40
0.7345674937
 40
1.0
 40
1.0
 40
1.0
 40
1.0
 10
11.4360432101
 20
7.2055134434
 30
0.0
 10
11.4341191315
 20
7.1995534471
 30
0.0
 10
11.429729224
 20
7.1876999884
 30
0.0
 10
11.4216471896
 20
7.1703770787
 30
0.0
 10
11.4120574304
 20
7.1534523403
 30
0.0
 10
11.3971697965
 20
7.1312863004
 30
0.0
 10
11.3748811889
 20
7.1049158712
 30
0.0
 10
11.3542043177
 20
7.0861938818
 30
0.0
 10
11.3431286757
 20
7.0773044706
 30
0.0
  0
SPLINE
  5
280
100
AcDbEntity
  8
0
100
AcDbSpline
 62
7
  6
CONTINUOUS
 70
0
 71
3
 72
9
 73
5
 74
0
 42
0.0000001
 43
0.0000001
 44
0.0000000001
 40
0.0
 40
0.0
 40
0.0
 40
0.0
 40
0.4977370992
 40
1.0
 40
1.0
 40
1.0
 40
1.0
 10
11.4535680927
 20
7.304715385
 30
0.0
 10
11.4535539215
 20
7.2956019333
 30
0.0
 10
11.452287119
 20
7.2772734571
 30
0.0
 10
11.4485864169
 20
7.2592807322
 30
0.0
 10
11.4461570816
 20
7.250411076
 30
0.0
  0
SPLINE
  5
281
100
AcDbEntity
  8
0
100
AcDbSpline
 62
7
  6
CONTINUOUS
 70
0
 71
3
 72
9
 73
5
 74
0
 42
0.0000001
 43
0.0000001
 44
0.0000000001
 40
0.0
 40
0.0
 40
0.0
 40
0.0
 40
0.495683984
 40
1.0
 40
1.0
 40
1.0
 40
1.0
 10
11.4461570816
 20
7.250411076
 30
0.0
 10
11.4442620989
 20
7.2434923751
 30
0.0
 10
11.4397339343
 20
7.2297191012
 30
0.0
 10
11.4338955914
 20
7.2164505686
 30
0.0
 10
11.4306511796
 20
7.2099129049
 30
0.0
  0
SPLINE
  5
282
100
AcDbEntity
  8
0
100
AcDbSpline
 62
7
  6
CONTINUOUS
 70
0
 71
3
 72
18
 73
14
 74
0
 42
0.0000001
 43
0.0000001
 44
0.0000000001
 40
0.0
 40
0.0
 40
0.0
 40
0.0
 40
0.0525134362
 40
0.1063280386
 40
0.1615672762
 40
0.218313362
 40
0.336373122
 40
0.3977424861
 40
0.4605703008
 40
0.590146087
 40
0.7241526939
 40
0.861271147
 40
1.0
 40
1.0
 40
1.0
 40
1.0
 10
11.4293331176
 20
7.2072975016
 30
0.0
 10
11.4257703186
 20
7.2003346013
 30
0.0
 10
11.4178602327
 20
7.1865821343
 30
0.0
 10
11.4039672673
 20
7.1668960381
 30
0.0
 10
11.387991594
 20
7.1480234442
 30
0.0
 10
11.3637317681
 20
7.1237830683
 30
0.0
 10
11.3359315635
 20
7.1019731096
 30
0.0
 10
11.3053479389
 20
7.0827911913
 30
0.0
 10
11.2720194805
 20
7.0649055754
 30
0.0
 10
11.2270154444
 20
7.0461570199
 30
0.0
 10
11.1694576582
 20
7.0298924249
 30
0.0
 10
11.1091013446
 20
7.019983164
 30
0.0
 10
11.0679809485
 20
7.0177691099
 30
0.0
 10
11.0473183383
 20
7.0177691099
 30
0.0
  0
SPLINE
  5
283
100
AcDbEntity
  8
0
100
AcDbSpline
 62
7
  6
CONTINUOUS
 70
0
 71
3
 72
22
 73
18
 74
0
 42
0.0000001
 43
0.0000001
 44
0.0000000001
 40
0.0
 40
0.0
 40
0.0
 40
0.0
 40
0.1419935006
 40
0.212345934
 40
0.2819058648
 40
0.3504289008
 40
0.4176968401
 40
0.4835178749
 40
0.5477330421
 40
0.6102225036
 40
0.6709111034
 40
0.7297747316
 40
0.7868457336
 40
0.8422168167
 40
0.8960439408
 40
0.9485465561
 40
1.0
 40
1.0
 40
1.0
 40
1.0
 10
11.0473183383
 20
7.0177691099
 30
0.0
 10
11.0236624261
 20
7.0177691099
 30
0.0
 10
10.9882319216
 20
7.019952088
 30
0.0
 10
10.9418148396
 20
7.0272457798
 30
0.0
 10
10.9078999613
 20
7.0348242755
 30
0.0
 10
10.8750506014
 20
7.0444695135
 30
0.0
 10
10.8435145898
 20
7.056108561
 30
0.0
 10
10.8135329688
 20
7.0696534203
 30
0.0
 10
10.7853341805
 20
7.0850022378
 30
0.0
 10
10.7591335744
 20
7.1020397914
 30
0.0
 10
10.7351317897
 20
7.1206387203
 30
0.0
 10
10.7135131614
 20
7.1406597794
 30
0.0
 10
10.6944449399
 20
7.1619534493
 30
0.0
 10
10.6780764423
 20
7.1843598729
 30
0.0
 10
10.6645377918
 20
7.2077118978
 30
0.0
 10
10.6539410184
 20
7.2318267948
 30
0.0
 10
10.6488525215
 20
7.2484319109
 30
0.0
 10
10.6468437919
 20
7.2567653003
 30
0.0
  0
SPLINE
  5
284
100
AcDbEntity
  8
0
100
AcDbSpline
 62
7
  6
CONTINUOUS
 70
0
 71
3
 72
28
 73
24
 74
0
 42
0.0000001
 43
0.0000001
 44
0.0000000001
 40
0.0
 40
0.0
 40
0.0
 40
0.0
 40
0.0667292846
 40
0.1351416477
 40
0.204722627
 40
0.2748997673
 40
0.3450769307
 40
0.4146576077
 40
0.4830712279
 40
0.5497995161
 40
0.6144038073
 40
0.6765535577
 40
0.7360556249
 40
0.7648152871
 40
0.7929187567
 40
0.8203927438
 40
0.8472772535
 40
0.8736252353
 40
0.8995023363
 40
0.9249862713
 40
0.9501650914
 40
0.975135435
 40
1.0
 40
1.0
 40
1.0
 40
1.0
 10
11.3348183383
 20
5.5665982039
 30
0.0
 10
11.3127709428
 20
5.5575973924
 30
0.0
 10
11.2671136218
 20
5.5417508287
 30
0.0
 10
11.1959481533
 20
5.5247475694
 30
0.0
 10
11.1222653459
 20
5.5144283074
 30
0.0
 10
11.0473184262
 20
5.5109698164
 30
0.0
 10
10.9723710193
 20
5.51442851
 30
0.0
 10
10.8986896288
 20
5.5247468681
 30
0.0
 10
10.8275178235
 20
5.5417532168
 30
0.0
 10
10.7600570483
 20
5.5651653312
 30
0.0
 10
10.6974432898
 20
5.5945996626
 30
0.0
 10
10.6407408304
 20
5.6295678491
 30
0.0
 10
10.5987274986
 20
5.6632424672
 30
0.0
 10
10.5691243771
 20
5.692407641
 30
0.0
 10
10.5492114728
 20
5.7150123875
 30
0.0
 10
10.5314292554
 20
5.7384958563
 30
0.0
 10
10.5158535694
 20
5.7627587216
 30
0.0
 10
10.5025535265
 20
5.78769795
 30
0.0
 10
10.4915887327
 20
5.8132073104
 30
0.0
 10
10.4830074953
 20
5.8391765123
 30
0.0
 10
10.476849956
 20
5.8654944192
 30
0.0
 10
10.4731440195
 20
5.8920431974
 30
0.0
 10
10.4723183384
 20
5.9098388518
 30
0.0
 10
10.4723183383
 20
5.9187123544
 30
0.0
  0
SPLINE
  5
285
100
AcDbEntity
  8
0
100
AcDbSpline
 62
7
  6
CONTINUOUS
 70
0
 71
3
 72
15
 73
11
 74
0
 42
0.0000001
 43
0.0000001
 44
0.0000000001
 40
0.0
 40
0.0
 40
0.0
 40
0.0
 40
0.1361764028
 40
0.2683952459
 40
0.3968828088
 40
0.5219943549
 40
0.6442129069
 40
0.7641398871
 40
0.8824771379
 40
1.0
 40
1.0
 40
1.0
 40
1.0
 10
11.4981424933
 20
6.8357638723
 30
0.0
 10
11.5079521664
 20
6.8270022048
 30
0.0
 10
11.5265713336
 20
6.8089084334
 30
0.0
 10
11.5515670433
 20
6.7797747742
 30
0.0
 10
11.573042092
 20
6.7492450999
 30
0.0
 10
11.5908375769
 20
6.7175320734
 30
0.0
 10
11.6048224454
 20
6.6848563178
 30
0.0
 10
11.6148904891
 20
6.6514464914
 30
0.0
 10
11.6209636481
 20
6.6175475255
 30
0.0
 10
11.6223182337
 20
6.5947438606
 30
0.0
 10
11.6223183249
 20
6.5833927287
 30
0.0
  0
SPLINE
  5
286
100
AcDbEntity
  8
0
100
AcDbSpline
 62
7
  6
CONTINUOUS
 70
0
 71
3
 72
17
 73
13
 74
0
 42
0.0000001
 43
0.0000001
 44
0.0000000001
 40
0.0
 40
0.0
 40
0.0
 40
0.0
 40
0.1411748471
 40
0.2778553677
 40
0.4096711014
 40
0.5364842082
 40
0.6583934921
 40
0.7757740495
 40
0.8329963784
 40
0.8893560763
 40
0.9449779137
 40
1.0
 40
1.0
 40
1.0
 40
1.0
 10
11.2201279562
 20
6.44947808
 30
0.0
 10
11.2311222259
 20
6.4539664719
 30
0.0
 10
11.2523827812
 20
6.4637694516
 30
0.0
 10
11.2822003436
 20
6.4811518691
 30
0.0
 10
11.3091123375
 20
6.5007900067
 30
0.0
 10
11.332779767
 20
6.5224472378
 30
0.0
 10
11.3529018763
 20
6.5458612604
 30
0.0
 10
11.3666192867
 20
6.5667918499
 30
0.0
 10
11.3755052748
 20
6.5840842025
 30
0.0
 10
11.3810876
 20
6.5971910819
 30
0.0
 10
11.3856250983
 20
6.6104989852
 30
0.0
 10
11.3879538473
 20
6.6195211442
 30
0.0
 10
11.388935709
 20
6.624044076
 30
0.0
  0
SPLINE
  5
287
100
AcDbEntity
  8
0
100
AcDbSpline
 62
7
  6
CONTINUOUS
 70
0
 71
3
 72
21
 73
17
 74
0
 42
0.0000001
 43
0.0000001
 44
0.0000000001
 40
0.0
 40
0.0
 40
0.0
 40
0.0
 40
0.0615663286
 40
0.1231266113
 40
0.1847173394
 40
0.246338
 40
0.3080099903
 40
0.3697611211
 40
0.4316206805
 40
0.4936282687
 40
0.5558268104
 40
0.6182615033
 40
0.6809813261
 40
0.7440287178
 40
0.8711851507
 40
1.0
 40
1.0
 40
1.0
 40
1.0
 10
11.4998183383
 20
6.8718018917
 30
0.0
 10
11.4998183383
 20
6.8626881682
 30
0.0
 10
11.4990392681
 20
6.8444520176
 30
0.0
 10
11.4955448771
 20
6.8173007566
 30
0.0
 10
11.489767019
 20
6.7905324819
 30
0.0
 10
11.4817635527
 20
6.7643274503
 30
0.0
 10
11.4716190124
 20
6.7388500772
 30
0.0
 10
11.4594321184
 20
6.7142459477
 30
0.0
 10
11.4453112532
 20
6.6906420858
 30
0.0
 10
11.4293754763
 20
6.6681440933
 30
0.0
 10
11.411744523
 20
6.6468395334
 30
0.0
 10
11.3925394434
 20
6.6267983643
 30
0.0
 10
11.3718783576
 20
6.6080750107
 30
0.0
 10
11.3424674423
 20
6.5848664295
 30
0.0
 10
11.3025679798
 20
6.5593502241
 30
0.0
 10
11.2682797407
 20
6.5429824523
 30
0.0
 10
11.2506256592
 20
6.5357752037
 30
0.0
  0
SPLINE
  5
288
100
AcDbEntity
  8
0
100
AcDbSpline
 62
7
  6
CONTINUOUS
 70
0
 71
3
 72
22
 73
18
 74
0
 42
0.0000001
 43
0.0000001
 44
0.0000000001
 40
0.0
 40
0.0
 40
0.0
 40
0.0
 40
0.1306782337
 40
0.195658575
 40
0.2601934368
 40
0.324192051
 40
0.3876045877
 40
0.4504244863
 40
0.5126839509
 40
0.5744480176
 40
0.6358047665
 40
0.696846421
 40
0.7576658995
 40
0.8183414284
 40
0.8789295781
 40
0.939473836
 40
1.0
 40
1.0
 40
1.0
 40
1.0
 10
11.0455735234
 20
6.4967749028
 30
0.0
 10
11.0172390051
 20
6.4968629953
 30
0.0
 10
10.9747280829
 20
6.5002061787
 30
0.0
 10
10.9193331214
 20
6.5111024038
 30
0.0
 10
10.8788817589
 20
6.5224296038
 30
0.0
 10
10.8398036985
 20
6.5368842027
 30
0.0
 10
10.8024130546
 20
6.5544198347
 30
0.0
 10
10.7670281419
 20
6.5749814307
 30
0.0
 10
10.7339684962
 20
6.5985017853
 30
0.0
 10
10.7035641594
 20
6.6248935709
 30
0.0
 10
10.676159554
 20
6.65403512
 30
0.0
 10
10.6521127679
 20
6.6857549498
 30
0.0
 10
10.6317868806
 20
6.7198139268
 30
0.0
 10
10.6155331643
 20
6.7558915781
 30
0.0
 10
10.603666211
 20
6.7935841568
 30
0.0
 10
10.5964373716
 20
6.8323982487
 30
0.0
 10
10.5948183383
 20
6.8586781454
 30
0.0
 10
10.5948183383
 20
6.8718018917
 30
0.0
  0
SPLINE
  5
289
100
AcDbEntity
  8
0
100
AcDbSpline
 62
7
  6
CONTINUOUS
 70
0
 71
3
 72
11
 73
7
 74
0
 42
0.0000001
 43
0.0000001
 44
0.0000000001
 40
0.0
 40
0.0
 40
0.0
 40
0.0
 40
0.2553311472
 40
0.4455308678
 40
0.6336135484
 40
1.0
 40
1.0
 40
1.0
 40
1.0
 10
11.0488742163
 20
6.4967744426
 30
0.0
 10
11.0660533979
 20
6.496821973
 30
0.0
 10
11.0960462527
 20
6.4982781104
 30
0.0
 10
11.1383538601
 20
6.503788756
 30
0.0
 10
11.1874828515
 20
6.5137517898
 30
0.0
 10
11.2232137111
 20
6.5251056806
 30
0.0
 10
11.2460363757
 20
6.5344229945
 30
0.0
  0
SPLINE
  5
28A
100
AcDbEntity
  8
0
100
AcDbSpline
 62
7
  6
CONTINUOUS
 70
0
 71
3
 72
12
 73
8
 74
0
 42
0.0000001
 43
0.0000001
 44
0.0000000001
 40
0.0
 40
0.0
 40
0.0
 40
0.0
 40
0.2470473412
 40
0.4964919073
 40
0.6219692116
 40
0.7477997729
 40
1.0
 40
1.0
 40
1.0
 40
1.0
 10
11.2506256592
 20
6.5357752037
 30
0.0
 10
11.234867971
 20
6.5293421544
 30
0.0
 10
11.2025115634
 20
6.5180421842
 30
0.0
 10
11.1607988038
 20
6.5079407413
 30
0.0
 10
11.1267638347
 20
6.5022284238
 30
0.0
 10
11.0923118577
 20
6.4981025335
 30
0.0
 10
11.0662494068
 20
6.4968223466
 30
0.0
 10
11.0488742182
 20
6.4967743322
 30
0.0
  0
SPLINE
  5
28B
100
AcDbEntity
  8
0
100
AcDbSpline
 62
7
  6
CONTINUOUS
 70
0
 71
3
 72
14
 73
10
 74
0
 42
0.0000001
 43
0.0000001
 44
0.0000000001
 40
0.0
 40
0.0
 40
0.0
 40
0.0
 40
0.1215234398
 40
0.243399784
 40
0.3659750348
 40
0.4895809646
 40
0.6145296378
 40
0.7411073626
 40
1.0
 40
1.0
 40
1.0
 40
1.0
 10
11.4998181903
 20
7.0995806789
 30
0.0
 10
11.499818119
 20
7.105343539
 30
0.0
 10
11.4993766129
 20
7.1168908421
 30
0.0
 10
11.4973915262
 20
7.1341481152
 30
0.0
 10
11.4940902962
 20
7.1513040304
 30
0.0
 10
11.4894827781
 20
7.168306104
 30
0.0
 10
11.4835823926
 20
7.1851060631
 30
0.0
 10
11.4739489414
 20
7.2073273398
 30
0.0
 10
11.4649252302
 20
7.2233088101
 30
0.0
 10
11.458217702
 20
7.2335916884
 30
0.0
  0
SPLINE
  5
28C
100
AcDbEntity
  8
0
100
AcDbSpline
 62
7
  6
CONTINUOUS
 70
0
 71
3
 72
15
 73
11
 74
0
 42
0.0000001
 43
0.0000001
 44
0.0000000001
 40
0.0
 40
0.0
 40
0.0
 40
0.0
 40
0.1217827216
 40
0.2438889637
 40
0.3666357015
 40
0.4903291713
 40
0.6152574776
 40
0.7416888142
 40
0.8698646208
 40
1.0
 40
1.0
 40
1.0
 40
1.0
 10
10.5948184862
 20
7.0995806791
 30
0.0
 10
10.5948184181
 20
7.1050892728
 30
0.0
 10
10.5952218
 20
7.116125336
 30
0.0
 10
10.5970355214
 20
7.1326238364
 30
0.0
 10
10.6000516375
 20
7.1490339747
 30
0.0
 10
10.604263515
 20
7.1653099263
 30
0.0
 10
10.6096574431
 20
7.1814086895
 30
0.0
 10
10.6162205215
 20
7.1972865273
 30
0.0
 10
10.6239324642
 20
7.212900973
 30
0.0
 10
10.6297805621
 20
7.223027135
 30
0.0
 10
10.6328819451
 20
7.2280302578
 30
0.0
  0
LINE
  5
28D
100
AcDbEntity
  8
0
100
AcDbLine
 62
7
  6
CONTINUOUS
 10
10.64120469
 20
7.2406973966
 11
10.6416212646
 21
7.2412952601
  0
SPLINE
  5
28E
100
AcDbEntity
  8
0
100
AcDbSpline
 62
7
  6
CONTINUOUS
 70
0
 71
3
 72
21
 73
17
 74
0
 42
0.0000001
 43
0.0000001
 44
0.0000000001
 40
0.0
 40
0.0
 40
0.0
 40
0.0
 40
0.0552266429
 40
0.1106882222
 40
0.166612851
 40
0.2232151899
 40
0.280690799
 40
0.33921227
 40
0.3989253962
 40
0.4599478212
 40
0.5223684279
 40
0.586246355
 40
0.7184070013
 40
0.7867410401
 40
0.8565053179
 40
1.0
 40
1.0
 40
1.0
 40
1.0
 10
11.6223183383
 20
5.9187123544
 30
0.0
 10
11.6223183384
 20
5.9098388525
 30
0.0
 10
11.6214926572
 20
5.8920432012
 30
0.0
 10
11.6177867222
 20
5.8654944276
 30
0.0
 10
11.6116291846
 20
5.8391765225
 30
0.0
 10
11.6030479465
 20
5.8132073183
 30
0.0
 10
11.5920831508
 20
5.7876979509
 30
0.0
 10
11.5787831086
 20
5.7627587259
 30
0.0
 10
11.5632074131
 20
5.7384958473
 30
0.0
 10
11.5454252584
 20
5.715012424
 30
0.0
 10
11.5255121004
 20
5.6924075212
 30
0.0
 10
11.4959102317
 20
5.6632431922
 30
0.0
 10
11.4626548364
 20
5.636588775
 30
0.0
 10
11.4264199088
 20
5.6126250832
 30
0.0
 10
11.3872558389
 20
5.5899277294
 30
0.0
 10
11.3561639602
 20
5.5753125176
 30
0.0
 10
11.3348183383
 20
5.5665982039
 30
0.0
  0
SPLINE
  5
28F
100
AcDbEntity
  8
0
100
AcDbSpline
 62
7
  6
CONTINUOUS
 70
0
 71
3
 72
15
 73
11
 74
0
 42
0.0000001
 43
0.0000001
 44
0.0000000001
 40
0.0
 40
0.0
 40
0.0
 40
0.0
 40
0.1175183615
 40
0.2358515106
 40
0.3557753665
 40
0.477991966
 40
0.6031030228
 40
0.7315927477
 40
0.8638097729
 40
1.0
 40
1.0
 40
1.0
 40
1.0
 10
10.4723183517
 20
6.5833927287
 30
0.0
 10
10.4723182605
 20
6.5947473257
 30
0.0
 10
10.4736740819
 20
6.6175579978
 30
0.0
 10
10.4797507365
 20
6.6514672213
 30
0.0
 10
10.4898248794
 20
6.6848868605
 30
0.0
 10
10.5038181431
 20
6.7175717554
 30
0.0
 10
10.5216243916
 20
6.7492930895
 30
0.0
 10
10.5431121797
 20
6.7798294745
 30
0.0
 10
10.5681222967
 20
6.8089699692
 30
0.0
 10
10.5867525675
 20
6.8270668442
 30
0.0
 10
10.5965685924
 20
6.8358301886
 30
0.0
  0
SPLINE
  5
290
100
AcDbEntity
  8
0
100
AcDbSpline
 62
7
  6
CONTINUOUS
 70
0
 71
3
 72
23
 73
19
 74
0
 42
0.0000001
 43
0.0000001
 44
0.0000000001
 40
0.0
 40
0.0
 40
0.0
 40
0.0
 40
0.0562255131
 40
0.1126445724
 40
0.1694456942
 40
0.2268097165
 40
0.2849045204
 40
0.3438821312
 40
0.4038753622
 40
0.4649955069
 40
0.5273306488
 40
0.5909445932
 40
0.6232489045
 40
0.6558856056
 40
0.7221508586
 40
0.789741357
 40
0.8586252377
 40
1.0
 40
1.0
 40
1.0
 40
1.0
 10
13.0473183383
 20
4.8325377656
 30
0.0
 10
13.0473183383
 20
4.8005962056
 30
0.0
 10
13.0443630528
 20
4.7365642278
 30
0.0
 10
13.0311017002
 20
4.6410916754
 30
0.0
 10
13.0090960048
 20
4.5465788562
 30
0.0
 10
12.9784858492
 20
4.4534969843
 30
0.0
 10
12.9394565922
 20
4.3622789651
 30
0.0
 10
12.8922327562
 20
4.2733340299
 30
0.0
 10
12.8370711527
 20
4.1870428108
 30
0.0
 10
12.774255055
 20
4.1037594088
 30
0.0
 10
12.7040938048
 20
4.0238165405
 30
0.0
 10
12.6401016577
 20
3.9605587805
 30
0.0
 10
12.5856291943
 20
3.9118965469
 30
0.0
 10
12.5284199088
 20
3.8640968608
 30
0.0
 10
12.4529123231
 20
3.8070213252
 30
0.0
 10
12.3568493826
 20
3.7433485338
 30
0.0
 10
12.2202841185
 20
3.664064757
 30
0.0
 10
12.1119123813
 20
3.6130731523
 30
0.0
 10
12.0375554962
 20
3.5827170811
 30
0.0
  0
SPLINE
  5
291
100
AcDbEntity
  8
0
100
AcDbSpline
 62
7
  6
CONTINUOUS
 70
0
 71
3
 72
38
 73
34
 74
0
 42
0.0000001
 43
0.0000001
 44
0.0000000001
 40
0.0
 40
0.0
 40
0.0
 40
0.0
 40
0.066292965
 40
0.1000650636
 40
0.1341724415
 40
0.1685521702
 40
0.203138835
 40
0.2378641602
 40
0.2726582223
 40
0.3074502593
 40
0.3421695337
 40
0.3767462038
 40
0.4111121733
 40
0.4452019556
 40
0.4789535908
 40
0.5123094896
 40
0.5452172958
 40
0.577630784
 40
0.6095107315
 40
0.6408257397
 40
0.67155304
 40
0.7016792468
 40
0.7312010423
 40
0.7601256684
 40
0.7884712371
 40
0.816266898
 40
0.8435527684
 40
0.8703793777
 40
0.8968068976
 40
0.9229041267
 40
0.9487469702
 40
0.9744172327
 40
1.0
 40
1.0
 40
1.0
 40
1.0
 10
12.0375554962
 20
3.5827170811
 30
0.0
 10
11.9611969016
 20
3.5515438154
 30
0.0
 10
11.8433095396
 20
3.5106376452
 30
0.0
 10
11.6819307114
 20
3.4677972868
 30
0.0
 10
11.5574637916
 20
3.441192898
 30
0.0
 10
11.4308713847
 20
3.4204310124
 30
0.0
 10
11.3026740741
 20
3.4055907745
 30
0.0
 10
11.1734094748
 20
3.3967321113
 30
0.0
 10
11.0436174519
 20
3.3938899609
 30
0.0
 10
10.9138409638
 20
3.3970756393
 30
0.0
 10
10.7846226726
 20
3.4062764176
 30
0.0
 10
10.6565027619
 20
3.4214556973
 30
0.0
 10
10.5300164493
 20
3.4425532485
 30
0.0
 10
10.4056916207
 20
3.469485699
 30
0.0
 10
10.2840465066
 20
3.502146958
 30
0.0
 10
10.1655875464
 20
3.5404090498
 30
0.0
 10
10.0508074831
 20
3.5841230875
 30
0.0
 10
9.940183616
 20
3.6331202574
 30
0.0
 10
9.8341763117
 20
3.6872128295
 30
0.0
 10
9.7332278716
 20
3.7461951958
 30
0.0
 10
9.637761649
 20
3.8098446558
 30
0.0
 10
9.5481814304
 20
3.8779220686
 30
0.0
 10
9.4648713184
 20
3.9501723562
 30
0.0
 10
9.388195707
 20
4.0263242081
 30
0.0
 10
9.3184992626
 20
4.1060892026
 30
0.0
 10
9.2561065628
 20
4.1891603248
 30
0.0
 10
9.2013210604
 20
4.2752097556
 30
0.0
 10
9.1544229111
 20
4.363886108
 30
0.0
 10
9.1156654175
 20
4.4548123617
 30
0.0
 10
9.0852701702
 20
4.547583115
 30
0.0
 10
9.0634198945
 20
4.6417697874
 30
0.0
 10
9.0502526295
 20
4.7369059682
 30
0.0
 10
9.0473183383
 20
4.8007096155
 30
0.0
 10
9.0473183383
 20
4.8325377656
 30
0.0
  0
SPLINE
  5
292
100
AcDbEntity
  8
0
100
AcDbSpline
 62
7
  6
CONTINUOUS
 70
0
 71
3
 72
23
 73
19
 74
0
 42
0.0000001
 43
0.0000001
 44
0.0000000001
 40
0.0
 40
0.0
 40
0.0
 40
0.0
 40
0.0562255131
 40
0.1126445724
 40
0.1694456942
 40
0.2268097165
 40
0.2849045204
 40
0.3438821312
 40
0.4038753622
 40
0.4649955069
 40
0.5273306488
 40
0.5909445932
 40
0.6232489045
 40
0.6558856056
 40
0.7221508586
 40
0.789741357
 40
0.8586252377
 40
1.0
 40
1.0
 40
1.0
 40
1.0
 10
9.0473183383
 20
5.4293944618
 30
0.0
 10
9.0473183383
 20
5.4613360218
 30
0.0
 10
9.0502736238
 20
5.5253679996
 30
0.0
 10
9.0635349763
 20
5.620840552
 30
0.0
 10
9.0855406718
 20
5.7153533712
 30
0.0
 10
9.1161508274
 20
5.8084352431
 30
0.0
 10
9.1551800844
 20
5.8996532623
 30
0.0
 10
9.2024039204
 20
5.9885981975
 30
0.0
 10
9.2575655239
 20
6.0748894166
 30
0.0
 10
9.3203816216
 20
6.1581728187
 30
0.0
 10
9.3905428718
 20
6.2381156869
 30
0.0
 10
9.4545350188
 20
6.3013734469
 30
0.0
 10
9.5090074823
 20
6.3500356805
 30
0.0
 10
9.5662167678
 20
6.3978353666
 30
0.0
 10
9.6417243535
 20
6.4549109022
 30
0.0
 10
9.737787294
 20
6.5185836936
 30
0.0
 10
9.8743525581
 20
6.5978674704
 30
0.0
 10
9.9827242954
 20
6.6488590751
 30
0.0
 10
10.0570811804
 20
6.6792151464
 30
0.0
  0
SPLINE
  5
293
100
AcDbEntity
  8
0
100
AcDbSpline
 62
7
  6
CONTINUOUS
 70
0
 71
3
 72
11
 73
7
 74
0
 42
0.0000001
 43
0.0000001
 44
0.0000000001
 40
0.0
 40
0.0
 40
0.0
 40
0.0
 40
0.2450903595
 40
0.4937861216
 40
0.745597818
 40
1.0
 40
1.0
 40
1.0
 40
1.0
 10
10.0570811804
 20
6.6792151464
 30
0.0
 10
10.0988430789
 20
6.69626437
 30
0.0
 10
10.1840087086
 20
6.7281489899
 30
0.0
 10
10.3150930143
 20
6.7689661272
 30
0.0
 10
10.4498752408
 20
6.8029646601
 30
0.0
 10
10.5413516497
 20
6.8208997906
 30
0.0
 10
10.5875183428
 20
6.8287048321
 30
0.0
  0
SPLINE
  5
294
100
AcDbEntity
  8
0
100
AcDbSpline
 62
7
  6
CONTINUOUS
 70
0
 71
3
 72
29
 73
25
 74
0
 42
0.0000001
 43
0.0000001
 44
0.0000000001
 40
0.0
 40
0.0
 40
0.0
 40
0.0
 40
0.0722871825
 40
0.1436901722
 40
0.2140092244
 40
0.2830681214
 40
0.3507192283
 40
0.4168482775
 40
0.4813788932
 40
0.5442768182
 40
0.6055534437
 40
0.6652679312
 40
0.6945798563
 40
0.7235459058
 40
0.7521869586
 40
0.7805267719
 40
0.8085915755
 40
0.8364101669
 40
0.864013424
 40
0.8914341983
 40
0.9187068518
 40
0.9458674319
 40
0.9729530231
 40
1.0
 40
1.0
 40
1.0
 40
1.0
 10
11.5065252746
 20
6.8288050039
 30
0.0
 10
11.560153409
 20
6.8197510816
 30
0.0
 10
11.6662378153
 20
6.7985119694
 30
0.0
 10
11.8219416113
 20
6.7570971844
 30
0.0
 10
11.9723762334
 20
6.7065483398
 30
0.0
 10
12.1165131696
 20
6.6471856378
 30
0.0
 10
12.2533760899
 20
6.5793793348
 30
0.0
 10
12.3820331086
 20
6.5035481499
 30
0.0
 10
12.501602149
 20
6.4201565402
 30
0.0
 10
12.6112539069
 20
6.3297091514
 30
0.0
 10
12.7102035973
 20
6.2327633695
 30
0.0
 10
12.7836044961
 20
6.1465002412
 30
0.0
 10
12.8361116254
 20
6.0748815613
 30
0.0
 10
12.8721465914
 20
6.0202760164
 30
0.0
 10
12.9050003624
 20
5.9645469091
 30
0.0
 10
12.9346030683
 20
5.9077869303
 30
0.0
 10
12.9608912717
 20
5.850096139
 30
0.0
 10
12.9838043977
 20
5.7915772613
 30
0.0
 10
13.0032896153
 20
5.7323384206
 30
0.0
 10
13.0192997335
 20
5.6724916301
 30
0.0
 10
13.0317945846
 20
5.6121530155
 30
0.0
 10
13.040743529
 20
5.5514413106
 30
0.0
 10
13.046121227
 20
5.4904819625
 30
0.0
 10
13.0473183383
 20
5.4497439209
 30
0.0
 10
13.0473183383
 20
5.4293944618
 30
0.0
  0
SPLINE
  5
295
100
AcDbEntity
  8
0
100
AcDbSpline
 62
7
  6
CONTINUOUS
 70
0
 71
3
 72
15
 73
11
 74
0
 42
0.0000001
 43
0.0000001
 44
0.0000000001
 40
0.0
 40
0.0
 40
0.0
 40
0.0
 40
0.1105703397
 40
0.2261364122
 40
0.3465174783
 40
0.4712876191
 40
0.5998334698
 40
0.7313936329
 40
0.8650952734
 40
1.0
 40
1.0
 40
1.0
 40
1.0
 10
10.7135040132
 20
6.9968983449
 30
0.0
 10
10.7230162446
 20
6.9875302645
 30
0.0
 10
10.7437631438
 20
6.9696493155
 30
0.0
 10
10.778543022
 20
6.9462391469
 30
0.0
 10
10.817183787
 20
6.9259649706
 30
0.0
 10
10.8591249721
 20
6.9091293459
 30
0.0
 10
10.9037668981
 20
6.895979446
 30
0.0
 10
10.9504704619
 20
6.8867152338
 30
0.0
 10
10.998561663
 20
6.8814809794
 30
0.0
 10
11.0310324228
 20
6.8807389467
 30
0.0
 10
11.0473183383
 20
6.8810576983
 30
0.0
  0
SPLINE
  5
296
100
AcDbEntity
  8
0
100
AcDbSpline
 62
7
  6
CONTINUOUS
 70
0
 71
3
 72
13
 73
9
 74
0
 42
0.0000001
 43
0.0000001
 44
0.0000000001
 40
0.0
 40
0.0
 40
0.0
 40
0.0
 40
0.2571023812
 40
0.3848644877
 40
0.5115353475
 40
0.636730213
 40
0.7600968201
 40
1.0
 40
1.0
 40
1.0
 40
1.0
 10
11.0473183383
 20
6.8312490384
 30
0.0
 10
11.069294922
 20
6.8316772057
 30
0.0
 10
11.1021982892
 20
6.8342044403
 30
0.0
 10
11.1453626577
 20
6.8413421583
 30
0.0
 10
11.1770351124
 20
6.8485224723
 30
0.0
 10
11.2078570231
 20
6.8574983583
 30
0.0
 10
11.2471649412
 20
6.8716474497
 30
0.0
 10
11.2753619752
 20
6.8849556497
 30
0.0
 10
11.2932402684
 20
6.8950075139
 30
0.0
  0
SPLINE
  5
297
100
AcDbEntity
  8
0
100
AcDbSpline
 62
7
  6
CONTINUOUS
 70
0
 71
3
 72
19
 73
15
 74
0
 42
0.0000001
 43
0.0000001
 44
0.0000000001
 40
0.0
 40
0.0
 40
0.0
 40
0.0
 40
0.1403541671
 40
0.2758340215
 40
0.4063245824
 40
0.5319839732
 40
0.593167298
 40
0.6533378964
 40
0.7125996782
 40
0.7710729635
 40
0.8288945869
 40
0.886214288
 40
0.943193297
 40
1.0
 40
1.0
 40
1.0
 40
1.0
 10
11.2932402684
 20
6.8950075139
 30
0.0
 10
11.3054356181
 20
6.9018642087
 30
0.0
 10
11.3287663593
 20
6.9165196171
 30
0.0
 10
11.3606506828
 20
6.9416262484
 30
0.0
 10
11.3884266258
 20
6.9691855575
 30
0.0
 10
11.4080144013
 20
6.9941466237
 30
0.0
 10
11.4211908842
 20
7.0149666211
 30
0.0
 10
11.4297501245
 20
7.0308234592
 30
0.0
 10
11.4370435436
 20
7.0470051735
 30
0.0
 10
11.4430448091
 20
7.0634611293
 30
0.0
 10
11.4477351736
 20
7.0801370351
 30
0.0
 10
11.4510962442
 20
7.0969797294
 30
0.0
 10
11.4531185088
 20
7.1139323756
 30
0.0
 10
11.4535681405
 20
7.125279858
 30
0.0
 10
11.4535681407
 20
7.1309424461
 30
0.0
  0
SPLINE
  5
298
100
AcDbEntity
  8
0
100
AcDbSpline
 62
7
  6
CONTINUOUS
 70
0
 71
3
 72
21
 73
17
 74
0
 42
0.0000001
 43
0.0000001
 44
0.0000000001
 40
0.0
 40
0.0
 40
0.0
 40
0.0
 40
0.1405001701
 40
0.2102458624
 40
0.2793008882
 40
0.4143303984
 40
0.4799814002
 40
0.5441457476
 40
0.6067054163
 40
0.6675854006
 40
0.7267593743
 40
0.7842542187
 40
0.8401536409
 40
0.8946008135
 40
0.9477975304
 40
1.0
 40
1.0
 40
1.0
 40
1.0
 10
11.0473183383
 20
6.8810576983
 30
0.0
 10
11.0709080714
 20
6.8815194019
 30
0.0
 10
11.1062176374
 20
6.8843819704
 30
0.0
 10
11.1524302776
 20
6.8925393515
 30
0.0
 10
11.1971375314
 20
6.9034027563
 30
0.0
 10
11.2400655043
 20
6.91836927
 30
0.0
 10
11.2803041788
 20
6.9373873646
 30
0.0
 10
11.3084474346
 20
6.9533144506
 30
0.0
 10
11.3346129979
 20
6.9709199851
 30
0.0
 10
11.3586042385
 20
6.9900788958
 30
0.0
 10
11.3802377557
 20
7.0106537195
 30
0.0
 10
11.3993475138
 20
7.0324970386
 30
0.0
 10
11.4157847154
 20
7.0554512611
 30
0.0
 10
11.429420459
 20
7.0793507978
 30
0.0
 10
11.4401442586
 20
7.1040155554
 30
0.0
 10
11.4453350246
 20
7.1209856711
 30
0.0
 10
11.4474010773
 20
7.1295051124
 30
0.0
  0
SPLINE
  5
299
100
AcDbEntity
  8
0
100
AcDbSpline
 62
7
  6
CONTINUOUS
 70
0
 71
3
 72
18
 73
14
 74
0
 42
0.0000001
 43
0.0000001
 44
0.0000000001
 40
0.0
 40
0.0
 40
0.0
 40
0.0
 40
0.1363293553
 40
0.2715223851
 40
0.4042632263
 40
0.533373711
 40
0.5962908825
 40
0.6579711337
 40
0.7773016324
 40
0.8349592286
 40
0.8912610411
 40
0.9462497696
 40
1.0
 40
1.0
 40
1.0
 40
1.0
 10
11.0473183383
 20
6.9307051892
 30
0.0
 10
11.0668328962
 20
6.9310860615
 30
0.0
 10
11.105690085
 20
6.9338227608
 30
0.0
 10
11.1628037912
 20
6.9438005493
 30
0.0
 10
11.2175599661
 20
6.9594683188
 30
0.0
 10
11.2606712436
 20
6.9771846031
 30
0.0
 10
11.2929080505
 20
6.9939697157
 30
0.0
 10
11.3228374955
 20
7.0119963214
 30
0.0
 10
11.3503838384
 20
7.0324274545
 30
0.0
 10
11.3749325212
 20
7.0551113875
 30
0.0
 10
11.3914396829
 20
7.0728256992
 30
0.0
 10
11.4061592757
 20
7.0913400383
 30
0.0
 10
11.414825212
 20
7.1042997065
 30
0.0
 10
11.4188205797
 20
7.1108766767
 30
0.0
  0
SPLINE
  5
29A
100
AcDbEntity
  8
0
100
AcDbSpline
 62
7
  6
CONTINUOUS
 70
0
 71
3
 72
11
 73
7
 74
0
 42
0.0000001
 43
0.0000001
 44
0.0000000001
 40
0.0
 40
0.0
 40
0.0
 40
0.0
 40
0.2556376399
 40
0.5071360463
 40
0.7550458553
 40
1.0
 40
1.0
 40
1.0
 40
1.0
 10
11.4188205797
 20
7.1108766767
 30
0.0
 10
11.4221074109
 20
7.1162872901
 30
0.0
 10
11.428245597
 20
7.1272591912
 30
0.0
 10
11.4361376314
 20
7.1442296441
 30
0.0
 10
11.4426037076
 20
7.1615113719
 30
0.0
 10
11.4459661435
 20
7.1732606755
 30
0.0
 10
11.4473961527
 20
7.1791558621
 30
0.0
  0
SPLINE
  5
29B
100
AcDbEntity
  8
0
100
AcDbSpline
 62
7
  6
CONTINUOUS
 70
0
 71
3
 72
19
 73
15
 74
0
 42
0.0000001
 43
0.0000001
 44
0.0000000001
 40
0.0
 40
0.0
 40
0.0
 40
0.0
 40
0.1435146533
 40
0.2815716907
 40
0.4137509519
 40
0.5399879464
 40
0.601019004
 40
0.6607405133
 40
0.7192699974
 40
0.7767537732
 40
0.8333638925
 40
0.8892963325
 40
0.9447656944
 40
1.0
 40
1.0
 40
1.0
 40
1.0
 10
11.2735683383
 20
6.8224821519
 30
0.0
 10
11.2903664099
 20
6.8293399359
 30
0.0
 10
11.3226576561
 20
6.8445184046
 30
0.0
 10
11.3672796176
 20
6.8720399123
 30
0.0
 10
11.4064981849
 20
6.903469981
 30
0.0
 10
11.4344340595
 20
6.9328426069
 30
0.0
 10
11.4533002936
 20
6.957757712
 30
0.0
 10
11.4655581907
 20
6.976851998
 30
0.0
 10
11.4760242314
 20
6.9964781589
 30
0.0
 10
11.4846537323
 20
7.0165526691
 30
0.0
 10
11.4914061115
 20
7.0369895323
 30
0.0
 10
11.4962522589
 20
7.0577004531
 30
0.0
 10
11.4991685924
 20
7.0785932147
 30
0.0
 10
11.4998182767
 20
7.0925976237
 30
0.0
 10
11.4998181903
 20
7.0995806789
 30
0.0
  0
SPLINE
  5
29C
100
AcDbEntity
  8
0
100
AcDbSpline
 62
9
  6
CONTINUOUS
 70
0
 71
3
 72
16
 73
12
 74
0
 42
0.0000001
 43
0.0000001
 44
0.0000000001
 40
0.0
 40
0.0
 40
0.0
 40
0.0
 40
0.1384378345
 40
0.2059643148
 40
0.2723460953
 40
0.4017579552
 40
0.5270549095
 40
0.648748051
 40
0.7675406758
 40
0.8842960657
 40
1.0
 40
1.0
 40
1.0
 40
1.0
 10
11.3727462656
 20
6.649481274
 30
0.0
 10
11.3826419529
 20
6.6567238164
 30
0.0
 10
11.3968931048
 20
6.6681729021
 30
0.0
 10
11.4145388312
 20
6.684635153
 30
0.0
 10
11.43077347
 20
6.7013950298
 30
0.0
 10
11.4489519762
 20
6.7233472093
 30
0.0
 10
11.4672563808
 20
6.7513027737
 30
0.0
 10
11.4816923689
 20
6.7804011608
 30
0.0
 10
11.4921135868
 20
6.8103745482
 30
0.0
 10
11.4984116644
 20
6.8409344336
 30
0.0
 10
11.4998181248
 20
6.8615527619
 30
0.0
 10
11.4998182828
 20
6.8718018917
 30
0.0
  0
SPLINE
  5
29D
100
AcDbEntity
  8
0
100
AcDbSpline
 62
7
  6
CONTINUOUS
 70
0
 71
3
 72
25
 73
21
 74
0
 42
0.0000001
 43
0.0000001
 44
0.0000000001
 40
0.0
 40
0.0
 40
0.0
 40
0.0
 40
0.1500365936
 40
0.2231735717
 40
0.2948477136
 40
0.3649114302
 40
0.4331974476
 40
0.4994779147
 40
0.5635300899
 40
0.625085048
 40
0.6839123168
 40
0.7398507632
 40
0.7929575919
 40
0.8186310649
 40
0.8438599054
 40
0.8688464867
 40
0.8938358263
 40
0.91913901
 40
0.9450859524
 40
1.0
 40
1.0
 40
1.0
 40
1.0
 10
11.2648183383
 20
6.5494120702
 30
0.0
 10
11.2590526917
 20
6.5470582548
 30
0.0
 10
11.2503512349
 20
6.5438491932
 30
0.0
 10
11.2386407838
 20
6.540285399
 30
0.0
 10
11.230005424
 20
6.5380428054
 30
0.0
 10
11.2214737987
 20
6.5362364197
 30
0.0
 10
11.2130822209
 20
6.5348972368
 30
0.0
 10
11.2048742414
 20
6.5340717471
 30
0.0
 10
11.1969067397
 20
6.5338080809
 30
0.0
 10
11.189250213
 20
6.534173141
 30
0.0
 10
11.181994752
 20
6.5352406191
 30
0.0
 10
11.1752584694
 20
6.5371017812
 30
0.0
 10
11.1701394369
 20
6.5394360248
 30
0.0
 10
11.166525283
 20
6.5418114391
 30
0.0
 10
11.1641006222
 20
6.5438341706
 30
0.0
 10
11.1619673379
 20
6.546125144
 30
0.0
 10
11.1601592209
 20
6.5486857222
 30
0.0
 10
11.1587141615
 20
6.551513759
 30
0.0
 10
11.1572828272
 20
6.5556939976
 30
0.0
 10
11.1568904109
 20
6.5590791578
 30
0.0
 10
11.1568904109
 20
6.5613584903
 30
0.0
  0
SPLINE
  5
29E
100
AcDbEntity
  8
0
100
AcDbSpline
 62
7
  6
CONTINUOUS
 70
0
 71
3
 72
23
 73
19
 74
0
 42
0.0000001
 43
0.0000001
 44
0.0000000001
 40
0.0
 40
0.0
 40
0.0
 40
0.0
 40
0.0491350941
 40
0.0755653893
 40
0.1031483007
 40
0.131787389
 40
0.1613635669
 40
0.2227568225
 40
0.2863606997
 40
0.3513645952
 40
0.4171475951
 40
0.48327269
 40
0.5494323405
 40
0.6153944788
 40
0.6810026318
 40
0.7461244794
 40
0.8745456385
 40
1.0
 40
1.0
 40
1.0
 40
1.0
 10
11.3727462656
 20
6.649481274
 30
0.0
 10
11.3727462656
 20
6.6469708974
 30
0.0
 10
11.3722592879
 20
6.6431015932
 30
0.0
 10
11.3708792974
 20
6.6380130324
 30
0.0
 10
11.3694358512
 20
6.6340388998
 30
0.0
 10
11.367637025
 20
6.6300378443
 30
0.0
 10
11.3647736912
 20
6.6246351661
 30
0.0
 10
11.3604745903
 20
6.6179918315
 30
0.0
 10
11.3544775368
 20
6.6103456892
 30
0.0
 10
11.3477769003
 20
6.603004238
 30
0.0
 10
11.3405365985
 20
6.5960110733
 30
0.0
 10
11.3328833491
 20
6.5893837061
 30
0.0
 10
11.3249127326
 20
6.5831282537
 30
0.0
 10
11.3167005547
 20
6.5772397357
 30
0.0
 10
11.3083029685
 20
6.5717152351
 30
0.0
 10
11.2969749944
 20
6.5648557708
 30
0.0
 10
11.2825908915
 20
6.5571636973
 30
0.0
 10
11.270752501
 20
6.551834682
 30
0.0
 10
11.2648183383
 20
6.5494120702
 30
0.0
  0
LINE
  5
29F
100
AcDbEntity
  8
0
100
AcDbLine
 62
7
  6
CONTINUOUS
 10
11.4529319432
 20
7.1807699901
 11
11.4528792433
 21
7.1800997403
  0
SPLINE
  5
2A0
100
AcDbEntity
  8
0
100
AcDbSpline
 62
7
  6
CONTINUOUS
 70
0
 71
3
 72
25
 73
21
 74
0
 42
0.0000001
 43
0.0000001
 44
0.0000000001
 40
0.0
 40
0.0
 40
0.0
 40
0.0
 40
0.0260045348
 40
0.0521262556
 40
0.0784153893
 40
0.1049197161
 40
0.1587241241
 40
0.2138768888
 40
0.2420481837
 40
0.2706409566
 40
0.3291417221
 40
0.3894908939
 40
0.4517067705
 40
0.5157404599
 40
0.5814831012
 40
0.6487733199
 40
0.7174045156
 40
0.7871345414
 40
0.8576868547
 40
1.0
 40
1.0
 40
1.0
 40
1.0
 10
11.4528792433
 20
7.1800997403
 30
0.0
 10
11.4525060637
 20
7.1754464296
 30
0.0
 10
11.4514544952
 20
7.166140387
 30
0.0
 10
11.4489762315
 20
7.1522741794
 30
0.0
 10
11.4455986463
 20
7.1385059016
 30
0.0
 10
11.4398806226
 20
7.1202330019
 30
0.0
 10
11.4304719767
 20
7.0977399967
 30
0.0
 10
11.4183393709
 20
7.0762558914
 30
0.0
 10
11.4070391778
 20
7.0596339674
 30
0.0
 10
11.3944933224
 20
7.0431679755
 30
0.0
 10
11.3768022117
 20
7.0234129957
 30
0.0
 10
11.3528097297
 20
7.0014132381
 30
0.0
 10
11.3261041815
 20
6.9811173539
 30
0.0
 10
11.2969258199
 20
6.9626967302
 30
0.0
 10
11.2655338358
 20
6.9463043249
 30
0.0
 10
11.2322067705
 20
6.9320765647
 30
0.0
 10
11.1972410875
 20
6.9201310085
 30
0.0
 10
11.1609434456
 20
6.9105654851
 30
0.0
 10
11.1110829376
 20
6.9010629671
 30
0.0
 10
11.0728607994
 20
6.8977510655
 30
0.0
 10
11.0473183383
 20
6.8972387401
 30
0.0
  0
SPLINE
  5
2A1
100
AcDbEntity
  8
0
100
AcDbSpline
 62
7
  6
CONTINUOUS
 70
0
 71
3
 72
22
 73
18
 74
0
 42
0.0000001
 43
0.0000001
 44
0.0000000001
 40
0.0
 40
0.0
 40
0.0
 40
0.0
 40
0.0595047031
 40
0.1177148439
 40
0.1749924934
 40
0.2317476356
 40
0.2884179309
 40
0.3454456167
 40
0.4032538531
 40
0.4622250352
 40
0.5226841921
 40
0.5848884642
 40
0.6490215694
 40
0.71519344
 40
0.7834440477
 40
0.8537426335
 40
1.0
 40
1.0
 40
1.0
 40
1.0
 10
11.4463610042
 20
6.6933696007
 30
0.0
 10
11.4508985286
 20
6.6851373803
 30
0.0
 10
11.4589918453
 20
6.6683433478
 30
0.0
 10
11.468034978
 20
6.6421546541
 30
0.0
 10
11.4737561633
 20
6.6154828949
 30
0.0
 10
11.4761022195
 20
6.5885485324
 30
0.0
 10
11.475052446
 20
6.5615715463
 30
0.0
 10
11.4706162043
 20
6.5347739329
 30
0.0
 10
11.4628333601
 20
6.5083743247
 30
0.0
 10
11.4517726864
 20
6.4825851692
 30
0.0
 10
11.4375294904
 20
6.4576104002
 30
0.0
 10
11.4202229061
 20
6.4336447324
 30
0.0
 10
11.3999941281
 20
6.4108728623
 30
0.0
 10
11.3770061176
 20
6.3894698102
 30
0.0
 10
11.3514383854
 20
6.3695980622
 30
0.0
 10
11.3137004913
 20
6.3450337211
 30
0.0
 10
11.2828493902
 20
6.3298575388
 30
0.0
 10
11.261459063
 20
6.3211249743
 30
0.0
  0
SPLINE
  5
2A2
100
AcDbEntity
  8
0
100
AcDbSpline
 62
9
  6
CONTINUOUS
 70
0
 71
3
 72
28
 73
24
 74
0
 42
0.0000001
 43
0.0000001
 44
0.0000000001
 40
0.0
 40
0.0
 40
0.0
 40
0.0
 40
0.0251202867
 40
0.0503691003
 40
0.0758198653
 40
0.1015416263
 40
0.1275982317
 40
0.1540467831
 40
0.1809374917
 40
0.2083124611
 40
0.2646174112
 40
0.3231698209
 40
0.3533213845
 40
0.3840451253
 40
0.4471411313
 40
0.5123217551
 40
0.5793460004
 40
0.6479049549
 40
0.7176367379
 40
0.7881410608
 40
0.8589929275
 40
0.9297570598
 40
1.0
 40
1.0
 40
1.0
 40
1.0
 10
10.5951417775
 20
6.8597074469
 30
0.0
 10
10.5954589884
 20
6.8537793872
 30
0.0
 10
10.5965628188
 20
6.84191278
 30
0.0
 10
10.5996099874
 20
6.8242383694
 30
0.0
 10
10.6040421913
 20
6.8067121192
 30
0.0
 10
10.6098439654
 20
6.7893898667
 30
0.0
 10
10.6169977243
 20
6.7723254095
 30
0.0
 10
10.6254793409
 20
6.755571299
 30
0.0
 10
10.635263412
 20
6.7391792032
 30
0.0
 10
10.6501383571
 20
6.7176754954
 30
0.0
 10
10.6719316792
 20
6.6919603712
 30
0.0
 10
10.6971068068
 20
6.6685949461
 30
0.0
 10
10.7193072073
 20
6.6511491017
 30
0.0
 10
10.7432834368
 20
6.6342908001
 30
0.0
 10
10.7756622541
 20
6.6150909348
 30
0.0
 10
10.8174853192
 20
6.595419713
 30
0.0
 10
10.8621168889
 20
6.5791436261
 30
0.0
 10
10.9090092531
 20
6.5664597284
 30
0.0
 10
10.9575910172
 20
6.5575201733
 30
0.0
 10
11.0072684615
 20
6.5524330002
 30
0.0
 10
11.0574361099
 20
6.5512597957
 30
0.0
 10
11.1074767359
 20
6.5540141294
 30
0.0
 10
11.1405428914
 20
6.5584735335
 30
0.0
 10
11.1568904109
 20
6.5613584903
 30
0.0
  0
SPLINE
  5
2A3
100
AcDbEntity
  8
0
100
AcDbSpline
 62
7
  6
CONTINUOUS
 70
0
 71
3
 72
18
 73
14
 74
0
 42
0.0000001
 43
0.0000001
 44
0.0000000001
 40
0.0
 40
0.0
 40
0.0
 40
0.0
 40
0.116005132
 40
0.233019055
 40
0.2922345017
 40
0.3520493527
 40
0.4125636044
 40
0.4738686527
 40
0.5991129564
 40
0.7283469647
 40
0.7945933216
 40
0.861955617
 40
1.0
 40
1.0
 40
1.0
 40
1.0
 10
11.6223183249
 20
6.5833927287
 30
0.0
 10
11.6223184272
 20
6.5706566584
 30
0.0
 10
11.6206102041
 20
6.5450435082
 30
0.0
 10
11.6142544894
 20
6.513499371
 30
0.0
 10
11.6067201825
 20
6.4886884913
 30
0.0
 10
11.5998113668
 20
6.4702127275
 30
0.0
 10
11.5916842979
 20
6.4519887741
 30
0.0
 10
11.5791604285
 20
6.4279125854
 30
0.0
 10
11.5604637544
 20
6.3986201053
 30
0.0
 10
11.5383231428
 20
6.3711507461
 30
0.0
 10
11.5185360816
 20
6.350131186
 30
0.0
 10
11.4970273538
 20
6.3294566321
 30
0.0
 10
11.4796382037
 20
6.3150292366
 30
0.0
 10
11.4675552138
 20
6.3058805952
 30
0.0
  0
SPLINE
  5
2A4
100
AcDbEntity
  8
0
100
AcDbSpline
 62
9
  6
CONTINUOUS
 70
0
 71
3
 72
39
 73
35
 74
0
 42
0.0000001
 43
0.0000001
 44
0.0000000001
 40
0.0
 40
0.0
 40
0.0
 40
0.0
 40
0.024800925
 40
0.0498349115
 40
0.075186794
 40
0.1009334103
 40
0.127142122
 40
0.153869781
 40
0.1811621249
 40
0.209053577
 40
0.2232336132
 40
0.2375712129
 40
0.2667196186
 40
0.2965046064
 40
0.3269183497
 40
0.3579439692
 40
0.3895562876
 40
0.4217225895
 40
0.4544033824
 40
0.487553144
 40
0.5211210692
 40
0.555051818
 40
0.5892862285
 40
0.6237620137
 40
0.6584144456
 40
0.6931770334
 40
0.7279822087
 40
0.762761986
 40
0.7974486376
 40
0.8319753326
 40
0.8662767961
 40
0.9002902677
 40
0.9339549704
 40
1.0
 40
1.0
 40
1.0
 40
1.0
 10
9.0560374816
 20
4.7006278871
 30
0.0
 10
9.0599380857
 20
4.6711856522
 30
0.0
 10
9.0703877976
 20
4.6123386249
 30
0.0
 10
9.0937551313
 20
4.5252783533
 30
0.0
 10
9.1247769779
 20
4.4394345758
 30
0.0
 10
9.1633242251
 20
4.3551543512
 30
0.0
 10
9.2092399855
 20
4.2727653528
 30
0.0
 10
9.2623392665
 20
4.1925887777
 30
0.0
 10
9.3224075626
 20
4.1149371664
 30
0.0
 10
9.3777722047
 20
4.0529195861
 30
0.0
 10
9.425238469
 20
4.0048421071
 30
0.0
 10
9.475355097
 20
3.957317627
 30
0.0
 10
9.5419284055
 20
3.9000635031
 30
0.0
 10
9.6272443654
 20
3.835391036
 30
0.0
 10
9.7180968684
 20
3.7746193617
 30
0.0
 10
9.8141289357
 20
3.717985093
 30
0.0
 10
9.914966601
 20
3.6657064351
 30
0.0
 10
10.0202166585
 20
3.6179857184
 30
0.0
 10
10.1294690765
 20
3.5750076928
 30
0.0
 10
10.2422981756
 20
3.5369389034
 30
0.0
 10
10.3582643025
 20
3.5039267842
 30
0.0
 10
10.4769156182
 20
3.4760993469
 30
0.0
 10
10.5977898242
 20
3.4535645916
 30
0.0
 10
10.7204159367
 20
3.4364100701
 30
0.0
 10
10.8443160959
 20
3.4247025479
 30
0.0
 10
10.9690074186
 20
3.4184874073
 30
0.0
 10
11.0940039268
 20
3.4177887174
 30
0.0
 10
11.2188185222
 20
3.4226091798
 30
0.0
 10
11.3429646228
 20
3.432930056
 30
0.0
 10
11.4659588882
 20
3.4487115572
 30
0.0
 10
11.5873202001
 20
3.4698916504
 30
0.0
 10
11.7065823433
 20
3.4963905933
 30
0.0
 10
11.8611483656
 20
3.5383940254
 30
0.0
 10
11.9740952727
 20
3.5778997028
 30
0.0
 10
12.0473183383
 20
3.6077928942
 30
0.0
  0
SPLINE
  5
2A5
100
AcDbEntity
  8
0
100
AcDbSpline
 62
9
  6
CONTINUOUS
 70
0
 71
3
 72
41
 73
37
 74
0
 42
0.0000001
 43
0.0000001
 44
0.0000000001
 40
0.0
 40
0.0
 40
0.0
 40
0.0
 40
0.0124259588
 40
0.0248652059
 40
0.0373309186
 40
0.0498360952
 40
0.0623934258
 40
0.0750152332
 40
0.1004930047
 40
0.1263639011
 40
0.1527055168
 40
0.1795835443
 40
0.20705094
 40
0.2351475807
 40
0.2639003273
 40
0.2933234035
 40
0.3234190004
 40
0.3541780271
 40
0.3855809682
 40
0.4175987957
 40
0.4501938932
 40
0.4833209815
 40
0.5169280323
 40
0.5509571652
 40
0.5853455231
 40
0.6200261403
 40
0.6549287894
 40
0.6899808087
 40
0.7251079193
 40
0.760235032
 40
0.7952870545
 40
0.8301897132
 40
0.8648702892
 40
0.8992587672
 40
0.9332875519
 40
1.0
 40
1.0
 40
1.0
 40
1.0
 10
9.0473184803
 20
5.4293944618
 30
0.0
 10
9.0473184197
 20
5.4139664112
 30
0.0
 10
9.0480331508
 20
5.3830890344
 30
0.0
 10
9.0512488774
 20
5.336835018
 30
0.0
 10
9.05660339
 20
5.2906795637
 30
0.0
 10
9.0640924366
 20
5.2446741687
 30
0.0
 10
9.0737068061
 20
5.1988667655
 30
0.0
 10
9.0893923008
 20
5.1379403084
 30
0.0
 10
9.1143453103
 20
5.0624174766
 30
0.0
 10
9.152484195
 20
4.973693043
 30
0.0
 10
9.198745012
 20
4.8869467485
 30
0.0
 10
9.2529208888
 20
4.8025542929
 30
0.0
 10
9.3147735208
 20
4.7208728564
 30
0.0
 10
9.3840328802
 20
4.64224869
 30
0.0
 10
9.4603988418
 20
4.5670138567
 30
0.0
 10
9.5435422121
 20
4.4954859086
 30
0.0
 10
9.6331059627
 20
4.4279666993
 30
0.0
 10
9.7287064153
 20
4.3647412255
 30
0.0
 10
9.829934708
 20
4.3060765117
 30
0.0
 10
9.9363584167
 20
4.2522205874
 30
0.0
 10
10.047523232
 20
4.203401392
 30
0.0
 10
10.162954777
 20
4.1598257754
 30
0.0
 10
10.2821605366
 20
4.1216785603
 30
0.0
 10
10.4046318943
 20
4.0891217269
 30
0.0
 10
10.5298462315
 20
4.0622935217
 30
0.0
 10
10.6572691863
 20
4.0413079005
 30
0.0
 10
10.7863569468
 20
4.0262540629
 30
0.0
 10
10.9165585736
 20
4.0171960272
 30
0.0
 10
11.0473183303
 20
4.0141723423
 30
0.0
 10
11.1780781299
 20
4.0171959253
 30
0.0
 10
11.308279672
 20
4.0262539137
 30
0.0
 10
11.4373677735
 20
4.0413079836
 30
0.0
 10
11.5647893988
 20
4.0622931646
 30
0.0
 10
11.6900086637
 20
4.0891232096
 30
0.0
 10
11.8521940522
 20
4.1322358436
 30
0.0
 10
11.9706325955
 20
4.173342767
 30
0.0
 10
12.0473183383
 20
4.2046495904
 30
0.0
  0
SPLINE
  5
2A6
100
AcDbEntity
  8
0
100
AcDbSpline
 62
9
  6
CONTINUOUS
 70
0
 71
3
 72
24
 73
20
 74
0
 42
0.0000001
 43
0.0000001
 44
0.0000000001
 40
0.0
 40
0.0
 40
0.0
 40
0.0
 40
0.0276021497
 40
0.0552338024
 40
0.1106877993
 40
0.1666047532
 40
0.223199281
 40
0.2806670577
 40
0.3391804411
 40
0.3988853657
 40
0.4598994781
 40
0.522311366
 40
0.5861806994
 40
0.6515390771
 40
0.7183912209
 40
0.7867174024
 40
0.856472881
 40
0.9275965293
 40
1.0
 40
1.0
 40
1.0
 40
1.0
 10
13.0473181962
 20
5.4293944618
 30
0.0
 10
13.0473181355
 20
5.4139664079
 30
0.0
 10
13.0466031975
 20
5.3830884246
 30
0.0
 10
13.0423124448
 20
5.3213519546
 30
0.0
 10
13.0315565646
 20
5.244284441
 30
0.0
 10
13.0101385144
 20
5.1527492895
 30
0.0
 10
12.9802917274
 20
5.0624198168
 30
0.0
 10
12.9421521886
 20
4.9736924535
 30
0.0
 10
12.8958916036
 20
4.8869469598
 30
0.0
 10
12.8417157968
 20
4.8025542367
 30
0.0
 10
12.7798632706
 20
4.7208728108
 30
0.0
 10
12.7106039247
 20
4.6422486023
 30
0.0
 10
12.6342378645
 20
4.5670138114
 30
0.0
 10
12.5510943874
 20
4.4954860255
 30
0.0
 10
12.461530545
 20
4.427966651
 30
0.0
 10
12.3659304391
 20
4.3647416091
 30
0.0
 10
12.2647012864
 20
4.3060758738
 30
0.0
 10
12.1582800229
 20
4.2522214044
 30
0.0
 10
12.0847857965
 20
4.2199456162
 30
0.0
 10
12.0473183383
 20
4.2046495904
 30
0.0
  0
SPLINE
  5
2A7
100
AcDbEntity
  8
0
100
AcDbSpline
 62
7
  6
CONTINUOUS
 70
0
 71
3
 72
21
 73
17
 74
0
 42
0.0000001
 43
0.0000001
 44
0.0000000001
 40
0.0
 40
0.0
 40
0.0
 40
0.0
 40
0.1170323219
 40
0.178131692
 40
0.2406678243
 40
0.3044018328
 40
0.3690621652
 40
0.4343537743
 40
0.4999654612
 40
0.5655783901
 40
0.6308736872
 40
0.6955400712
 40
0.7592823405
 40
0.8218287208
 40
0.8829400465
 40
1.0
 40
1.0
 40
1.0
 40
1.0
 10
10.7743167152
 20
7.0923920541
 30
0.0
 10
10.7926491322
 20
7.0792839769
 30
0.0
 10
10.8225333635
 20
7.0619778107
 30
0.0
 10
10.8651889244
 20
7.0437909946
 30
0.0
 10
10.8994253682
 20
7.0322735345
 30
0.0
 10
10.9350881878
 20
7.0231991425
 30
0.0
 10
10.9718395047
 20
7.0166509249
 30
0.0
 10
11.0093214096
 20
7.0126927289
 30
0.0
 10
11.0471714551
 20
7.0113622056
 30
0.0
 10
11.0850229224
 20
7.0126722882
 30
0.0
 10
11.1225090809
 20
7.0166102376
 30
0.0
 10
11.1592674416
 20
7.0231385954
 30
0.0
 10
11.19494003
 20
7.0321937036
 30
0.0
 10
11.2291888629
 20
7.0436926463
 30
0.0
 10
11.2718645741
 20
7.0618566278
 30
0.0
 10
11.3017668969
 20
7.0791464181
 30
0.0
 10
11.3201131407
 20
7.0922442958
 30
0.0
  0
SPLINE
  5
2A8
100
AcDbEntity
  8
0
100
AcDbSpline
 62
7
  6
CONTINUOUS
 70
0
 71
3
 72
21
 73
17
 74
0
 42
0.0000001
 43
0.0000001
 44
0.0000000001
 40
0.0
 40
0.0
 40
0.0
 40
0.0
 40
0.1165427346
 40
0.1772796208
 40
0.2393910343
 40
0.3026579238
 40
0.3668364694
 40
0.4316648093
 40
0.4968693182
 40
0.5621703084
 40
0.6272885502
 40
0.6919512977
 40
0.755898054
 40
0.8188866143
 40
0.8806999924
 40
1.0
 40
1.0
 40
1.0
 40
1.0
 10
10.7886142204
 20
7.0404292072
 30
0.0
 10
10.8065264916
 20
7.029280632
 30
0.0
 10
10.8353166337
 20
7.0146891173
 30
0.0
 10
10.8759498945
 20
6.9995568553
 30
0.0
 10
10.908328052
 20
6.9901176823
 30
0.0
 10
10.9418908022
 20
6.9828403789
 30
0.0
 10
10.9763576118
 20
6.9777899802
 30
0.0
 10
11.0114327469
 20
6.9750162707
 30
0.0
 10
11.0468172908
 20
6.9745490517
 30
0.0
 10
11.0822091289
 20
6.9763985215
 30
0.0
 10
11.1173061835
 20
6.9805549358
 30
0.0
 10
11.1518094924
 20
6.9869895319
 30
0.0
 10
11.185423245
 20
6.9956534744
 30
0.0
 10
11.2178663825
 20
7.0064827526
 30
0.0
 10
11.2586820139
 20
7.0234790533
 30
0.0
 10
11.2875123919
 20
7.0394746084
 30
0.0
 10
11.3054286319
 20
7.0515353194
 30
0.0
  0
SPLINE
  5
2A9
100
AcDbEntity
  8
0
100
AcDbSpline
 62
7
  6
CONTINUOUS
 70
0
 71
3
 72
19
 73
15
 74
0
 42
0.0000001
 43
0.0000001
 44
0.0000000001
 40
0.0
 40
0.0
 40
0.0
 40
0.0
 40
0.1167557299
 40
0.1774128412
 40
0.2393457444
 40
0.3023582895
 40
0.3662342484
 40
0.4955773209
 40
0.5606173372
 40
0.6255515064
 40
0.7540689085
 40
0.817260126
 40
0.8794409308
 40
1.0
 40
1.0
 40
1.0
 40
1.0
 10
10.796516126
 20
6.9867706084
 30
0.0
 10
10.8136664118
 20
6.9766088171
 30
0.0
 10
10.8410295412
 20
6.963269055
 30
0.0
 10
10.8794634636
 20
6.9493291386
 30
0.0
 10
10.9099495524
 20
6.9405813361
 30
0.0
 10
10.9414808339
 20
6.9337518491
 30
0.0
 10
10.9847672746
 20
6.9272519938
 30
0.0
 10
11.0289324197
 20
6.9248437729
 30
0.0
 10
11.0731989297
 20
6.9265158714
 30
0.0
 10
11.1171367983
 20
6.9309076161
 30
0.0
 10
11.1602813125
 20
6.939330058
 30
0.0
 10
11.2018380214
 20
6.9517653846
 30
0.0
 10
11.2411862049
 20
6.9664814834
 30
0.0
 10
11.2692564455
 20
6.9804325731
 30
0.0
 10
11.2869190063
 20
6.991003303
 30
0.0
  0
SPLINE
  5
2AA
100
AcDbEntity
  8
0
100
AcDbSpline
 62
7
  6
CONTINUOUS
 70
0
 71
3
 72
29
 73
25
 74
0
 42
0.0000001
 43
0.0000001
 44
0.0000000001
 40
0.0
 40
0.0
 40
0.0
 40
0.0
 40
0.0248443751
 40
0.0498310121
 40
0.0750823311
 40
0.1007248505
 40
0.1268660746
 40
0.1535964849
 40
0.1809891172
 40
0.2090971151
 40
0.2379546089
 40
0.2675772173
 40
0.3290569132
 40
0.3608993608
 40
0.3934076944
 40
0.4601534572
 40
0.5287523346
 40
0.5985178854
 40
0.6686963907
 40
0.7385108183
 40
0.8072047131
 40
0.8409250793
 40
0.8741143151
 40
1.0
 40
1.0
 40
1.0
 40
1.0
 10
10.6410683388
 20
7.274199502
 30
0.0
 10
10.6410683621
 20
7.2670559108
 30
0.0
 10
10.6418273007
 20
7.2527164923
 30
0.0
 10
10.6452288638
 20
7.2313597049
 30
0.0
 10
10.6508767233
 20
7.2102453434
 30
0.0
 10
10.6587351738
 20
7.1894975077
 30
0.0
 10
10.6687569569
 20
7.1692303375
 30
0.0
 10
10.6808838298
 20
7.1495571147
 30
0.0
 10
10.6950459359
 20
7.1305864777
 30
0.0
 10
10.7111615364
 20
7.1124220753
 30
0.0
 10
10.7291413129
 20
7.0951624067
 30
0.0
 10
10.7557863883
 20
7.073217482
 30
0.0
 10
10.785475013
 20
7.0537823952
 30
0.0
 10
10.8175366805
 20
7.0369813186
 30
0.0
 10
10.8519759191
 20
7.0216013522
 30
0.0
 10
10.8977646437
 20
7.0059713602
 30
0.0
 10
10.9554783431
 20
6.9932869108
 30
0.0
 10
11.0152011548
 20
6.9867739113
 30
0.0
 10
11.0756247261
 20
6.986574013
 30
0.0
 10
11.1354278634
 20
6.9926901158
 30
0.0
 10
11.183970994
 20
7.0030066095
 30
0.0
 10
11.221310537
 20
7.0143236923
 30
0.0
 10
11.2733291287
 20
7.033441115
 30
0.0
 10
11.3141881004
 20
7.0555646601
 30
0.0
 10
11.3431286757
 20
7.0773044706
 30
0.0
  0
SPLINE
  5
2AB
100
AcDbEntity
  8
0
100
AcDbSpline
 62
9
  6
CONTINUOUS
 70
0
 71
3
 72
24
 73
20
 74
0
 42
0.0000001
 43
0.0000001
 44
0.0000000001
 40
0.0
 40
0.0
 40
0.0
 40
0.0
 40
0.0257150553
 40
0.0514918409
 40
0.0773910509
 40
0.1034713248
 40
0.1563659964
 40
0.2106035729
 40
0.2665036686
 40
0.3242974878
 40
0.3841252228
 40
0.4460390998
 40
0.5100100161
 40
0.5759361755
 40
0.6436525347
 40
0.7129401883
 40
0.7835376228
 40
0.8551441541
 40
1.0
 40
1.0
 40
1.0
 40
1.0
 10
11.4535681437
 20
8.082334108
 30
0.0
 10
11.4535681437
 20
8.0776328507
 30
0.0
 10
11.453241172
 20
8.0682157511
 30
0.0
 10
11.4517699296
 20
8.0541330625
 30
0.0
 10
11.4493224679
 20
8.0401179904
 30
0.0
 10
11.4447457404
 20
8.0214863605
 30
0.0
 10
11.4365559996
 20
7.9984688314
 30
0.0
 10
11.423017026
 20
7.9718310295
 30
0.0
 10
11.4058600829
 20
7.9462851792
 30
0.0
 10
11.3852605298
 20
7.922076315
 30
0.0
 10
11.3614227195
 20
7.8994297414
 30
0.0
 10
11.3345791848
 20
7.8785567212
 30
0.0
 10
11.3049888975
 20
7.8596516942
 30
0.0
 10
11.2729357577
 20
7.8428913809
 30
0.0
 10
11.2387261423
 20
7.8284329627
 30
0.0
 10
11.2026880352
 20
7.8164122382
 30
0.0
 10
11.1651617726
 20
7.8069426754
 30
0.0
 10
11.1134515103
 20
7.7978052217
 30
0.0
 10
11.0738010585
 20
7.7950719782
 30
0.0
 10
11.0473183383
 20
7.7950719782
 30
0.0
  0
SPLINE
  5
2AC
100
AcDbEntity
  8
0
100
AcDbSpline
 62
7
  6
CONTINUOUS
 70
0
 71
3
 72
15
 73
11
 74
0
 42
0.0000001
 43
0.0000001
 44
0.0000000001
 40
0.0
 40
0.0
 40
0.0
 40
0.0
 40
0.1364979522
 40
0.2715745623
 40
0.4041230186
 40
0.5331242064
 40
0.6577195431
 40
0.7772612609
 40
0.891368182
 40
1.0
 40
1.0
 40
1.0
 40
1.0
 10
11.0473183383
 20
6.8458689443
 30
0.0
 10
11.0296278519
 20
6.8455150833
 30
0.0
 10
10.9943764595
 20
6.8464346652
 30
0.0
 10
10.942289048
 20
6.8526721669
 30
0.0
 10
10.891974545
 20
6.8636408677
 30
0.0
 10
10.8442879361
 20
6.8791422171
 30
0.0
 10
10.8000332452
 20
6.8989009742
 30
0.0
 10
10.759956232
 20
6.9225799866
 30
0.0
 10
10.7247445016
 20
6.9497665223
 30
0.0
 10
10.7044186563
 20
6.9704395994
 30
0.0
 10
10.6953467171
 20
6.9812097639
 30
0.0
  0
SPLINE
  5
2AD
100
AcDbEntity
  8
0
100
AcDbSpline
 62
7
  6
CONTINUOUS
 70
0
 71
3
 72
24
 73
20
 74
0
 42
0.0000001
 43
0.0000001
 44
0.0000000001
 40
0.0
 40
0.0
 40
0.0
 40
0.0
 40
0.1455619224
 40
0.2174268993
 40
0.2882485948
 40
0.3577406549
 40
0.4256515759
 40
0.4917662449
 40
0.5559163726
 40
0.6179886951
 40
0.6779336531
 40
0.7357741411
 40
0.7916127564
 40
0.8456369077
 40
0.8981197461
 40
0.9239046048
 40
0.9494427007
 40
0.9747886495
 40
1.0
 40
1.0
 40
1.0
 40
1.0
 10
11.0473183383
 20
6.8972387401
 30
0.0
 10
11.0218439512
 20
6.8967277801
 30
0.0
 10
10.983673747
 20
6.8984901895
 30
0.0
 10
10.9337439657
 20
6.9059433621
 30
0.0
 10
10.8974469135
 20
6.9139674026
 30
0.0
 10
10.86248194
 20
6.9243709244
 30
0.0
 10
10.8291555408
 20
6.9370558168
 30
0.0
 10
10.7977638601
 20
6.9519044072
 30
0.0
 10
10.7685849036
 20
6.9687804301
 30
0.0
 10
10.7418778048
 20
6.9875305257
 30
0.0
 10
10.7178807161
 20
7.0079858355
 30
0.0
 10
10.6968095158
 20
7.0299627729
 30
0.0
 10
10.6788561451
 20
7.0532655863
 30
0.0
 10
10.6641884605
 20
7.0776812708
 30
0.0
 10
10.6547621777
 20
7.0989069096
 30
0.0
 10
10.6490382261
 20
7.1161637963
 30
0.0
 10
10.6456600512
 20
7.129162768
 30
0.0
 10
10.6431815167
 20
7.1422597806
 30
0.0
 10
10.642129661
 20
7.1510549541
 30
0.0
 10
10.6417565969
 20
7.1554522129
 30
0.0
  0
LINE
  5
2AE
100
AcDbEntity
  8
0
100
AcDbLine
 62
7
  6
CONTINUOUS
 10
10.6417565969
 20
7.1554522129
 11
10.6417246674
 21
7.1558330466
  0
SPLINE
  5
2AF
100
AcDbEntity
  8
0
100
AcDbSpline
 62
7
  6
CONTINUOUS
 70
0
 71
3
 72
24
 73
20
 74
0
 42
0.0000001
 43
0.0000001
 44
0.0000000001
 40
0.0
 40
0.0
 40
0.0
 40
0.0
 40
0.1454968731
 40
0.2173334836
 40
0.2881318404
 40
0.3576068522
 40
0.4255079991
 40
0.4916207699
 40
0.5557770143
 40
0.617863017
 40
0.6778281028
 40
0.7356933739
 40
0.7915588163
 40
0.8456085588
 40
0.8981118253
 40
0.9239035152
 40
0.949445563
 40
0.974792029
 40
1.0
 40
1.0
 40
1.0
 40
1.0
 10
11.0473183383
 20
6.9484784872
 30
0.0
 10
11.0219048639
 20
6.9479678279
 30
0.0
 10
10.9838256407
 20
6.9497187137
 30
0.0
 10
10.9340099718
 20
6.957132257
 30
0.0
 10
10.8977904307
 20
6.9651155396
 30
0.0
 10
10.8628935594
 20
6.9754678049
 30
0.0
 10
10.8296238114
 20
6.9880918718
 30
0.0
 10
10.7982754027
 20
7.0028711339
 30
0.0
 10
10.7691246304
 20
7.0196705893
 30
0.0
 10
10.7424291253
 20
7.0383382552
 30
0.0
 10
10.7184257747
 20
7.0587067907
 30
0.0
 10
10.6973294379
 20
7.0805942322
 30
0.0
 10
10.6793312139
 20
7.1038065099
 30
0.0
 10
10.6645984583
 20
7.1281325046
 30
0.0
 10
10.6551000011
 20
7.1492860027
 30
0.0
 10
10.6493083213
 20
7.1664886467
 30
0.0
 10
10.6458747832
 20
7.1794480554
 30
0.0
 10
10.6433361765
 20
7.1925072861
 30
0.0
 10
10.6422409294
 20
7.2012792483
 30
0.0
 10
10.6418454376
 20
7.2056653384
 30
0.0
  0
SPLINE
  5
2B0
100
AcDbEntity
  8
0
100
AcDbSpline
 62
9
  6
CONTINUOUS
 70
0
 71
3
 72
24
 73
20
 74
0
 42
0.0000001
 43
0.0000001
 44
0.0000000001
 40
0.0
 40
0.0
 40
0.0
 40
0.0
 40
0.1448558459
 40
0.2164623772
 40
0.2870598117
 40
0.3563474653
 40
0.4240638245
 40
0.4899899839
 40
0.5539609002
 40
0.6158747772
 40
0.6757025122
 40
0.7334963314
 40
0.7893964271
 40
0.8436340036
 40
0.8965286752
 40
0.9226089491
 40
0.9485081591
 40
0.9742849447
 40
1.0
 40
1.0
 40
1.0
 40
1.0
 10
11.0473183383
 20
7.7950719782
 30
0.0
 10
11.0208356181
 20
7.7950719782
 30
0.0
 10
10.9811851663
 20
7.7978052217
 30
0.0
 10
10.9294749039
 20
7.8069426754
 30
0.0
 10
10.8919486414
 20
7.8164122382
 30
0.0
 10
10.8559105343
 20
7.8284329627
 30
0.0
 10
10.8217009189
 20
7.8428913809
 30
0.0
 10
10.789647779
 20
7.8596516942
 30
0.0
 10
10.7600574918
 20
7.8785567212
 30
0.0
 10
10.733213957
 20
7.8994297414
 30
0.0
 10
10.7093761468
 20
7.922076315
 30
0.0
 10
10.6887765937
 20
7.9462851792
 30
0.0
 10
10.6716196506
 20
7.9718310295
 30
0.0
 10
10.6580806769
 20
7.9984688314
 30
0.0
 10
10.6498909361
 20
8.0214863605
 30
0.0
 10
10.6453142087
 20
8.0401179904
 30
0.0
 10
10.6428667469
 20
8.0541330625
 30
0.0
 10
10.6413955046
 20
8.0682157511
 30
0.0
 10
10.6410685329
 20
8.0776328507
 30
0.0
 10
10.6410685329
 20
8.082334108
 30
0.0
  0
SPLINE
  5
2B1
100
AcDbEntity
  8
0
100
AcDbSpline
 62
7
  6
CONTINUOUS
 70
0
 71
3
 72
25
 73
21
 74
0
 42
0.0000001
 43
0.0000001
 44
0.0000000001
 40
0.0
 40
0.0
 40
0.0
 40
0.0
 40
0.0260073789
 40
0.0521317367
 40
0.0784232822
 40
0.1049297885
 40
0.158737868
 40
0.2138933398
 40
0.2420656182
 40
0.2706591542
 40
0.329160822
 40
0.38951005
 40
0.451725279
 40
0.5157577131
 40
0.5814985687
 40
0.648786608
 40
0.7174153186
 40
0.7871426648
 40
0.8576922152
 40
1.0
 40
1.0
 40
1.0
 40
1.0
 10
11.4528812334
 20
7.128783652
 30
0.0
 10
11.4525085742
 20
7.1241293515
 30
0.0
 10
11.4514580176
 20
7.1148213278
 30
0.0
 10
11.4489811604
 20
7.1009520983
 30
0.0
 10
11.4456048768
 20
7.0871808068
 30
0.0
 10
11.4398884774
 20
7.0689039779
 30
0.0
 10
11.4304816072
 20
7.0464061018
 30
0.0
 10
11.418350275
 20
7.0249171138
 30
0.0
 10
11.4070508559
 20
7.0082914331
 30
0.0
 10
11.3945057288
 20
6.9918218651
 30
0.0
 10
11.3768152429
 20
6.9720625838
 30
0.0
 10
11.3528229724
 20
6.9500580106
 30
0.0
 10
11.3261172009
 20
6.929757786
 30
0.0
 10
11.2969382139
 20
6.9113333511
 30
0.0
 10
11.2655452266
 20
6.8949377406
 30
0.0
 10
11.2322168238
 20
6.8807074367
 30
0.0
 10
11.1972495073
 20
6.8687600596
 30
0.0
 10
11.1609499826
 20
6.8591934942
 30
0.0
 10
11.1110866823
 20
6.8496906862
 30
0.0
 10
11.0728622421
 20
6.8463798965
 30
0.0
 10
11.0473183383
 20
6.8458689443
 30
0.0
  0
SPLINE
  5
2B2
100
AcDbEntity
  8
0
100
AcDbSpline
 62
7
  6
CONTINUOUS
 70
0
 71
3
 72
17
 73
13
 74
0
 42
0.0000001
 43
0.0000001
 44
0.0000000001
 40
0.0
 40
0.0
 40
0.0
 40
0.0
 40
0.1185959048
 40
0.1797137715
 40
0.241834261
 40
0.3683711944
 40
0.4968317327
 40
0.6256915374
 40
0.7534236088
 40
0.8164384016
 40
0.8786459774
 40
1.0
 40
1.0
 40
1.0
 40
1.0
 10
10.8245830257
 20
6.9229430354
 30
0.0
 10
10.8407348706
 20
6.9150510698
 30
0.0
 10
10.8660518075
 20
6.9047366499
 30
0.0
 10
10.9011247374
 20
6.8940300229
 30
0.0
 10
10.9379457327
 20
6.8851289946
 30
0.0
 10
10.9855799123
 20
6.8779031486
 30
0.0
 10
11.0438317999
 20
6.875561791
 30
0.0
 10
11.1021740694
 20
6.8795763111
 30
0.0
 10
11.1499564665
 20
6.8882092014
 30
0.0
 10
11.1869843044
 20
6.8982429951
 30
0.0
 10
11.2224384664
 20
6.9101172534
 30
0.0
 10
11.2480124113
 20
6.9213193955
 30
0.0
 10
11.2643371119
 20
6.929797337
 30
0.0
  0
SPLINE
  5
2B3
100
AcDbEntity
  8
0
100
AcDbSpline
 62
7
  6
CONTINUOUS
 70
0
 71
3
 72
25
 73
21
 74
0
 42
0.0000001
 43
0.0000001
 44
0.0000000001
 40
0.0
 40
0.0
 40
0.0
 40
0.0
 40
0.026002484
 40
0.0521247766
 40
0.0784167948
 40
0.1049259519
 40
0.1587446428
 40
0.2139152333
 40
0.2420958402
 40
0.2706978663
 40
0.329215968
 40
0.3895792497
 40
0.4518047608
 40
0.5158427976
 40
0.5815841406
 40
0.6488675067
 40
0.7174867036
 40
0.7872002781
 40
0.8577325912
 40
1.0
 40
1.0
 40
1.0
 40
1.0
 10
11.4528126223
 20
7.2305527291
 30
0.0
 10
11.452422506
 20
7.225908128
 30
0.0
 10
11.4513381834
 20
7.2166201403
 30
0.0
 10
11.4488145449
 20
7.202783153
 30
0.0
 10
11.4453951343
 20
7.1890454035
 30
0.0
 10
11.4396260093
 20
7.1708142955
 30
0.0
 10
11.4301628694
 20
7.1483766252
 30
0.0
 10
11.4179895579
 20
7.1269495131
 30
0.0
 10
11.4066641339
 20
7.1103730421
 30
0.0
 10
11.394097735
 20
7.0939533569
 30
0.0
 10
11.3763908032
 20
7.0742560352
 30
0.0
 10
11.3523935121
 20
7.0523225531
 30
0.0
 10
11.3256966725
 20
7.0320895997
 30
0.0
 10
11.296539564
 20
7.013727398
 30
0.0
 10
11.265180237
 20
6.9973878817
 30
0.0
 10
11.2318959387
 20
6.9832065282
 30
0.0
 10
11.1969816692
 20
6.9713001044
 30
0.0
 10
11.1607425438
 20
6.9617657498
 30
0.0
 10
11.1109680333
 20
6.9522936258
 30
0.0
 10
11.0728146825
 20
6.9489908116
 30
0.0
 10
11.0473183383
 20
6.9484784872
 30
0.0
  0
SPLINE
  5
2B4
100
AcDbEntity
  8
0
100
AcDbSpline
 62
9
  6
CONTINUOUS
 70
0
 71
3
 72
35
 73
31
 74
0
 42
0.0000001
 43
0.0000001
 44
0.0000000001
 40
0.0
 40
0.0
 40
0.0
 40
0.0
 40
0.0718720789
 40
0.1068226997
 40
0.141059037
 40
0.2072728047
 40
0.2392738328
 40
0.2705407301
 40
0.3011019424
 40
0.3310005857
 40
0.3602944884
 40
0.3890558432
 40
0.4173703549
 40
0.4453357471
 40
0.4730595418
 40
0.5006562837
 40
0.5282443021
 40
0.5559421888
 40
0.5838652599
 40
0.6121222607
 40
0.6408124932
 40
0.6700235171
 40
0.6998295899
 40
0.7302906949
 40
0.7614520937
 40
0.7933443475
 40
0.8593383981
 40
0.8934680607
 40
0.9283151077
 40
1.0
 40
1.0
 40
1.0
 40
1.0
 10
11.6225307057
 20
6.2063901936
 30
0.0
 10
11.6664112942
 20
6.1888725254
 30
0.0
 10
11.7303623274
 20
6.1594151722
 30
0.0
 10
11.8109926526
 20
6.1135267714
 30
0.0
 10
11.8856539736
 20
6.0649938828
 30
0.0
 10
11.9542546579
 20
6.0109027508
 30
0.0
 10
12.0154120118
 20
5.9516175301
 30
0.0
 10
12.0565973429
 20
5.9056241664
 30
0.0
 10
12.0934262121
 20
5.8578053329
 30
0.0
 10
12.1257394632
 20
5.808363216
 30
0.0
 10
12.1533929982
 20
5.7575103344
 30
0.0
 10
12.1762627059
 20
5.7054654859
 30
0.0
 10
12.194244514
 20
5.6524542681
 30
0.0
 10
12.2072562041
 20
5.5987081702
 30
0.0
 10
12.2152374066
 20
5.5444632833
 30
0.0
 10
12.2181505025
 20
5.4899591544
 30
0.0
 10
12.215981529
 20
5.4354373177
 30
0.0
 10
12.2087411253
 20
5.3811394073
 30
0.0
 10
12.1964632926
 20
5.327305348
 30
0.0
 10
12.179204924
 20
5.2741718832
 30
0.0
 10
12.1570451853
 20
5.2219712567
 30
0.0
 10
12.1300852906
 20
5.170929869
 30
0.0
 10
12.0984462586
 20
5.1212675724
 30
0.0
 10
12.062269291
 20
5.0731980524
 30
0.0
 10
12.021710939
 20
5.0269245727
 30
0.0
 10
11.9613606762
 20
4.9672220941
 30
0.0
 10
11.8934945441
 20
4.9126629444
 30
0.0
 10
11.8195011023
 20
4.8636270489
 30
0.0
 10
11.7394895327
 20
4.8171855246
 30
0.0
 10
11.675947572
 20
4.7872988147
 30
0.0
 10
11.6323183383
 20
4.7694872546
 30
0.0
  0
SPLINE
  5
2B5
100
AcDbEntity
  8
0
100
AcDbSpline
 62
9
  6
CONTINUOUS
 70
0
 71
3
 72
48
 73
44
 74
0
 42
0.0000001
 43
0.0000001
 44
0.0000000001
 40
0.0
 40
0.0
 40
0.0
 40
0.0
 40
0.0335656665
 40
0.0662051481
 40
0.0978469744
 40
0.1284511465
 40
0.1580164428
 40
0.186583265
 40
0.2005231527
 40
0.2142492532
 40
0.2277792857
 40
0.2411337526
 40
0.2543356142
 40
0.2674101993
 40
0.2803847746
 40
0.2932882351
 40
0.3061506448
 40
0.3190027382
 40
0.3318754371
 40
0.3447993156
 40
0.357804081
 40
0.370918158
 40
0.3841681794
 40
0.3975787339
 40
0.4111719828
 40
0.4249675003
 40
0.4532181729
 40
0.4824439752
 40
0.5127000534
 40
0.5439985141
 40
0.576312164
 40
0.6095790195
 40
0.6437071103
 40
0.6785793081
 40
0.7140580533
 40
0.7499899349
 40
0.7862101315
 40
0.8225467487
 40
0.8588250844
 40
0.8948717743
 40
0.9305194044
 40
0.9656095799
 40
1.0
 40
1.0
 40
1.0
 40
1.0
 10
10.4623183383
 20
6.2024387541
 30
0.0
 10
10.4295889094
 20
6.1890770207
 30
0.0
 10
10.3660303833
 20
6.1601821044
 30
0.0
 10
10.2759915833
 20
6.1098020335
 30
0.0
 10
10.1933199561
 20
6.0534074844
 30
0.0
 10
10.1188161586
 20
5.9915245485
 30
0.0
 10
10.0532043748
 20
5.9247377602
 30
0.0
 10
10.0060777982
 20
5.8650062165
 30
0.0
 10
9.9735959695
 20
5.8154475129
 30
0.0
 10
9.9520139522
 20
5.7777757811
 30
0.0
 10
9.9330725504
 20
5.7393959531
 30
0.0
 10
9.9168162048
 20
5.7004000177
 30
0.0
 10
9.9032871101
 20
5.6608817533
 30
0.0
 10
9.8925172893
 20
5.6209374023
 30
0.0
 10
9.884535146
 20
5.5806635735
 30
0.0
 10
9.8793598211
 20
5.5401585835
 30
0.0
 10
9.8770046883
 20
5.4995211579
 30
0.0
 10
9.8774760825
 20
5.4588506152
 30
0.0
 10
9.8807717916
 20
5.4182462746
 30
0.0
 10
9.8868850003
 20
5.3778074685
 30
0.0
 10
9.8957985311
 20
5.3376325118
 30
0.0
 10
9.9074917039
 20
5.297819568
 30
0.0
 10
9.9219338933
 20
5.2584647642
 30
0.0
 10
9.9390898353
 20
5.2196639488
 30
0.0
 10
9.9589176643
 20
5.1815094457
 30
0.0
 10
9.9890826916
 20
5.1312337959
 30
0.0
 10
10.0334211733
 20
5.0704368644
 30
0.0
 10
10.0959232939
 20
5.0021497252
 30
0.0
 10
10.1675409116
 20
4.93856361
 30
0.0
 10
10.2475737157
 20
4.880279339
 30
0.0
 10
10.3352525261
 20
4.8278379783
 30
0.0
 10
10.4297368242
 20
4.7817306842
 30
0.0
 10
10.5301233188
 20
4.7423899981
 30
0.0
 10
10.6354528865
 20
4.7101864272
 30
0.0
 10
10.7447192832
 20
4.6854240671
 30
0.0
 10
10.8568784053
 20
4.6683372897
 30
0.0
 10
10.9708582195
 20
4.6590880148
 30
0.0
 10
11.0855690287
 20
4.6577639163
 30
0.0
 10
11.1999142043
 20
4.6643776913
 30
0.0
 10
11.3128001357
 20
4.6788661214
 30
0.0
 10
11.4231495211
 20
4.7010931925
 30
0.0
 10
11.529899923
 20
4.7308442155
 30
0.0
 10
11.5987847033
 20
4.7557972054
 30
0.0
 10
11.6323183383
 20
4.7694872546
 30
0.0
  0
SPLINE
  5
2B6
100
AcDbEntity
  8
0
100
AcDbSpline
 62
9
  6
CONTINUOUS
 70
0
 71
3
 72
24
 73
20
 74
0
 42
0.0000001
 43
0.0000001
 44
0.0000000001
 40
0.0
 40
0.0
 40
0.0
 40
0.0
 40
0.0724034707
 40
0.1435271189
 40
0.2132825976
 40
0.281608779
 40
0.3484609229
 40
0.4138193006
 40
0.477688634
 40
0.5401005219
 40
0.6011146343
 40
0.6608195589
 40
0.7193329423
 40
0.7768007189
 40
0.8333952467
 40
0.8893122007
 40
0.9447661975
 40
0.9723978503
 40
1.0
 40
1.0
 40
1.0
 40
1.0
 10
12.0473183383
 20
3.6077928942
 30
0.0
 10
12.0847857965
 20
3.6230889199
 30
0.0
 10
12.1582800228
 20
3.6553647082
 30
0.0
 10
12.2647012864
 20
3.7092191775
 30
0.0
 10
12.365930439
 20
3.7678849128
 30
0.0
 10
12.461530545
 20
3.8311099547
 30
0.0
 10
12.5510943874
 20
3.8986293292
 30
0.0
 10
12.6342378645
 20
3.9701571151
 30
0.0
 10
12.7106039246
 20
4.045391906
 30
0.0
 10
12.7798632706
 20
4.1240161145
 30
0.0
 10
12.8417157968
 20
4.2056975404
 30
0.0
 10
12.8958916036
 20
4.2900902635
 30
0.0
 10
12.9421521886
 20
4.3768357572
 30
0.0
 10
12.9802917274
 20
4.4655631204
 30
0.0
 10
13.0101385144
 20
4.5558925932
 30
0.0
 10
13.0315565646
 20
4.6474277447
 30
0.0
 10
13.0423124448
 20
4.7244952583
 30
0.0
 10
13.0466031975
 20
4.7862317283
 30
0.0
 10
13.0473181355
 20
4.8171097116
 30
0.0
 10
13.0473181962
 20
4.8325377656
 30
0.0
  0
SPLINE
  5
2B7
100
AcDbEntity
  8
0
100
AcDbSpline
 62
9
  6
CONTINUOUS
 70
0
 71
3
 72
10
 73
6
 74
0
 42
0.0000001
 43
0.0000001
 44
0.0000000001
 40
0.0
 40
0.0
 40
0.0
 40
0.0
 40
0.2450656277
 40
0.6192466395
 40
1.0
 40
1.0
 40
1.0
 40
1.0
 10
10.0873183383
 20
6.6617180809
 30
0.0
 10
10.1245371535
 20
6.6769125986
 30
0.0
 10
10.2196395114
 20
6.7127611073
 30
0.0
 10
10.3767421493
 20
6.7605190444
 30
0.0
 10
10.4977259818
 20
6.7875734814
 30
0.0
 10
10.5591332457
 20
6.7989890465
 30
0.0
  0
SPLINE
  5
2B8
100
AcDbEntity
  8
0
100
AcDbSpline
 62
9
  6
CONTINUOUS
 70
0
 71
3
 72
38
 73
34
 74
0
 42
0.0000001
 43
0.0000001
 44
0.0000000001
 40
0.0
 40
0.0
 40
0.0
 40
0.0
 40
0.0754944233
 40
0.1126271581
 40
0.1492614513
 40
0.1853426843
 40
0.2208226899
 40
0.255660642
 40
0.2898239127
 40
0.3232889455
 40
0.3560421197
 40
0.3880805992
 40
0.4194131232
 40
0.4500606321
 40
0.4800567394
 40
0.5094479642
 40
0.5382936504
 40
0.566665484
 40
0.5946464908
 40
0.6223295292
 40
0.6498152696
 40
0.6772097161
 40
0.7046213874
 40
0.7321583247
 40
0.7599251388
 40
0.7880202821
 40
0.8165336986
 40
0.8455449448
 40
0.87512187
 40
0.9053198021
 40
0.9361811818
 40
0.9677355791
 40
1.0
 40
1.0
 40
1.0
 40
1.0
 10
11.5340506452
 20
6.7992587848
 30
0.0
 10
11.6113970622
 20
6.7849258909
 30
0.0
 10
11.7259169419
 20
6.7582597424
 30
0.0
 10
11.874495672
 20
6.7121485049
 30
0.0
 10
11.9820616417
 20
6.6728793822
 30
0.0
 10
12.0859179837
 20
6.6288971391
 30
0.0
 10
12.1856583476
 20
6.5803734007
 30
0.0
 10
12.2808859733
 20
6.5274996694
 30
0.0
 10
12.3712235599
 20
6.4704837385
 30
0.0
 10
12.4563123974
 20
6.4095495677
 30
0.0
 10
12.5358141981
 20
6.3449362088
 30
0.0
 10
12.6094122008
 20
6.2768970393
 30
0.0
 10
12.6768125688
 20
6.2056990941
 30
0.0
 10
12.7377450654
 20
6.1316218247
 30
0.0
 10
12.7919639873
 20
6.0549563607
 30
0.0
 10
12.8392490543
 20
5.9760047193
 30
0.0
 10
12.8794064326
 20
5.8950790993
 30
0.0
 10
12.9122702286
 20
5.8125012626
 30
0.0
 10
12.9377031706
 20
5.728601333
 30
0.0
 10
12.9555978382
 20
5.6437167391
 30
0.0
 10
12.9658778317
 20
5.5581907725
 30
0.0
 10
12.9684988218
 20
5.472370823
 30
0.0
 10
12.963449761
 20
5.386606234
 30
0.0
 10
12.95075248
 20
5.301245922
 30
0.0
 10
12.9304613609
 20
5.2166361756
 30
0.0
 10
12.9026625475
 20
5.1331186434
 30
0.0
 10
12.8674728731
 20
5.0510286856
 30
0.0
 10
12.8250391667
 20
4.9706938101
 30
0.0
 10
12.7755364031
 20
4.8924326748
 30
0.0
 10
12.7191669953
 20
4.8165545984
 30
0.0
 10
12.6561581915
 20
4.7433574913
 30
0.0
 10
12.5867673538
 20
4.673132167
 30
0.0
 10
12.5369838414
 20
4.6289656525
 30
0.0
 10
12.5111547218
 20
4.6074465406
 30
0.0
  0
SPLINE
  5
2B9
100
AcDbEntity
  8
0
100
AcDbSpline
 62
9
  6
CONTINUOUS
 70
0
 71
3
 72
11
 73
7
 74
0
 42
0.0000001
 43
0.0000001
 44
0.0000000001
 40
0.0
 40
0.0
 40
0.0
 40
0.0
 40
0.4886886328
 40
0.6145336198
 40
0.7417438991
 40
1.0
 40
1.0
 40
1.0
 40
1.0
 10
12.4513760259
 20
4.5599441803
 30
0.0
 10
12.3850834717
 20
4.5096871352
 30
0.0
 10
12.2969511897
 20
4.4524949121
 30
0.0
 10
12.1859007201
 20
4.3924095904
 30
0.0
 10
12.1080565413
 20
4.3534365954
 30
0.0
 10
12.0480200672
 20
4.3268243391
 30
0.0
 10
12.0073183383
 20
4.3102079278
 30
0.0
  0
SPLINE
  5
2BA
100
AcDbEntity
  8
0
100
AcDbSpline
 62
9
  6
CONTINUOUS
 70
0
 71
3
 72
37
 73
33
 74
0
 42
0.0000001
 43
0.0000001
 44
0.0000000001
 40
0.0
 40
0.0
 40
0.0
 40
0.0
 40
0.0735798915
 40
0.1095344736
 40
0.1448906824
 40
0.1796279856
 40
0.2137327609
 40
0.2471988184
 40
0.2800271929
 40
0.3122269579
 40
0.3438154358
 40
0.3748184551
 40
0.405270616
 40
0.4352151631
 40
0.464703751
 40
0.4937960893
 40
0.5225591858
 40
0.5510663345
 40
0.5793959256
 40
0.6076299806
 40
0.6358524902
 40
0.6641476834
 40
0.6925982732
 40
0.7212838022
 40
0.7502791228
 40
0.7796530407
 40
0.8094673226
 40
0.8397759372
 40
0.8706244491
 40
0.9020497775
 40
0.9340801968
 40
1.0
 40
1.0
 40
1.0
 40
1.0
 10
10.0873183383
 20
6.6617180809
 30
0.0
 10
10.0275397321
 20
6.6373135672
 30
0.0
 10
9.9400539108
 20
6.597074719
 30
0.0
 10
9.8285576055
 20
6.5358916857
 30
0.0
 10
9.7492020513
 20
6.4872055532
 30
0.0
 10
9.6737262463
 20
6.4355217784
 30
0.0
 10
9.6023527106
 20
6.38099214
 30
0.0
 10
9.5352962955
 20
6.3237786739
 30
0.0
 10
9.4727580087
 20
6.2640504811
 30
0.0
 10
9.4149255025
 20
6.2019850474
 30
0.0
 10
9.3619731791
 20
6.1377662056
 30
0.0
 10
9.3140616975
 20
6.0715841846
 30
0.0
 10
9.2713361246
 20
6.0036360937
 30
0.0
 10
9.2339268988
 20
5.9341243192
 30
0.0
 10
9.2019496771
 20
5.863256222
 30
0.0
 10
9.1755030508
 20
5.7912445222
 30
0.0
 10
9.1546691003
 20
5.7183060443
 30
0.0
 10
9.1395138086
 20
5.6446610278
 30
0.0
 10
9.130085034
 20
5.5705329073
 30
0.0
 10
9.1264120522
 20
5.496147193
 30
0.0
 10
9.1285069084
 20
5.4217304051
 30
0.0
 10
9.1363634048
 20
5.3475093672
 30
0.0
 10
9.1499558463
 20
5.273709892
 30
0.0
 10
9.1692413517
 20
5.2005559295
 30
0.0
 10
9.1941599719
 20
5.1282690091
 30
0.0
 10
9.2246332947
 20
5.0570667935
 30
0.0
 10
9.2605665766
 20
4.9871629167
 30
0.0
 10
9.3018500167
 20
4.9187664639
 30
0.0
 10
9.348356022
 20
4.8520822436
 30
0.0
 10
9.3999466942
 20
4.787304533
 30
0.0
 10
9.4760072788
 20
4.7029516493
 30
0.0
 10
9.5392017904
 20
4.6443272095
 30
0.0
 10
9.583650159
 20
4.6073063724
 30
0.0
  0
SPLINE
  5
2BB
100
AcDbEntity
  8
0
100
AcDbSpline
 62
9
  6
CONTINUOUS
 70
0
 71
3
 72
11
 73
7
 74
0
 42
0.0000001
 43
0.0000001
 44
0.0000000001
 40
0.0
 40
0.0
 40
0.0
 40
0.0
 40
0.239696092
 40
0.4866095275
 40
0.7402651629
 40
1.0
 40
1.0
 40
1.0
 40
1.0
 10
9.6432004762
 20
4.5599897553
 30
0.0
 10
9.6844984238
 20
4.5286780806
 30
0.0
 10
9.7712789229
 20
4.4689101935
 30
0.0
 10
9.9104325582
 20
4.3894803636
 30
0.0
 10
10.0593840116
 20
4.3195483357
 30
0.0
 10
10.1632598385
 20
4.2800776454
 30
0.0
 10
10.2164386284
 20
4.2620270834
 30
0.0
  0
LINE
  5
2BC
100
AcDbEntity
  8
0
100
AcDbLine
 62
9
  6
CONTINUOUS
 10
10.2164386284
 20
4.2620270834
 11
10.2184502402
 21
4.2613452951
  0
LINE
  5
2BD
100
AcDbEntity
  8
0
100
AcDbLine
 62
9
  6
CONTINUOUS
 10
10.2765191039
 20
4.2425265388
 11
10.2773936702
 21
4.2422556545
  0
SPLINE
  5
2BE
100
AcDbEntity
  8
0
100
AcDbSpline
 62
9
  6
CONTINUOUS
 70
0
 71
3
 72
17
 73
13
 74
0
 42
0.0000001
 43
0.0000001
 44
0.0000000001
 40
0.0
 40
0.0
 40
0.0
 40
0.0
 40
0.1250010192
 40
0.1880586398
 40
0.2513702757
 40
0.3783939466
 40
0.5054056723
 40
0.6317174326
 40
0.7566605626
 40
0.8184313296
 40
0.8796270261
 40
1.0
 40
1.0
 40
1.0
 40
1.0
 10
10.4592730744
 20
4.1935617251
 30
0.0
 10
10.5232922731
 20
4.1789974145
 30
0.0
 10
10.6205099364
 20
4.1608270925
 30
0.0
 10
10.7514714223
 20
4.1439090739
 30
0.0
 10
10.8840377369
 20
4.1317909227
 30
0.0
 10
11.0507781698
 20
4.1258625562
 30
0.0
 10
11.2505832652
 20
4.1334763929
 30
0.0
 10
11.4481943268
 20
4.1557262598
 30
0.0
 10
11.6098984502
 20
4.1863885949
 30
0.0
 10
11.7362303448
 20
4.2180623052
 30
0.0
 10
11.8589040182
 20
4.2540115753
 30
0.0
 10
11.9487841308
 20
4.2863114377
 30
0.0
 10
12.0073183383
 20
4.3102079278
 30
0.0
  0
SPLINE
  5
2BF
100
AcDbEntity
  8
0
100
AcDbSpline
 62
9
  6
CONTINUOUS
 70
0
 71
3
 72
35
 73
31
 74
0
 42
0.0000001
 43
0.0000001
 44
0.0000000001
 40
0.0
 40
0.0
 40
0.0
 40
0.0
 40
0.0714880794
 40
0.1062334526
 40
0.1402622014
 40
0.2060733437
 40
0.2378887449
 40
0.2689863934
 40
0.2993988414
 40
0.3291727423
 40
0.3583688135
 40
0.3870614667
 40
0.4153377746
 40
0.4432957895
 40
0.4710423453
 40
0.4986903341
 40
0.5263555085
 40
0.5541531214
 40
0.5821945847
 40
0.6105843936
 40
0.6394175593
 40
0.6687775581
 40
0.6987348078
 40
0.7293458879
 40
0.7606532807
 40
0.7926853884
 40
0.8589357432
 40
0.8931791869
 40
0.9281306989
 40
1.0
 40
1.0
 40
1.0
 40
1.0
 10
11.6225621077
 20
6.1766603577
 30
0.0
 10
11.663050822
 20
6.1593898831
 30
0.0
 10
11.7219630768
 20
6.1305664293
 30
0.0
 10
11.7960300358
 20
6.0860688173
 30
0.0
 10
11.8644474104
 20
6.0392459587
 30
0.0
 10
11.9270878308
 20
5.9873639771
 30
0.0
 10
11.982675455
 20
5.9307898909
 30
0.0
 10
12.0199836747
 20
5.8870145992
 30
0.0
 10
12.0532069856
 20
5.8416111619
 30
0.0
 10
12.0822053925
 20
5.7947662793
 30
0.0
 10
12.1068522672
 20
5.7466759111
 30
0.0
 10
12.1270400488
 20
5.6975419084
 30
0.0
 10
12.1426797661
 20
5.6475719815
 30
0.0
 10
12.1537013013
 20
5.596978489
 30
0.0
 10
12.1600542845
 20
5.5459778276
 30
0.0
 10
12.1617103267
 20
5.494789337
 30
0.0
 10
12.1586620218
 20
5.4436334981
 30
0.0
 10
12.1509228432
 20
5.3927306333
 30
0.0
 10
12.1385278728
 20
5.342299374
 30
0.0
 10
12.1215335165
 20
5.292554996
 30
0.0
 10
12.1000154707
 20
5.2437085417
 30
0.0
 10
12.0740681575
 20
5.1959662299
 30
0.0
 10
12.0438049227
 20
5.1495278814
 30
0.0
 10
12.0093572529
 20
5.1045875791
 30
0.0
 10
11.970869889
 20
5.0613301504
 30
0.0
 10
11.9137622345
 20
5.005527056
 30
0.0
 10
11.8497349815
 20
4.9545104927
 30
0.0
 10
11.7800538037
 20
4.9086210802
 30
0.0
 10
11.7048117395
 20
4.8651465977
 30
0.0
 10
11.6451189963
 20
4.8371209942
 30
0.0
 10
11.604148705
 20
4.8203949429
 30
0.0
  0
SPLINE
  5
2C0
100
AcDbEntity
  8
0
100
AcDbSpline
 62
9
  6
CONTINUOUS
 70
0
 71
3
 72
52
 73
48
 74
0
 42
0.0000001
 43
0.0000001
 44
0.0000000001
 40
0.0
 40
0.0
 40
0.0
 40
0.0
 40
0.0334113044
 40
0.0497730374
 40
0.0658911532
 40
0.0817587443
 40
0.0973701199
 40
0.1127223899
 40
0.1278150158
 40
0.1572215466
 40
0.1856462033
 40
0.1995232728
 40
0.2131930135
 40
0.2266737892
 40
0.239986642
 40
0.2531549687
 40
0.2662044152
 40
0.2791624098
 40
0.2920578922
 40
0.3049207931
 40
0.3177815873
 40
0.3306707963
 40
0.3436184497
 40
0.3566536454
 40
0.3698040632
 40
0.3830955804
 40
0.3965519692
 40
0.4101945476
 40
0.4240421234
 40
0.4381106723
 40
0.4524134971
 40
0.4817504713
 40
0.5121147558
 40
0.5435146795
 40
0.5759203324
 40
0.6092680052
 40
0.6434648866
 40
0.6783937744
 40
0.7139176836
 40
0.7498843107
 40
0.7861303635
 40
0.8224857773
 40
0.8587778938
 40
0.8948354848
 40
0.9304932524
 40
0.9655949486
 40
1.0
 40
1.0
 40
1.0
 40
1.0
 10
10.4719263417
 20
6.1765969994
 30
0.0
 10
10.4413239232
 20
6.1635384284
 30
0.0
 10
10.3964664866
 20
6.142281617
 30
0.0
 10
10.339056404
 20
6.1104774602
 30
0.0
 10
10.2979745303
 20
6.0853396273
 30
0.0
 10
10.2586727944
 20
6.0588153458
 30
0.0
 10
10.2212445813
 20
6.0309652853
 30
0.0
 10
10.1857774525
 20
6.0018557263
 30
0.0
 10
10.1416075105
 20
5.9618085978
 30
0.0
 10
10.0915526769
 20
5.9090022326
 30
0.0
 10
10.0482648138
 20
5.8520014008
 30
0.0
 10
10.0185785379
 20
5.8047927662
 30
0.0
 10
9.9989347804
 20
5.7689384464
 30
0.0
 10
9.9817875808
 20
5.7324451197
 30
0.0
 10
9.9671769058
 20
5.6953991529
 30
0.0
 10
9.955140268
 20
5.6578886813
 30
0.0
 10
9.9457055066
 20
5.6200040174
 30
0.0
 10
9.938897986
 20
5.5818356212
 30
0.0
 10
9.9347326032
 20
5.54347572
 30
0.0
 10
9.9332216391
 20
5.5050165509
 30
0.0
 10
9.9343672572
 20
5.466551014
 30
0.0
 10
9.9381677926
 20
5.4281719264
 30
0.0
 10
9.9446130649
 20
5.3899717985
 30
0.0
 10
9.9536872082
 20
5.3520425593
 30
0.0
 10
9.9653680955
 20
5.3144754375
 30
0.0
 10
9.9796260769
 20
5.2773600878
 30
0.0
 10
9.996427366
 20
5.2407856999
 30
0.0
 10
10.0157294861
 20
5.2048385713
 30
0.0
 10
10.0374869274
 20
5.1696052758
 30
0.0
 10
10.0616463098
 20
5.1351673927
 30
0.0
 10
10.0972795329
 20
5.0900475907
 30
0.0
 10
10.1476898341
 20
5.0360809704
 30
0.0
 10
10.2161717547
 20
4.9763605266
 30
0.0
 10
10.2925109933
 20
4.9216630552
 30
0.0
 10
10.375977113
 20
4.8724993872
 30
0.0
 10
10.4657816769
 20
4.8293221111
 30
0.0
 10
10.5610761692
 20
4.7925322421
 30
0.0
 10
10.6609613316
 20
4.7624719475
 30
0.0
 10
10.76449449
 20
4.7394217299
 30
0.0
 10
10.8706983727
 20
4.7235970812
 30
0.0
 10
10.9785702389
 20
4.715146196
 30
0.0
 10
11.0870913652
 20
4.7141482251
 30
0.0
 10
11.1952369424
 20
4.7206126787
 30
0.0
 10
11.301985243
 20
4.7344785255
 30
0.0
 10
11.4063300296
 20
4.7556171544
 30
0.0
 10
11.5072788752
 20
4.7838269519
 30
0.0
 10
11.5724285047
 20
4.8074452253
 30
0.0
 10
11.604148705
 20
4.8203949429
 30
0.0
  0
SPLINE
  5
2C1
100
AcDbEntity
  8
0
100
AcDbSpline
 62
7
  6
CONTINUOUS
 70
0
 71
3
 72
27
 73
23
 74
0
 42
0.0000001
 43
0.0000001
 44
0.0000000001
 40
0.0
 40
0.0
 40
0.0
 40
0.0
 40
0.0707292723
 40
0.1419157129
 40
0.2131143995
 40
0.2838767452
 40
0.3537698459
 40
0.4223885216
 40
0.4893710345
 40
0.5544141232
 40
0.6172889736
 40
0.6778575053
 40
0.7360883678
 40
0.7920712121
 40
0.8192991312
 40
0.8460591795
 40
0.8723997178
 40
0.898376952
 40
0.924054008
 40
0.9495002524
 40
0.9747897302
 40
1.0
 40
1.0
 40
1.0
 40
1.0
 10
11.1770814628
 20
6.187295183
 30
0.0
 10
11.1559873056
 20
6.1838399183
 30
0.0
 10
11.1133598094
 20
6.1786375617
 30
0.0
 10
11.0489455725
 20
6.1759547294
 30
0.0
 10
10.9845067286
 20
6.1783808278
 30
0.0
 10
10.9208540917
 20
6.1858872545
 30
0.0
 10
10.8587819833
 20
6.1983805815
 30
0.0
 10
10.7990662022
 20
6.2157068653
 30
0.0
 10
10.7424524798
 20
6.2376527664
 30
0.0
 10
10.6896478393
 20
6.2639495255
 30
0.0
 10
10.6413128723
 20
6.2942759546
 30
0.0
 10
10.5980532746
 20
6.3282659658
 30
0.0
 10
10.5604204116
 20
6.3655024376
 30
0.0
 10
10.533898216
 20
6.3991915902
 30
0.0
 10
10.5160717276
 20
6.4272671395
 30
0.0
 10
10.5044994505
 20
6.4486313372
 30
0.0
 10
10.4946427801
 20
6.4704252825
 30
0.0
 10
10.48653298
 20
6.4925807704
 30
0.0
 10
10.4801975599
 20
6.515027288
 30
0.0
 10
10.4756565633
 20
6.5376935521
 30
0.0
 10
10.4729264093
 20
6.5605053125
 30
0.0
 10
10.4723184129
 20
6.5757738689
 30
0.0
 10
10.4723183517
 20
6.5833927287
 30
0.0
  0
SPLINE
  5
2C2
100
AcDbEntity
  8
0
100
AcDbSpline
 62
7
  6
CONTINUOUS
 70
0
 71
3
 72
9
 73
5
 74
0
 42
0.0000001
 43
0.0000001
 44
0.0000000001
 40
0.0
 40
0.0
 40
0.0
 40
0.0
 40
0.2448342354
 40
1.0
 40
1.0
 40
1.0
 40
1.0
 10
11.3348183383
 20
5.9837912048
 30
0.0
 10
11.3224306303
 20
5.9787339442
 30
0.0
 10
11.2712186771
 20
5.9596057516
 30
0.0
 10
11.2178087044
 20
5.9464790124
 30
0.0
 10
11.1770814628
 20
5.9398078096
 30
0.0
  0
SPLINE
  5
2C3
100
AcDbEntity
  8
0
100
AcDbSpline
 62
7
  6
CONTINUOUS
 70
0
 71
3
 72
10
 73
6
 74
0
 42
0.0000001
 43
0.0000001
 44
0.0000000001
 40
0.0
 40
0.0
 40
0.0
 40
0.0
 40
0.4887325822
 40
0.7417654323
 40
1.0
 40
1.0
 40
1.0
 40
1.0
 10
11.4675552138
 20
6.0583932218
 30
0.0
 10
11.4477321915
 20
6.0433842115
 30
0.0
 10
11.4159394207
 20
6.0227712096
 30
0.0
 10
11.3707805157
 20
5.9993052163
 30
0.0
 10
11.3469813781
 20
5.988756745
 30
0.0
 10
11.3348183383
 20
5.9837912048
 30
0.0
  0
SPLINE
  5
2C4
100
AcDbEntity
  8
0
100
AcDbSpline
 62
7
  6
CONTINUOUS
 70
0
 71
3
 72
34
 73
30
 74
0
 42
0.0000001
 43
0.0000001
 44
0.0000000001
 40
0.0
 40
0.0
 40
0.0
 40
0.0
 40
0.0688250242
 40
0.1040211034
 40
0.1396111119
 40
0.2115431163
 40
0.2838143031
 40
0.3555704979
 40
0.3910098326
 40
0.426017484
 40
0.4943568993
 40
0.5275690335
 40
0.5600502518
 40
0.5917559412
 40
0.6226573677
 40
0.6527433286
 40
0.6820216874
 40
0.7105210923
 40
0.7382918309
 40
0.76540602
 40
0.7919573771
 40
0.8180594132
 40
0.8438423517
 40
0.8694490459
 40
0.8950294682
 40
0.9207346699
 40
0.9467106446
 40
0.9730925158
 40
1.0
 40
1.0
 40
1.0
 40
1.0
 10
11.261459063
 20
6.3211249743
 30
0.0
 10
11.2420767734
 20
6.3132121877
 30
0.0
 10
11.211991814
 20
6.3030926928
 30
0.0
 10
11.1707067505
 20
6.2930799261
 30
0.0
 10
11.1279839535
 20
6.2852547277
 30
0.0
 10
11.0734341167
 20
6.2799209724
 30
0.0
 10
11.0076250313
 20
6.2806582171
 30
0.0
 10
10.9533073526
 20
6.2872144408
 30
0.0
 10
10.9109321656
 20
6.2960023636
 30
0.0
 10
10.8701383104
 20
6.3069336222
 30
0.0
 10
10.8309922764
 20
6.3211927827
 30
0.0
 10
10.7941691086
 20
6.3387466882
 30
0.0
 10
10.7683033159
 20
6.353241855
 30
0.0
 10
10.7440879783
 20
6.3691038656
 30
0.0
 10
10.7216648369
 20
6.3862405124
 30
0.0
 10
10.7011674172
 20
6.4045518504
 30
0.0
 10
10.6827184364
 20
6.4239318791
 30
0.0
 10
10.6664285619
 20
6.4442674272
 30
0.0
 10
10.6523964285
 20
6.4654396312
 30
0.0
 10
10.6407089563
 20
6.4873245996
 30
0.0
 10
10.631439162
 20
6.5097926942
 30
0.0
 10
10.624645624
 20
6.5327094743
 30
0.0
 10
10.6203730192
 20
6.5559366729
 30
0.0
 10
10.6186496445
 20
6.5793324642
 30
0.0
 10
10.6194862955
 20
6.6027532335
 30
0.0
 10
10.6228777314
 20
6.626054946
 30
0.0
 10
10.6288022315
 20
6.6490955561
 30
0.0
 10
10.6372189818
 20
6.6717329697
 30
0.0
 10
10.6443796596
 20
6.6863095484
 30
0.0
 10
10.6483340093
 20
6.6934756619
 30
0.0
  0
SPLINE
  5
2C5
100
AcDbEntity
  8
0
100
AcDbSpline
 62
9
  6
CONTINUOUS
 70
0
 71
3
 72
25
 73
21
 74
0
 42
0.0000001
 43
0.0000001
 44
0.0000000001
 40
0.0
 40
0.0
 40
0.0
 40
0.0
 40
0.0656170855
 40
0.1328039724
 40
0.2011287638
 40
0.2701151852
 40
0.3392623455
 40
0.4080633403
 40
0.4760241229
 40
0.5426824425
 40
0.6076273171
 40
0.670519206
 40
0.7311109616
 40
0.7892692333
 40
0.8449952144
 40
0.8984422421
 40
0.9244220953
 40
0.9499643084
 40
0.9751327146
 40
1.0
 40
1.0
 40
1.0
 40
1.0
 10
11.2201279562
 20
6.44947808
 30
0.0
 10
11.2078596865
 20
6.4444695799
 30
0.0
 10
11.1825122977
 20
6.4355596541
 30
0.0
 10
11.1430608724
 20
6.4256789492
 30
0.0
 10
11.1022145106
 20
6.4192336814
 30
0.0
 10
11.0605714238
 20
6.4163182906
 30
0.0
 10
11.0187354445
 20
6.4169740751
 30
0.0
 10
10.9773149403
 20
6.4211917765
 30
0.0
 10
10.9369116661
 20
6.4289107992
 30
0.0
 10
10.8981124447
 20
6.4400206114
 30
0.0
 10
10.8614805316
 20
6.4543626472
 30
0.0
 10
10.8275476887
 20
6.4717334351
 30
0.0
 10
10.7968076036
 20
6.4918875078
 30
0.0
 10
10.769709089
 20
6.5145438823
 30
0.0
 10
10.7466561983
 20
6.5393809623
 30
0.0
 10
10.7309536311
 20
6.5618327886
 30
0.0
 10
10.7208345466
 20
6.580480151
 30
0.0
 10
10.7145146703
 20
6.5946378504
 30
0.0
 10
10.709421967
 20
6.6090426544
 30
0.0
 10
10.7068428306
 20
6.6188268408
 30
0.0
 10
10.7057687231
 20
6.6237325297
 30
0.0
  0
SPLINE
  5
2C6
100
AcDbEntity
  8
0
100
AcDbSpline
 62
7
  6
CONTINUOUS
 70
0
 71
3
 72
13
 73
9
 74
0
 42
0.0000001
 43
0.0000001
 44
0.0000000001
 40
0.0
 40
0.0
 40
0.0
 40
0.0
 40
0.1194800532
 40
0.2398611899
 40
0.3615289078
 40
0.4848347808
 40
0.7374546597
 40
1.0
 40
1.0
 40
1.0
 40
1.0
 10
10.6419991995
 20
7.1015087521
 30
0.0
 10
10.642521687
 20
7.096215601
 30
0.0
 10
10.6440111888
 20
7.0856277822
 30
0.0
 10
10.6475471685
 20
7.0699099238
 30
0.0
 10
10.6523815851
 20
7.0543620247
 30
0.0
 10
10.6605960229
 20
7.0337692561
 30
0.0
 10
10.6741376458
 20
7.008655362
 30
0.0
 10
10.6878149037
 20
6.990146986
 30
0.0
 10
10.6953467171
 20
6.9812097639
 30
0.0
  0
SPLINE
  5
2C7
100
AcDbEntity
  8
0
100
AcDbSpline
 62
7
  6
CONTINUOUS
 70
0
 71
3
 72
27
 73
23
 74
0
 42
0.0000001
 43
0.0000001
 44
0.0000000001
 40
0.0
 40
0.0
 40
0.0
 40
0.0
 40
0.0667316287
 40
0.1351463751
 40
0.2047299594
 40
0.2749095236
 40
0.3450892151
 40
0.4146723752
 40
0.4830884041
 40
0.5498190308
 40
0.614425623
 40
0.6765776071
 40
0.7360818068
 40
0.7929114017
 40
0.8203863452
 40
0.8472718314
 40
0.8736207306
 40
0.8994987626
 40
0.9249836183
 40
0.9501633023
 40
0.9751345528
 40
1.0
 40
1.0
 40
1.0
 40
1.0
 10
11.2735683383
 20
6.8224821519
 30
0.0
 10
11.2562180047
 20
6.8153989078
 30
0.0
 10
11.2202877098
 20
6.8029283283
 30
0.0
 10
11.1642835555
 20
6.7895475475
 30
0.0
 10
11.1062983834
 20
6.7814267614
 30
0.0
 10
11.0473183897
 20
6.7787051922
 30
0.0
 10
10.9883380535
 20
6.7814268351
 30
0.0
 10
10.9303539522
 20
6.7895468574
 30
0.0
 10
10.8743449651
 20
6.8029301184
 30
0.0
 10
10.8212560068
 20
6.821354954
 30
0.0
 10
10.7719828939
 20
6.8445171602
 30
0.0
 10
10.7273562019
 20
6.8720400031
 30
0.0
 10
10.6881386649
 20
6.9034699721
 30
0.0
 10
10.6602023427
 20
6.9328424109
 30
0.0
 10
10.6413365055
 20
6.9577577989
 30
0.0
 10
10.6290785073
 20
6.9768519952
 30
0.0
 10
10.6186122636
 20
6.9964780682
 30
0.0
 10
10.6099832944
 20
7.0165527938
 30
0.0
 10
10.6032301617
 20
7.0369894094
 30
0.0
 10
10.5983847916
 20
7.0577005189
 30
0.0
 10
10.5954677546
 20
7.0785931771
 30
0.0
 10
10.5948185726
 20
7.0925976191
 30
0.0
 10
10.5948184862
 20
7.0995806791
 30
0.0
  0
ELLIPSE
  5
2C8
100
AcDbEntity
  8
0
100
AcDbEllipse
 62
7
  6
CONTINUOUS
 10
11.0473183383
 20
6.7036008815
 30
0.0
 11
0.4522967215
 21
0.1611958191
 31
0.0
 40
0.084133201
 41
4.9269927592
 42
5.4850315861
  0
ENDSEC
  0
SECTION
  2
OBJECTS
  0
DICTIONARY
  5
C
100
AcDbDictionary
280
0
281
1
  3
ACAD_GROUP
350
D
  3
ACAD_MLINESTYLE
350
17
  3
ACAD_LAYOUT
350
1A
  3
ACAD_PLOTSETTINGS
350
19
  3
ACAD_PLOTSTYLENAME
350
E
  0
DICTIONARY
  5
D
102
{ACAD_REACTORS
330
C
102
}
100
AcDbDictionary
280
0
281
1
  0
ACDBDICTIONARYWDFLT
  5
E
102
{ACAD_REACTORS
330
C
102
}
100
AcDbDictionary
281
1
  3
Normal
350
F
100
AcDbDictionaryWithDefault
340
F
  0
DICTIONARY
  5
17
102
{ACAD_REACTORS
330
C
102
}
100
AcDbDictionary
280
0
281
1
  3
Standard
350
18
  0
DICTIONARY
  5
19
102
{ACAD_REACTORS
330
C
102
}
100
AcDbDictionary
281
1
  0
DICTIONARY
  5
1A
102
{ACAD_REACTORS
330
C
102
}
100
AcDbDictionary
281
1
  3
Model
350
2C9
  3
Layout1
350
2CA
  0
ACDBPLACEHOLDER
  5
F
102
{ACAD_REACTORS
330
E
102
}
  0
MLINESTYLE
  5
18
102
{ACAD_REACTORS
330
17
102
}
100
AcDbMlineStyle
  2
STANDARD
 70
0
  3

 62
256
 51
90.0
 52
90.0
 71
2
 49
0.5
 62
256
  6
BYLAYER
 49
-0.5
 62
256
  6
BYLAYER
  0
LAYOUT
  5
2C9
102
{ACAD_REACTORS
330
1A
102
}
100
AcDbPlotSettings
  1

  2
none_device
  4
ANSI_C_(22.00_x_17.00_Inches)
  6

 40
0.0
 41
0.0
 42
0.0
 43
0.0
 44
558.8
 45
431.8
 46
0.0
 47
0.0
 48
0.0
 49
0.0
140
0.0
141
0.0
142
1.0
143
1.0
 70
1024
 72
0
 73
0
 74
0
  7

 75
0
147
1.0
148
0.0
149
0.0
100
AcDbLayout
  1
Model
 70
0
 71
0
 10
0.0
 20
0.0
 11
22.0
 21
17.0
 12
0.0
 22
0.0
 32
0.0
 14
0.0
 24
0.0
 34
0.0
 15
0.0
 25
0.0
 35
0.0
146
0.0
 13
0.0
 23
0.0
 33
0.0
 16
1.0
 26
0.0
 36
0.0
 17
0.0
 27
1.0
 37
0.0
 76
0
330
205
345
0
346
0
  0
LAYOUT
  5
2CA
102
{ACAD_REACTORS
330
1A
102
}
100
AcDbPlotSettings
  1

  2
none_device
  4
ANSI_C_(22.00_x_17.00_Inches)
  6

 40
0.0
 41
0.0
 42
0.0
 43
0.0
 44
558.8
 45
431.8
 46
0.0
 47
0.0
 48
0.0
 49
0.0
140
0.0
141
0.0
142
1.0
143
1.0
 70
0
 72
0
 73
0
 74
0
  7

 75
0
147
1.0
148
0.0
149
0.0
100
AcDbLayout
  1
Layout1
 70
0
 71
1
 10
0.0
 20
0.0
 11
22.0
 21
17.0
 12
0.0
 22
0.0
 32
0.0
 14
0.0
 24
0.0
 34
0.0
 15
0.0
 25
0.0
 35
0.0
146
0.0
 13
0.0
 23
0.0
 33
0.0
 16
1.0
 26
0.0
 36
0.0
 17
0.0
 27
1.0
 37
0.0
 76
0
330
206
345
0
346
0
  0
ENDSEC
  0
EOF
