999
DXF file: 3-3321_front.dxf
999
Pro/ENGINEER 2019352 by Parametric Technology Corporation
  0
SECTION
  2
HEADER
  9
$ACADVER
  1
AC1032
  9
$DWGCODEPAGE
  3
ANSI_1252
  9
$EXTMAX
 10
11.0
 20
8.5
 30
0.0
  9
$EXTMIN
 10
0.0
 20
0.0
 30
0.0
  9
$LIMMIN
 10
0.0
 20
0.0
  9
$LIMMAX
 10
11.0
 20
8.5
  9
$VIEWCTR
 10
5.5
 20
4.25
  9
$VIEWSIZE
 40
8.5
  9
$CLAYER
  8
0
  9
$LTSCALE
 40
0.605
  9
$CELTYPE
  6
BYLAYER
  9
$DIMSCALE
 40
1.0
  9
$DIMASZ
 40
0.1
  9
$DIMEXO
 40
0.0625
  9
$DIMDLI
 40
0.418
  9
$DIMEXE
 40
0.125
  9
$DIMCEN
 40
0.099
  9
$DIMLFAC
 40
1.0
  9
$DIMBLK
  1
_FILLED
  9
$DIMALT
 70
1
  9
$DIMALTD
 70
2
  9
$DIMALTTD
 70
2
  9
$DIMALTF
 40
25.4
  9
$DIMTXT
 40
0.08
  9
$DIMTOL
 70
1
  9
$DIMLIM
 70
0
  9
$DIMTFAC
 40
1.0
  9
$DIMTP
 40
0.001
  9
$DIMTM
 40
0.001
  9
$DIMGAP
 40
0.09
  9
$DIMDSEP
 70
46
  9
$AUNITS
 70
0
  9
$PDMODE
 70
3
  9
$PDSIZE
 40
0.3125
  9
$HANDSEED
  5
25B
  9
$TILEMODE
 70
1
  9
$MEASUREMENT
 70
0
  9
$INSUNITS
 70
1
  0
ENDSEC
  0
SECTION
  2
CLASSES
  0
CLASS
  1
ACDBDICTIONARYWDFLT
  2
AcDbDictionaryWithDefault
  3
AutoCAD 2000
 90
0
 91
1
280
0
281
0
  0
CLASS
  1
ACDBPLACEHOLDER
  2
AcDbPlaceHolder
  3
AutoCAD 2000
 90
0
 91
1
280
0
281
0
  0
CLASS
  1
LAYOUT
  2
AcDbLayout
  3
AutoCAD 2000
 90
0
 91
0
280
0
281
0
  0
ENDSEC
  0
SECTION
  2
TABLES
  0
TABLE
  2
VPORT
  5
8
100
AcDbSymbolTable
 70
2
  0
VPORT
  5
1F4
100
AcDbSymbolTableRecord
100
AcDbViewportTableRecord
  2
*ACTIVE
 70
0
 10
0.0
 20
0.0
 11
1.0
 21
1.0
 12
5.5
 22
4.25
 13
0.0
 23
0.0
 14
1.0
 24
1.0
 15
0.0
 25
0.0
 16
0.0
 26
0.0
 36
1.0
 17
0.0
 27
0.0
 37
0.0
 40
8.5
 41
1.2941176471
 42
50.0
 43
0.0
 44
0.0
 50
0.0
 51
0.0
 71
0
 72
100
 73
1
 74
1
 75
0
 76
0
 77
0
 78
0
  0
ENDTAB
  0
TABLE
  2
LTYPE
  5
5
100
AcDbSymbolTable
 70
6
  0
LTYPE
  5
14
100
AcDbSymbolTableRecord
100
AcDbLinetypeTableRecord
  2
BYBLOCK
 70
0
  3

 72
65
 73
0
 40
0.0
  0
LTYPE
  5
15
100
AcDbSymbolTableRecord
100
AcDbLinetypeTableRecord
  2
BYLAYER
 70
0
  3

 72
65
 73
0
 40
0.0
  0
LTYPE
  5
16
100
AcDbSymbolTableRecord
100
AcDbLinetypeTableRecord
  2
CONTINUOUS
 70
64
  3
Solid line
 72
65
 73
0
 40
0.0
  0
LTYPE
  5
1F5
100
AcDbSymbolTableRecord
100
AcDbLinetypeTableRecord
  2
CENTER
 70
64
  3
____ _ ____ _ ____ _ ____ _ ____ _ ____ _ ____
 72
65
 73
4
 40
0.6
 49
0.375
 74
0
 49
-0.075
 74
0
 49
0.075
 74
0
 49
-0.075
 74
0
  0
LTYPE
  5
1F6
100
AcDbSymbolTableRecord
100
AcDbLinetypeTableRecord
  2
HIDDEN
 70
64
  3
- - - - - - - - - - - - - - - - - - - -
 72
65
 73
2
 40
0.2
 49
0.1
 74
0
 49
-0.1
 74
0
  0
LTYPE
  5
1F7
100
AcDbSymbolTableRecord
100
AcDbLinetypeTableRecord
  2
PHANTOM
 70
64
  3
_____ _ _ _____ _ _ _____ _ _ _____
 72
65
 73
6
 40
0.8
 49
0.45
 74
0
 49
-0.05
 74
0
 49
0.1
 74
0
 49
-0.05
 74
0
 49
0.1
 74
0
 49
-0.05
 74
0
  0
LTYPE
  5
1F8
100
AcDbSymbolTableRecord
100
AcDbLinetypeTableRecord
  2
DOT
 70
64
  3
. . . . . . . . . . . . . . . . . . . .
 72
65
 73
2
 40
0.2
 49
0.1
 74
0
 49
-0.1
 74
0
  0
LTYPE
  5
1F9
100
AcDbSymbolTableRecord
100
AcDbLinetypeTableRecord
  2
DASHED
 70
64
  3
- - - - - - - - - - - - - - - - - - - -
 72
65
 73
2
 40
0.2
 49
0.1
 74
0
 49
-0.1
 74
0
  0
ENDTAB
  0
TABLE
  2
LAYER
  5
2
100
AcDbSymbolTable
 70
36
  0
LAYER
  5
10
100
AcDbSymbolTableRecord
100
AcDbLayerTableRecord
  2
0
 70
0
 62
7
  6
CONTINUOUS
370
-3
390
F
  0
LAYER
  5
1FA
100
AcDbSymbolTableRecord
100
AcDbLayerTableRecord
  2
DEFAULT_1
 70
0
 62
7
  6
CENTER
370
-3
390
F
  0
LAYER
  5
1FB
100
AcDbSymbolTableRecord
100
AcDbLayerTableRecord
  2
DEFAULT_2
 70
0
 62
8
  6
HIDDEN
370
-3
390
F
  0
LAYER
  5
1FC
100
AcDbSymbolTableRecord
100
AcDbLayerTableRecord
  2
DEFAULT_3
 70
0
 62
7
  6
PHANTOM
370
-3
390
F
  0
LAYER
  5
1FD
100
AcDbSymbolTableRecord
100
AcDbLayerTableRecord
  2
DEFAULT_COORDINATE_SYSTEM
 70
0
 62
7
  6
CONTINUOUS
370
-3
390
F
  0
LAYER
  5
1FE
100
AcDbSymbolTableRecord
100
AcDbLayerTableRecord
  2
DEFAULT_DATUM_AXES
 70
0
 62
7
  6
CONTINUOUS
370
-3
390
F
  0
LAYER
  5
1FF
100
AcDbSymbolTableRecord
100
AcDbLayerTableRecord
  2
DEFAULT_DATUM_PLANES
 70
0
 62
7
  6
CONTINUOUS
370
-3
390
F
  0
ENDTAB
  0
TABLE
  2
STYLE
  5
3
100
AcDbSymbolTable
 70
1
  0
STYLE
  5
11
100
AcDbSymbolTableRecord
100
AcDbTextStyleTableRecord
  2
STANDARD
 70
0
 40
0.0
 41
0.8
 50
0.0
 71
0
 42
0.2
  3
txt
  4

  0
STYLE
  5
200
100
AcDbSymbolTableRecord
100
AcDbTextStyleTableRecord
  2
TEXTSTYLE_1
 70
0
 40
0.0
 41
0.8
 50
0.0
 71
0
 42
0.2
  3
gdt
  4

  0
ENDTAB
  0
TABLE
  2
VIEW
  5
6
100
AcDbSymbolTable
 70
0
  0
ENDTAB
  0
TABLE
  2
UCS
  5
7
100
AcDbSymbolTable
 70
0
  0
ENDTAB
  0
TABLE
  2
APPID
  5
9
100
AcDbSymbolTable
 70
1
  0
APPID
  5
201
100
AcDbSymbolTableRecord
100
AcDbRegAppTableRecord
  2
ACAD
 70
0
  0
ENDTAB
  0
TABLE
  2
BLOCK_RECORD
  5
1
100
AcDbSymbolTable
 70
0
  0
BLOCK_RECORD
  5
202
100
AcDbSymbolTableRecord
100
AcDbBlockTableRecord
  2
*Model_Space
  0
BLOCK_RECORD
  5
203
100
AcDbSymbolTableRecord
100
AcDbBlockTableRecord
  2
*Paper_Space
  0
BLOCK_RECORD
  5
204
100
AcDbSymbolTableRecord
100
AcDbBlockTableRecord
  2
_FILLED
  0
ENDTAB
  0
TABLE
  2
DIMSTYLE
  5
A
100
AcDbSymbolTable
 70
1
100
AcDbDimStyleTable
 71
0
  0
DIMSTYLE
105
205
100
AcDbSymbolTableRecord
100
AcDbDimStyleTableRecord
  2
STANDARD
 70
0
  3

  4

 40
1.0
 41
0.1
 42
0.0625
 43
0.38
 44
0.125
 45
0.0
 46
0.0
 47
0.001
 48
0.001
140
0.08
141
0.09
142
0.0
143
25.4
144
1.0
145
0.0
146
1.0
147
0.09
 71
1.0
 72
0.0
 73
1
 74
1
 75
0
 76
0
 77
0
 78
4
 79
1
170
1
171
2
172
0
173
0
174
0
175
0
176
0
177
0
178
0
270
2
179
3
271
3
272
3
273
2
274
2
275
0
280
0
281
0
282
0
283
1
284
4
285
0
286
0
287
3
288
0
340
11
278
46
341
204
342
204
343
204
344
204
  0
ENDTAB
  0
ENDSEC
  0
SECTION
  2
BLOCKS
  0
BLOCK
  5
20
100
AcDbEntity
  8
0
100
AcDbBlockBegin
  2
*Model_Space
 70
0
 10
0.0
 20
0.0
 30
0.0
  3
*Model_Space
  1

  0
ENDBLK
  5
21
100
AcDbEntity
  8
0
100
AcDbBlockEnd
  0
BLOCK
  5
1C
100
AcDbEntity
  8
0
100
AcDbBlockBegin
  2
*Paper_Space
 70
0
 10
0.0
 20
0.0
 30
0.0
  3
*Paper_Space
  1

  0
ENDBLK
  5
1D
100
AcDbEntity
  8
0
100
AcDbBlockEnd
  0
BLOCK
  5
206
100
AcDbEntity
  8
0
100
AcDbBlockBegin
  2
_FILLED
 70
64
 10
0.0
 20
0.0
  3
_FILLED
  1

  0
SOLID
  5
207
100
AcDbEntity
  8
0
  6
BYBLOCK
 62
0
100
AcDbTrace
 10
0.0
 20
0.0
 11
-1.0
 21
0.2
 12
-1.0
 22
-0.2
 13
-1.0
 23
-0.2
  0
ENDBLK
  5
208
100
AcDbEntity
  8
0
  6
BYBLOCK
 62
0
100
AcDbBlockEnd
  0
ENDSEC
  0
SECTION
  2
ENTITIES
  0
MTEXT
  5
209
100
AcDbEntity
  8
0
100
AcDbMText
 62
2
  6
CONTINUOUS
  7
STANDARD
 71
3
 72
1
 10
5.6860760936
 20
2.5685411604
 30
0.0
 11
1.0
 21
0.0
 31
0.0
 73
2
 44
0.9
  1
SCALE 0.500
 40
0.08
 41
0.704
  0
LINE
  5
20A
100
AcDbEntity
  8
0
100
AcDbLine
 62
7
  6
CONTINUOUS
 10
0.0
 20
0.0
 11
0.0
 21
8.5
  0
LINE
  5
20B
100
AcDbEntity
  8
0
100
AcDbLine
 62
7
  6
CONTINUOUS
 10
0.0
 20
0.0
 11
11.0
 21
0.0
  0
LINE
  5
20C
100
AcDbEntity
  8
0
100
AcDbLine
 62
7
  6
CONTINUOUS
 10
0.0
 20
8.5
 11
11.0
 21
8.5
  0
LINE
  5
20D
100
AcDbEntity
  8
0
100
AcDbLine
 62
7
  6
CONTINUOUS
 10
11.0
 20
0.0
 11
11.0
 21
8.5
  0
LINE
  5
20E
100
AcDbEntity
  8
0
100
AcDbLine
 62
7
  6
CONTINUOUS
 10
2.1892736026
 20
4.8605293135
 11
2.1892736026
 21
4.8455293135
  0
LINE
  5
20F
100
AcDbEntity
  8
0
100
AcDbLine
 62
7
  6
CONTINUOUS
 10
2.1892736026
 20
4.7855293135
 11
2.1892736026
 21
4.8005293135
  0
LINE
  5
210
100
AcDbEntity
  8
0
100
AcDbLine
 62
7
  6
CONTINUOUS
 10
3.2876447692
 20
4.8755293135
 11
3.2876447692
 21
4.8605293135
  0
LINE
  5
211
100
AcDbEntity
  8
0
100
AcDbLine
 62
7
  6
CONTINUOUS
 10
3.2876447692
 20
4.7705293135
 11
3.2876447692
 21
4.7855293135
  0
LINE
  5
212
100
AcDbEntity
  8
0
100
AcDbLine
 62
7
  6
CONTINUOUS
 10
3.2693269884
 20
4.8702912378
 11
3.2692957741
 21
4.8702079043
  0
LINE
  5
213
100
AcDbEntity
  8
0
100
AcDbLine
 62
7
  6
CONTINUOUS
 10
3.3867771108
 20
4.7705293135
 11
3.3867736026
 21
4.7855293135
  0
LINE
  5
214
100
AcDbEntity
  8
0
100
AcDbLine
 62
7
  6
CONTINUOUS
 10
3.3867736026
 20
4.8605293135
 11
3.3867700944
 21
4.8755293133
  0
LINE
  5
215
100
AcDbEntity
  8
0
100
AcDbLine
 62
7
  6
CONTINUOUS
 10
3.3717736026
 20
4.7855293135
 11
3.3717736026
 21
4.8605293135
  0
LINE
  5
216
100
AcDbEntity
  8
0
100
AcDbLine
 62
7
  6
CONTINUOUS
 10
3.4017736026
 20
4.8455293135
 11
3.4017736026
 21
4.8005293135
  0
LINE
  5
217
100
AcDbEntity
  8
0
100
AcDbLine
 62
7
  6
CONTINUOUS
 10
3.4167736026
 20
4.8455293135
 11
3.4167736026
 21
4.8005293135
  0
LINE
  5
218
100
AcDbEntity
  8
0
100
AcDbLine
 62
7
  6
CONTINUOUS
 10
3.2692959892
 20
4.7758501559
 11
3.2693269038
 21
4.7757676166
  0
LINE
  5
219
100
AcDbEntity
  8
0
100
AcDbLine
 62
7
  6
CONTINUOUS
 10
5.5890236026
 20
3.1030293135
 11
5.1515236026
 21
3.1030293135
  0
LINE
  5
21A
100
AcDbEntity
  8
0
100
AcDbLine
 62
7
  6
CONTINUOUS
 10
5.1515236026
 20
3.1030293135
 11
5.1515236026
 21
4.8230293135
  0
LINE
  5
21B
100
AcDbEntity
  8
0
100
AcDbLine
 62
7
  6
CONTINUOUS
 10
5.1515236026
 20
3.8230293135
 11
5.5890236026
 21
3.8230293135
  0
LINE
  5
21C
100
AcDbEntity
  8
0
100
AcDbLine
 62
7
  6
CONTINUOUS
 10
5.5890236026
 20
3.1030293135
 11
5.5890236026
 21
4.8230293135
  0
LINE
  5
21D
100
AcDbEntity
  8
0
100
AcDbLine
 62
7
  6
CONTINUOUS
 10
3.2876447692
 20
4.7705293135
 11
3.386777109
 21
4.7705293135
  0
LINE
  5
21E
100
AcDbEntity
  8
0
100
AcDbLine
 62
7
  6
CONTINUOUS
 10
7.3537771108
 20
4.7705293137
 11
7.4529024361
 21
4.7705293135
  0
LINE
  5
21F
100
AcDbEntity
  8
0
100
AcDbLine
 62
7
  6
CONTINUOUS
 10
8.5512736026
 20
4.7855293135
 11
7.3537736026
 21
4.7855293135
  0
LINE
  5
220
100
AcDbEntity
  8
0
100
AcDbLine
 62
7
  6
CONTINUOUS
 10
3.3867736026
 20
4.7855293135
 11
2.1892736026
 21
4.7855293135
  0
LINE
  5
221
100
AcDbEntity
  8
0
100
AcDbLine
 62
7
  6
CONTINUOUS
 10
8.5512736026
 20
4.8005293135
 11
7.3237736026
 21
4.8005293131
  0
LINE
  5
222
100
AcDbEntity
  8
0
100
AcDbLine
 62
7
  6
CONTINUOUS
 10
2.1892736026
 20
4.8005293135
 11
3.4167736026
 21
4.8005293135
  0
LINE
  5
223
100
AcDbEntity
  8
0
100
AcDbLine
 62
7
  6
CONTINUOUS
 10
2.1892736026
 20
4.8455293135
 11
3.4167736026
 21
4.8455293139
  0
LINE
  5
224
100
AcDbEntity
  8
0
100
AcDbLine
 62
7
  6
CONTINUOUS
 10
7.3237736026
 20
4.8455293135
 11
8.5512736026
 21
4.8455293135
  0
LINE
  5
225
100
AcDbEntity
  8
0
100
AcDbLine
 62
7
  6
CONTINUOUS
 10
2.1892736026
 20
4.8605293135
 11
3.3867736026
 21
4.8605293135
  0
LINE
  5
226
100
AcDbEntity
  8
0
100
AcDbLine
 62
7
  6
CONTINUOUS
 10
7.3537736026
 20
4.8605293135
 11
8.5512736026
 21
4.8605293135
  0
LINE
  5
227
100
AcDbEntity
  8
0
100
AcDbLine
 62
7
  6
CONTINUOUS
 10
7.4529024361
 20
4.8755293135
 11
7.3537700962
 21
4.8755293135
  0
LINE
  5
228
100
AcDbEntity
  8
0
100
AcDbLine
 62
7
  6
CONTINUOUS
 10
3.3867700944
 20
4.8755293133
 11
3.2876447692
 21
4.8755293135
  0
LINE
  5
229
100
AcDbEntity
  8
0
100
AcDbLine
 62
7
  6
CONTINUOUS
 10
7.4712202169
 20
4.7757673891
 11
7.4712514311
 21
4.7758507227
  0
LINE
  5
22A
100
AcDbEntity
  8
0
100
AcDbLine
 62
7
  6
CONTINUOUS
 10
7.3537736026
 20
4.7855293135
 11
7.3537771108
 21
4.7705293137
  0
LINE
  5
22B
100
AcDbEntity
  8
0
100
AcDbLine
 62
7
  6
CONTINUOUS
 10
7.3537700944
 20
4.8755293135
 11
7.3537736026
 21
4.8605293135
  0
LINE
  5
22C
100
AcDbEntity
  8
0
100
AcDbLine
 62
7
  6
CONTINUOUS
 10
7.3237736026
 20
4.8005293135
 11
7.3237736026
 21
4.8455293135
  0
LINE
  5
22D
100
AcDbEntity
  8
0
100
AcDbLine
 62
7
  6
CONTINUOUS
 10
7.3387736026
 20
4.8005293135
 11
7.3387736026
 21
4.8455293135
  0
LINE
  5
22E
100
AcDbEntity
  8
0
100
AcDbLine
 62
7
  6
CONTINUOUS
 10
7.3687736026
 20
4.7855293135
 11
7.3687736026
 21
4.8605293135
  0
LINE
  5
22F
100
AcDbEntity
  8
0
100
AcDbLine
 62
7
  6
CONTINUOUS
 10
7.452902436
 20
4.8755293135
 11
7.452902436
 21
4.8605293135
  0
LINE
  5
230
100
AcDbEntity
  8
0
100
AcDbLine
 62
7
  6
CONTINUOUS
 10
7.452902436
 20
4.7705293135
 11
7.452902436
 21
4.7855293135
  0
LINE
  5
231
100
AcDbEntity
  8
0
100
AcDbLine
 62
7
  6
CONTINUOUS
 10
7.471251216
 20
4.870208471
 11
7.4712203015
 21
4.8702910104
  0
LINE
  5
232
100
AcDbEntity
  8
0
100
AcDbLine
 62
7
  6
CONTINUOUS
 10
8.5512736026
 20
4.8605293135
 11
8.5512736026
 21
4.8455293135
  0
LINE
  5
233
100
AcDbEntity
  8
0
100
AcDbLine
 62
7
  6
CONTINUOUS
 10
8.5512736026
 20
4.7855293135
 11
8.5512736026
 21
4.8005293135
  0
ARC
  5
234
100
AcDbEntity
  8
0
100
AcDbCircle
 62
7
  6
CONTINUOUS
 10
3.3867736026
 20
4.8005293135
 40
0.0299999996
100
AcDbArc
 50
270.0066967341
 51
360.0
  0
ARC
  5
235
100
AcDbEntity
  8
0
100
AcDbCircle
 62
7
  6
CONTINUOUS
 10
3.2552714162
 20
4.7705293135
 40
0.015
100
AcDbArc
 50
19.7154670857
 51
87.0714777903
  0
ARC
  5
236
100
AcDbEntity
  8
0
100
AcDbCircle
 62
7
  6
CONTINUOUS
 10
3.3867736026
 20
4.8005293135
 40
0.015
100
AcDbArc
 50
270.0
 51
360.0
  0
ARC
  5
237
100
AcDbEntity
  8
0
100
AcDbCircle
 62
7
  6
CONTINUOUS
 10
3.4017736026
 20
4.8230293135
 40
0.495
100
AcDbArc
 50
184.3450103301
 51
175.6549896699
  0
ARC
  5
238
100
AcDbEntity
  8
0
100
AcDbCircle
 62
7
  6
CONTINUOUS
 10
3.4017736026
 20
4.8230293135
 40
0.48
100
AcDbArc
 50
184.4806950579
 51
175.5193049428
  0
ARC
  5
239
100
AcDbEntity
  8
0
100
AcDbCircle
 62
7
  6
CONTINUOUS
 10
3.4017736026
 20
4.8230293135
 40
0.1875
100
AcDbArc
 50
191.5372990714
 51
168.4627009286
  0
ARC
  5
23A
100
AcDbEntity
  8
0
100
AcDbCircle
 62
7
  6
CONTINUOUS
 10
3.4017736026
 20
4.8230293135
 40
0.1725
100
AcDbArc
 50
192.5571158728
 51
167.442884128
  0
ARC
  5
23B
100
AcDbEntity
  8
0
100
AcDbCircle
 62
7
  6
CONTINUOUS
 10
3.4017736026
 20
4.8230293135
 40
0.140625
100
AcDbArc
 50
199.7154670857
 51
160.2845329143
  0
ARC
  5
23C
100
AcDbEntity
  8
0
100
AcDbCircle
 62
7
  6
CONTINUOUS
 10
3.4017736026
 20
4.8230293135
 40
0.125625
100
AcDbArc
 50
204.7027354428
 51
155.2972645572
  0
ARC
  5
23D
100
AcDbEntity
  8
0
100
AcDbCircle
 62
7
  6
CONTINUOUS
 10
2.1892736026
 20
4.8230293135
 40
0.0375
100
AcDbArc
 50
90.0
 51
270.0
  0
ARC
  5
23E
100
AcDbEntity
  8
0
100
AcDbCircle
 62
7
  6
CONTINUOUS
 10
3.3867736026
 20
4.8455293135
 40
0.0299999996
100
AcDbArc
 50
0.0
 51
90.0067002011
  0
ARC
  5
23F
100
AcDbEntity
  8
0
100
AcDbCircle
 62
7
  6
CONTINUOUS
 10
2.1892736026
 20
4.8230293135
 40
0.0225
100
AcDbArc
 50
90.0
 51
270.0
  0
ARC
  5
240
100
AcDbEntity
  8
0
100
AcDbCircle
 62
7
  6
CONTINUOUS
 10
3.2552714162
 20
4.8755293135
 40
0.015
100
AcDbArc
 50
272.9285222116
 51
340.2845329143
  0
ARC
  5
241
100
AcDbEntity
  8
0
100
AcDbCircle
 62
7
  6
CONTINUOUS
 10
3.3867736026
 20
4.8455293135
 40
0.015
100
AcDbArc
 50
0.0
 51
90.0
  0
ARC
  5
242
100
AcDbEntity
  8
0
100
AcDbCircle
 62
7
  6
CONTINUOUS
 10
7.3537736026
 20
4.8005293135
 40
0.0299999996
100
AcDbArc
 50
180.0
 51
270.0067002011
  0
ARC
  5
243
100
AcDbEntity
  8
0
100
AcDbCircle
 62
7
  6
CONTINUOUS
 10
7.3537736026
 20
4.8005293135
 40
0.015
100
AcDbArc
 50
180.0
 51
270.0
  0
ARC
  5
244
100
AcDbEntity
  8
0
100
AcDbCircle
 62
7
  6
CONTINUOUS
 10
7.485275789
 20
4.7705293135
 40
0.015
100
AcDbArc
 50
95.8570444216
 51
160.2845329143
  0
ARC
  5
245
100
AcDbEntity
  8
0
100
AcDbCircle
 62
7
  6
CONTINUOUS
 10
5.3702736026
 20
4.8230293135
 40
0.495
100
AcDbArc
 50
296.227841541
 51
243.772158459
  0
ARC
  5
246
100
AcDbEntity
  8
0
100
AcDbCircle
 62
7
  6
CONTINUOUS
 10
7.3387736026
 20
4.8230293135
 40
0.495
100
AcDbArc
 50
4.3449960159
 51
355.6550039841
  0
ARC
  5
247
100
AcDbEntity
  8
0
100
AcDbCircle
 62
7
  6
CONTINUOUS
 10
7.3387736026
 20
4.8230293135
 40
0.48
100
AcDbArc
 50
4.480715658
 51
355.5192843426
  0
ARC
  5
248
100
AcDbEntity
  8
0
100
AcDbCircle
 62
7
  6
CONTINUOUS
 10
5.3702736026
 20
4.8230293135
 40
0.48
100
AcDbArc
 50
297.1127757055
 51
242.8872242958
  0
ARC
  5
249
100
AcDbEntity
  8
0
100
AcDbCircle
 62
7
  6
CONTINUOUS
 10
5.3702736026
 20
4.8230293135
 40
0.328
100
AcDbArc
 50
311.8322229867
 51
228.1677770133
  0
ARC
  5
24A
100
AcDbEntity
  8
0
100
AcDbCircle
 62
7
  6
CONTINUOUS
 10
5.3702736026
 20
4.8230293135
 40
0.313
100
AcDbArc
 50
314.3401770014
 51
225.6598230013
  0
ARC
  5
24B
100
AcDbEntity
  8
0
100
AcDbCircle
 62
7
  6
CONTINUOUS
 10
5.3702736026
 20
4.8230293135
 40
0.21875
100
AcDbArc
 50
0.0
 51
180.0
  0
ARC
  5
24C
100
AcDbEntity
  8
0
100
AcDbCircle
 62
7
  6
CONTINUOUS
 10
7.3387736026
 20
4.8230293135
 40
0.1875
100
AcDbArc
 50
11.5379209013
 51
348.4620790987
  0
ARC
  5
24D
100
AcDbEntity
  8
0
100
AcDbCircle
 62
7
  6
CONTINUOUS
 10
7.3387736026
 20
4.8230293135
 40
0.1725
100
AcDbArc
 50
12.5559871312
 51
347.4440128705
  0
ARC
  5
24E
100
AcDbEntity
  8
0
100
AcDbCircle
 62
7
  6
CONTINUOUS
 10
7.3387736026
 20
4.8230293135
 40
0.140625
100
AcDbArc
 50
19.7154670857
 51
340.2845329143
  0
ARC
  5
24F
100
AcDbEntity
  8
0
100
AcDbCircle
 62
7
  6
CONTINUOUS
 10
7.3387736026
 20
4.8230293135
 40
0.125625
100
AcDbArc
 50
24.7027354428
 51
335.2972645572
  0
ARC
  5
250
100
AcDbEntity
  8
0
100
AcDbCircle
 62
7
  6
CONTINUOUS
 10
8.5512736026
 20
4.8230293135
 40
0.0375
100
AcDbArc
 50
270.0
 51
90.0
  0
ARC
  5
251
100
AcDbEntity
  8
0
100
AcDbCircle
 62
7
  6
CONTINUOUS
 10
7.3537736026
 20
4.8455293135
 40
0.0299999996
100
AcDbArc
 50
90.0066967341
 51
180.0
  0
ARC
  5
252
100
AcDbEntity
  8
0
100
AcDbCircle
 62
7
  6
CONTINUOUS
 10
8.5512736026
 20
4.8230293135
 40
0.0225
100
AcDbArc
 50
270.0
 51
90.0
  0
ARC
  5
253
100
AcDbEntity
  8
0
100
AcDbCircle
 62
7
  6
CONTINUOUS
 10
7.3537736026
 20
4.8455293135
 40
0.015
100
AcDbArc
 50
90.0
 51
180.0
  0
ARC
  5
254
100
AcDbEntity
  8
0
100
AcDbCircle
 62
7
  6
CONTINUOUS
 10
7.485275789
 20
4.8755293135
 40
0.015
100
AcDbArc
 50
199.7154670857
 51
267.0714777903
  0
SPLINE
  5
255
100
AcDbEntity
  8
0
100
AcDbSpline
 62
7
  6
CONTINUOUS
 70
0
 71
3
 72
36
 73
32
 74
0
 42
0.0000001
 43
0.0000001
 44
0.0000000001
 40
0.0
 40
0.0
 40
0.0
 40
0.0
 40
0.1767859237
 40
0.2642563483
 40
0.3504692735
 40
0.4348972657
 40
0.5168849247
 40
0.5956930792
 40
0.6704558511
 40
0.7402302297
 40
0.8039874382
 40
0.8332609951
 40
0.8606029753
 40
0.8858737
 40
0.9089391889
 40
0.9296662957
 40
0.9479278758
 40
0.9635997575
 40
0.970427662
 40
0.9765692746
 40
0.9820153609
 40
0.9867566829
 40
0.9907840009
 40
0.9940891263
 40
0.9966673209
 40
0.9976825593
 40
0.9985145531
 40
0.9991627981
 40
0.9996267902
 40
0.9999060254
 40
1.0
 40
1.0
 40
1.0
 40
1.0
 10
3.287645628
 20
4.8755311804
 30
0.0
 10
3.2865829458
 20
4.8751885002
 30
0.0
 10
3.2849916518
 20
4.8746848295
 30
0.0
 10
3.2828728035
 20
4.8740442456
 30
0.0
 10
3.2813085824
 20
4.8735850532
 30
0.0
 10
3.2797745297
 20
4.8731461803
 30
0.0
 10
3.2782826446
 20
4.8727300713
 30
0.0
 10
3.2768469484
 20
4.8723398504
 30
0.0
 10
3.2754833096
 20
4.8719787346
 30
0.0
 10
3.2742094938
 20
4.8716498871
 30
0.0
 10
3.2732127562
 20
4.8713971983
 30
0.0
 10
3.2724751664
 20
4.871212898
 30
0.0
 10
3.2719730698
 20
4.8710888699
 30
0.0
 10
3.2715087496
 20
4.8709754224
 30
0.0
 10
3.2710848192
 20
4.8708726956
 30
0.0
 10
3.2707038179
 20
4.8707807879
 30
0.0
 10
3.2703681305
 20
4.8707001689
 30
0.0
 10
3.2701177155
 20
4.8706404126
 30
0.0
 10
3.2699416923
 20
4.8705987042
 30
0.0
 10
3.2698284916
 20
4.8705719833
 30
0.0
 10
3.2697281014
 20
4.8705483564
 30
0.0
 10
3.2696407026
 20
4.8705278207
 30
0.0
 10
3.2695664663
 20
4.8705103791
 30
0.0
 10
3.2695055447
 20
4.8704960099
 30
0.0
 10
3.2694631361
 20
4.8704859968
 30
0.0
 10
3.2694359519
 20
4.8704795217
 30
0.0
 10
3.269420593
 20
4.8704759275
 30
0.0
 10
3.2694087117
 20
4.8704729518
 30
0.0
 10
3.2694000183
 20
4.8704712056
 30
0.0
 10
3.2693951323
 20
4.8704694525
 30
0.0
 10
3.2693925745
 20
4.8704694406
 30
0.0
 10
3.2693921089
 20
4.8704690725
 30
0.0
  0
SPLINE
  5
256
100
AcDbEntity
  8
0
100
AcDbSpline
 62
7
  6
CONTINUOUS
 70
0
 71
3
 72
36
 73
32
 74
0
 42
0.0000001
 43
0.0000001
 44
0.0000000001
 40
0.0
 40
0.0
 40
0.0
 40
0.0
 40
0.0000939346
 40
0.0003731454
 40
0.0008371266
 40
0.0014853718
 40
0.0023173747
 40
0.0033326287
 40
0.0059108654
 40
0.0092160323
 40
0.0132433757
 40
0.0179847064
 40
0.0234307894
 40
0.0295723918
 40
0.0364002838
 40
0.0520721397
 40
0.0703336622
 40
0.0910606394
 40
0.11412594
 40
0.1393965467
 40
0.1667386196
 40
0.1960124537
 40
0.2597699233
 40
0.3295437556
 40
0.4043063417
 40
0.4831147515
 40
0.5651025154
 40
0.6495304642
 40
0.7357433778
 40
0.8232138872
 40
1.0
 40
1.0
 40
1.0
 40
1.0
 10
3.2693921089
 20
4.7755895544
 30
0.0
 10
3.2693925743
 20
4.7755891865
 30
0.0
 10
3.2693951319
 20
4.7755891753
 30
0.0
 10
3.2694000172
 20
4.7755874219
 30
0.0
 10
3.2694087105
 20
4.7755856761
 30
0.0
 10
3.2694205917
 20
4.7755827002
 30
0.0
 10
3.2694359506
 20
4.7755791058
 30
0.0
 10
3.2694631351
 20
4.7755726301
 30
0.0
 10
3.2695055441
 20
4.7755626163
 30
0.0
 10
3.269566466
 20
4.7755482464
 30
0.0
 10
3.2696407024
 20
4.7755308043
 30
0.0
 10
3.2697281011
 20
4.7755102684
 30
0.0
 10
3.269828491
 20
4.7754866415
 30
0.0
 10
3.2699416912
 20
4.7754599205
 30
0.0
 10
3.2701177135
 20
4.7754182121
 30
0.0
 10
3.2703681271
 20
4.7753584554
 30
0.0
 10
3.2707038124
 20
4.7752778378
 30
0.0
 10
3.2710848116
 20
4.775185936
 30
0.0
 10
3.2715087404
 20
4.7750832193
 30
0.0
 10
3.2719730591
 20
4.7749697774
 30
0.0
 10
3.272475154
 20
4.7748457414
 30
0.0
 10
3.273212739
 20
4.7746614143
 30
0.0
 10
3.27420947
 20
4.7744087119
 30
0.0
 10
3.2754832939
 20
4.7740799226
 30
0.0
 10
3.2768469266
 20
4.7737188104
 30
0.0
 10
3.2782826115
 20
4.7733285596
 30
0.0
 10
3.2797744923
 20
4.7729124439
 30
0.0
 10
3.281308539
 20
4.7724735654
 30
0.0
 10
3.2828727511
 20
4.7720143576
 30
0.0
 10
3.2849916077
 20
4.7713738188
 30
0.0
 10
3.2865829403
 20
4.7708702771
 30
0.0
 10
3.2876455951
 20
4.7705275181
 30
0.0
  0
SPLINE
  5
257
100
AcDbEntity
  8
0
100
AcDbSpline
 62
7
  6
CONTINUOUS
 70
0
 71
3
 72
35
 73
31
 74
0
 42
0.0000001
 43
0.0000001
 44
0.0000000001
 40
0.0
 40
0.0
 40
0.0
 40
0.0
 40
0.0000938373
 40
0.0003727924
 40
0.0008364135
 40
0.0014842484
 40
0.0023158447
 40
0.0033307502
 40
0.0059086797
 40
0.0092143671
 40
0.0132420731
 40
0.01798335
 40
0.0234295676
 40
0.029572098
 40
0.0364019536
 40
0.0520720847
 40
0.0703273058
 40
0.0910506775
 40
0.1141150454
 40
0.1393901677
 40
0.1667374375
 40
0.1960093772
 40
0.2597515416
 40
0.3295282519
 40
0.4043023731
 40
0.4831021677
 40
0.5650897149
 40
0.649522217
 40
0.8232041752
 40
1.0
 40
1.0
 40
1.0
 40
1.0
 10
7.4711550964
 20
4.8704690725
 30
0.0
 10
7.4711546315
 20
4.8704694401
 30
0.0
 10
7.471152076
 20
4.8704694499
 30
0.0
 10
7.4711471945
 20
4.8704712006
 30
0.0
 10
7.4711385069
 20
4.8704729421
 30
0.0
 10
7.4711266322
 20
4.870475913
 30
0.0
 10
7.4711112795
 20
4.8704795017
 30
0.0
 10
7.4710841001
 20
4.8704859695
 30
0.0
 10
7.4710416902
 20
4.8704959758
 30
0.0
 10
7.4709807625
 20
4.8705103367
 30
0.0
 10
7.4709065238
 20
4.8705277916
 30
0.0
 10
7.4708191296
 20
4.8705483585
 30
0.0
 10
7.4707187431
 20
4.8705720267
 30
0.0
 10
7.4706055342
 20
4.8705987931
 30
0.0
 10
7.4704295171
 20
4.870640555
 30
0.0
 10
7.4701791301
 20
4.870700256
 30
0.0
 10
7.4698434751
 20
4.8707806833
 30
0.0
 10
7.4694624956
 20
4.8708723725
 30
0.0
 10
7.4690385869
 20
4.8709751698
 30
0.0
 10
7.4685742901
 20
4.8710889326
 30
0.0
 10
7.4680722087
 20
4.8712132252
 30
0.0
 10
7.4673346539
 20
4.871397354
 30
0.0
 10
7.4663377351
 20
4.8716489439
 30
0.0
 10
7.4650641363
 20
4.8719785888
 30
0.0
 10
7.4637006894
 20
4.8723405249
 30
0.0
 10
7.4622647279
 20
4.8727298069
 30
0.0
 10
7.4607727825
 20
4.8731456011
 30
0.0
 10
7.4587078638
 20
4.8737374422
 30
0.0
 10
7.4560747437
 20
4.8745201069
 30
0.0
 10
7.453964322
 20
4.8751883315
 30
0.0
 10
7.4529016102
 20
4.8755311088
 30
0.0
  0
SPLINE
  5
258
100
AcDbEntity
  8
0
100
AcDbSpline
 62
7
  6
CONTINUOUS
 70
0
 71
3
 72
35
 73
31
 74
0
 42
0.0000001
 43
0.0000001
 44
0.0000000001
 40
0.0
 40
0.0
 40
0.0
 40
0.0
 40
0.1767956382
 40
0.3504776236
 40
0.4349099478
 40
0.5168972468
 40
0.5956970503
 40
0.6704717403
 40
0.7402484714
 40
0.8039902346
 40
0.8332623156
 40
0.8606097968
 40
0.8858849558
 40
0.9089491915
 40
0.9296724925
 40
0.9479278579
 40
0.9635981949
 40
0.970428107
 40
0.9765706419
 40
0.9820168247
 40
0.9867580419
 40
0.990785678
 40
0.9940912999
 40
0.9966691813
 40
0.9976840728
 40
0.9985156634
 40
0.9991635024
 40
0.9996271387
 40
0.9999061213
 40
1.0
 40
1.0
 40
1.0
 40
1.0
 10
7.4529015773
 20
4.7705274466
 30
0.0
 10
7.4539643165
 20
4.7708701452
 30
0.0
 10
7.4560746965
 20
4.7715385142
 30
0.0
 10
7.4587078015
 20
4.7723212551
 30
0.0
 10
7.4607727467
 20
4.7729130163
 30
0.0
 10
7.4622647063
 20
4.7733287658
 30
0.0
 10
7.4637006727
 20
4.7737180529
 30
0.0
 10
7.4650641108
 20
4.7740800522
 30
0.0
 10
7.466337712
 20
4.7744097082
 30
0.0
 10
7.4673346435
 20
4.774661253
 30
0.0
 10
7.4680721979
 20
4.7748453909
 30
0.0
 10
7.4685742801
 20
4.7749696964
 30
0.0
 10
7.4690385782
 20
4.7750834629
 30
0.0
 10
7.4694624889
 20
4.7751862528
 30
0.0
 10
7.4698434706
 20
4.775277936
 30
0.0
 10
7.4701791271
 20
4.7753583684
 30
0.0
 10
7.4704295157
 20
4.775418077
 30
0.0
 10
7.4706055343
 20
4.7754598421
 30
0.0
 10
7.4707187437
 20
4.7754866083
 30
0.0
 10
7.4708191304
 20
4.775510275
 30
0.0
 10
7.4709065243
 20
4.7755308396
 30
0.0
 10
7.4709807625
 20
4.775548292
 30
0.0
 10
7.4710416897
 20
4.775562651
 30
0.0
 10
7.471084099
 20
4.7755726564
 30
0.0
 10
7.4711112781
 20
4.7755791239
 30
0.0
 10
7.4711266308
 20
4.7755827126
 30
0.0
 10
7.4711385057
 20
4.7755856834
 30
0.0
 10
7.4711471934
 20
4.7755874256
 30
0.0
 10
7.4711520755
 20
4.775589176
 30
0.0
 10
7.4711546312
 20
4.7755891867
 30
0.0
 10
7.4711550964
 20
4.7755895544
 30
0.0
  0
ENDSEC
  0
SECTION
  2
OBJECTS
  0
DICTIONARY
  5
C
100
AcDbDictionary
280
0
281
1
  3
ACAD_GROUP
350
D
  3
ACAD_MLINESTYLE
350
17
  3
ACAD_LAYOUT
350
1A
  3
ACAD_PLOTSETTINGS
350
19
  3
ACAD_PLOTSTYLENAME
350
E
  0
DICTIONARY
  5
D
102
{ACAD_REACTORS
330
C
102
}
100
AcDbDictionary
280
0
281
1
  0
ACDBDICTIONARYWDFLT
  5
E
102
{ACAD_REACTORS
330
C
102
}
100
AcDbDictionary
281
1
  3
Normal
350
F
100
AcDbDictionaryWithDefault
340
F
  0
DICTIONARY
  5
17
102
{ACAD_REACTORS
330
C
102
}
100
AcDbDictionary
280
0
281
1
  3
Standard
350
18
  0
DICTIONARY
  5
19
102
{ACAD_REACTORS
330
C
102
}
100
AcDbDictionary
281
1
  0
DICTIONARY
  5
1A
102
{ACAD_REACTORS
330
C
102
}
100
AcDbDictionary
281
1
  3
Model
350
259
  3
Layout1
350
25A
  0
ACDBPLACEHOLDER
  5
F
102
{ACAD_REACTORS
330
E
102
}
  0
MLINESTYLE
  5
18
102
{ACAD_REACTORS
330
17
102
}
100
AcDbMlineStyle
  2
STANDARD
 70
0
  3

 62
256
 51
90.0
 52
90.0
 71
2
 49
0.5
 62
256
  6
BYLAYER
 49
-0.5
 62
256
  6
BYLAYER
  0
LAYOUT
  5
259
102
{ACAD_REACTORS
330
1A
102
}
100
AcDbPlotSettings
  1

  2
none_device
  4
ANSI_A_(11.00_x_8.50_Inches)
  6

 40
0.0
 41
0.0
 42
0.0
 43
0.0
 44
279.4
 45
215.9
 46
0.0
 47
0.0
 48
0.0
 49
0.0
140
0.0
141
0.0
142
1.0
143
1.0
 70
1024
 72
0
 73
0
 74
0
  7

 75
0
147
1.0
148
0.0
149
0.0
100
AcDbLayout
  1
Model
 70
0
 71
0
 10
0.0
 20
0.0
 11
11.0
 21
8.5
 12
0.0
 22
0.0
 32
0.0
 14
0.0
 24
0.0
 34
0.0
 15
0.0
 25
0.0
 35
0.0
146
0.0
 13
0.0
 23
0.0
 33
0.0
 16
1.0
 26
0.0
 36
0.0
 17
0.0
 27
1.0
 37
0.0
 76
0
330
202
345
0
346
0
  0
LAYOUT
  5
25A
102
{ACAD_REACTORS
330
1A
102
}
100
AcDbPlotSettings
  1

  2
none_device
  4
ANSI_A_(11.00_x_8.50_Inches)
  6

 40
0.0
 41
0.0
 42
0.0
 43
0.0
 44
279.4
 45
215.9
 46
0.0
 47
0.0
 48
0.0
 49
0.0
140
0.0
141
0.0
142
1.0
143
1.0
 70
0
 72
0
 73
0
 74
0
  7

 75
0
147
1.0
148
0.0
149
0.0
100
AcDbLayout
  1
Layout1
 70
0
 71
1
 10
0.0
 20
0.0
 11
11.0
 21
8.5
 12
0.0
 22
0.0
 32
0.0
 14
0.0
 24
0.0
 34
0.0
 15
0.0
 25
0.0
 35
0.0
146
0.0
 13
0.0
 23
0.0
 33
0.0
 16
1.0
 26
0.0
 36
0.0
 17
0.0
 27
1.0
 37
0.0
 76
0
330
203
345
0
346
0
  0
ENDSEC
  0
EOF
