999
DXF file: 3-3321_top.dxf
999
Pro/ENGINEER 2019352 by Parametric Technology Corporation
  0
SECTION
  2
HEADER
  9
$ACADVER
  1
AC1032
  9
$DWGCODEPAGE
  3
ANSI_1252
  9
$EXTMAX
 10
11.0
 20
8.5
 30
0.0
  9
$EXTMIN
 10
0.0
 20
0.0
 30
0.0
  9
$LIMMIN
 10
0.0
 20
0.0
  9
$LIMMAX
 10
11.0
 20
8.5
  9
$VIEWCTR
 10
5.5
 20
4.25
  9
$VIEWSIZE
 40
8.5
  9
$CLAYER
  8
0
  9
$LTSCALE
 40
0.605
  9
$CELTYPE
  6
BYLAYER
  9
$DIMSCALE
 40
1.0
  9
$DIMASZ
 40
0.1
  9
$DIMEXO
 40
0.0625
  9
$DIMDLI
 40
0.418
  9
$DIMEXE
 40
0.125
  9
$DIMCEN
 40
0.099
  9
$DIMLFAC
 40
1.0
  9
$DIMBLK
  1
_FILLED
  9
$DIMALT
 70
1
  9
$DIMALTD
 70
2
  9
$DIMALTTD
 70
2
  9
$DIMALTF
 40
25.4
  9
$DIMTXT
 40
0.08
  9
$DIMTOL
 70
1
  9
$DIMLIM
 70
0
  9
$DIMTFAC
 40
1.0
  9
$DIMTP
 40
0.001
  9
$DIMTM
 40
0.001
  9
$DIMGAP
 40
0.09
  9
$DIMDSEP
 70
46
  9
$AUNITS
 70
0
  9
$PDMODE
 70
3
  9
$PDSIZE
 40
0.3125
  9
$HANDSEED
  5
27D
  9
$TILEMODE
 70
1
  9
$MEASUREMENT
 70
0
  9
$INSUNITS
 70
1
  0
ENDSEC
  0
SECTION
  2
CLASSES
  0
CLASS
  1
ACDBDICTIONARYWDFLT
  2
AcDbDictionaryWithDefault
  3
AutoCAD 2000
 90
0
 91
1
280
0
281
0
  0
CLASS
  1
ACDBPLACEHOLDER
  2
AcDbPlaceHolder
  3
AutoCAD 2000
 90
0
 91
1
280
0
281
0
  0
CLASS
  1
LAYOUT
  2
AcDbLayout
  3
AutoCAD 2000
 90
0
 91
0
280
0
281
0
  0
ENDSEC
  0
SECTION
  2
TABLES
  0
TABLE
  2
VPORT
  5
8
100
AcDbSymbolTable
 70
2
  0
VPORT
  5
1F4
100
AcDbSymbolTableRecord
100
AcDbViewportTableRecord
  2
*ACTIVE
 70
0
 10
0.0
 20
0.0
 11
1.0
 21
1.0
 12
5.5
 22
4.25
 13
0.0
 23
0.0
 14
1.0
 24
1.0
 15
0.0
 25
0.0
 16
0.0
 26
0.0
 36
1.0
 17
0.0
 27
0.0
 37
0.0
 40
8.5
 41
1.2941176471
 42
50.0
 43
0.0
 44
0.0
 50
0.0
 51
0.0
 71
0
 72
100
 73
1
 74
1
 75
0
 76
0
 77
0
 78
0
  0
ENDTAB
  0
TABLE
  2
LTYPE
  5
5
100
AcDbSymbolTable
 70
6
  0
LTYPE
  5
14
100
AcDbSymbolTableRecord
100
AcDbLinetypeTableRecord
  2
BYBLOCK
 70
0
  3

 72
65
 73
0
 40
0.0
  0
LTYPE
  5
15
100
AcDbSymbolTableRecord
100
AcDbLinetypeTableRecord
  2
BYLAYER
 70
0
  3

 72
65
 73
0
 40
0.0
  0
LTYPE
  5
16
100
AcDbSymbolTableRecord
100
AcDbLinetypeTableRecord
  2
CONTINUOUS
 70
64
  3
Solid line
 72
65
 73
0
 40
0.0
  0
LTYPE
  5
1F5
100
AcDbSymbolTableRecord
100
AcDbLinetypeTableRecord
  2
CENTER
 70
64
  3
____ _ ____ _ ____ _ ____ _ ____ _ ____ _ ____
 72
65
 73
4
 40
0.6
 49
0.375
 74
0
 49
-0.075
 74
0
 49
0.075
 74
0
 49
-0.075
 74
0
  0
LTYPE
  5
1F6
100
AcDbSymbolTableRecord
100
AcDbLinetypeTableRecord
  2
HIDDEN
 70
64
  3
- - - - - - - - - - - - - - - - - - - -
 72
65
 73
2
 40
0.2
 49
0.1
 74
0
 49
-0.1
 74
0
  0
LTYPE
  5
1F7
100
AcDbSymbolTableRecord
100
AcDbLinetypeTableRecord
  2
PHANTOM
 70
64
  3
_____ _ _ _____ _ _ _____ _ _ _____
 72
65
 73
6
 40
0.8
 49
0.45
 74
0
 49
-0.05
 74
0
 49
0.1
 74
0
 49
-0.05
 74
0
 49
0.1
 74
0
 49
-0.05
 74
0
  0
LTYPE
  5
1F8
100
AcDbSymbolTableRecord
100
AcDbLinetypeTableRecord
  2
DOT
 70
64
  3
. . . . . . . . . . . . . . . . . . . .
 72
65
 73
2
 40
0.2
 49
0.1
 74
0
 49
-0.1
 74
0
  0
LTYPE
  5
1F9
100
AcDbSymbolTableRecord
100
AcDbLinetypeTableRecord
  2
DASHED
 70
64
  3
- - - - - - - - - - - - - - - - - - - -
 72
65
 73
2
 40
0.2
 49
0.1
 74
0
 49
-0.1
 74
0
  0
ENDTAB
  0
TABLE
  2
LAYER
  5
2
100
AcDbSymbolTable
 70
36
  0
LAYER
  5
10
100
AcDbSymbolTableRecord
100
AcDbLayerTableRecord
  2
0
 70
0
 62
7
  6
CONTINUOUS
370
-3
390
F
  0
LAYER
  5
1FA
100
AcDbSymbolTableRecord
100
AcDbLayerTableRecord
  2
DEFAULT_1
 70
0
 62
7
  6
CENTER
370
-3
390
F
  0
LAYER
  5
1FB
100
AcDbSymbolTableRecord
100
AcDbLayerTableRecord
  2
DEFAULT_2
 70
0
 62
8
  6
HIDDEN
370
-3
390
F
  0
LAYER
  5
1FC
100
AcDbSymbolTableRecord
100
AcDbLayerTableRecord
  2
DEFAULT_3
 70
0
 62
7
  6
PHANTOM
370
-3
390
F
  0
LAYER
  5
1FD
100
AcDbSymbolTableRecord
100
AcDbLayerTableRecord
  2
DEFAULT_COORDINATE_SYSTEM
 70
0
 62
7
  6
CONTINUOUS
370
-3
390
F
  0
LAYER
  5
1FE
100
AcDbSymbolTableRecord
100
AcDbLayerTableRecord
  2
DEFAULT_DATUM_AXES
 70
0
 62
7
  6
CONTINUOUS
370
-3
390
F
  0
LAYER
  5
1FF
100
AcDbSymbolTableRecord
100
AcDbLayerTableRecord
  2
DEFAULT_DATUM_PLANES
 70
0
 62
7
  6
CONTINUOUS
370
-3
390
F
  0
ENDTAB
  0
TABLE
  2
STYLE
  5
3
100
AcDbSymbolTable
 70
1
  0
STYLE
  5
11
100
AcDbSymbolTableRecord
100
AcDbTextStyleTableRecord
  2
STANDARD
 70
0
 40
0.0
 41
0.8
 50
0.0
 71
0
 42
0.2
  3
txt
  4

  0
STYLE
  5
200
100
AcDbSymbolTableRecord
100
AcDbTextStyleTableRecord
  2
TEXTSTYLE_1
 70
0
 40
0.0
 41
0.8
 50
0.0
 71
0
 42
0.2
  3
gdt
  4

  0
ENDTAB
  0
TABLE
  2
VIEW
  5
6
100
AcDbSymbolTable
 70
0
  0
ENDTAB
  0
TABLE
  2
UCS
  5
7
100
AcDbSymbolTable
 70
0
  0
ENDTAB
  0
TABLE
  2
APPID
  5
9
100
AcDbSymbolTable
 70
1
  0
APPID
  5
201
100
AcDbSymbolTableRecord
100
AcDbRegAppTableRecord
  2
ACAD
 70
0
  0
ENDTAB
  0
TABLE
  2
BLOCK_RECORD
  5
1
100
AcDbSymbolTable
 70
0
  0
BLOCK_RECORD
  5
202
100
AcDbSymbolTableRecord
100
AcDbBlockTableRecord
  2
*Model_Space
  0
BLOCK_RECORD
  5
203
100
AcDbSymbolTableRecord
100
AcDbBlockTableRecord
  2
*Paper_Space
  0
BLOCK_RECORD
  5
204
100
AcDbSymbolTableRecord
100
AcDbBlockTableRecord
  2
_FILLED
  0
ENDTAB
  0
TABLE
  2
DIMSTYLE
  5
A
100
AcDbSymbolTable
 70
1
100
AcDbDimStyleTable
 71
0
  0
DIMSTYLE
105
205
100
AcDbSymbolTableRecord
100
AcDbDimStyleTableRecord
  2
STANDARD
 70
0
  3

  4

 40
1.0
 41
0.1
 42
0.0625
 43
0.38
 44
0.125
 45
0.0
 46
0.0
 47
0.001
 48
0.001
140
0.08
141
0.09
142
0.0
143
25.4
144
1.0
145
0.0
146
1.0
147
0.09
 71
1.0
 72
0.0
 73
1
 74
1
 75
0
 76
0
 77
0
 78
4
 79
1
170
1
171
2
172
0
173
0
174
0
175
0
176
0
177
0
178
0
270
2
179
3
271
3
272
3
273
2
274
2
275
0
280
0
281
0
282
0
283
1
284
4
285
0
286
0
287
3
288
0
340
11
278
46
341
204
342
204
343
204
344
204
  0
ENDTAB
  0
ENDSEC
  0
SECTION
  2
BLOCKS
  0
BLOCK
  5
20
100
AcDbEntity
  8
0
100
AcDbBlockBegin
  2
*Model_Space
 70
0
 10
0.0
 20
0.0
 30
0.0
  3
*Model_Space
  1

  0
ENDBLK
  5
21
100
AcDbEntity
  8
0
100
AcDbBlockEnd
  0
BLOCK
  5
1C
100
AcDbEntity
  8
0
100
AcDbBlockBegin
  2
*Paper_Space
 70
0
 10
0.0
 20
0.0
 30
0.0
  3
*Paper_Space
  1

  0
ENDBLK
  5
1D
100
AcDbEntity
  8
0
100
AcDbBlockEnd
  0
BLOCK
  5
206
100
AcDbEntity
  8
0
100
AcDbBlockBegin
  2
_FILLED
 70
64
 10
0.0
 20
0.0
  3
_FILLED
  1

  0
SOLID
  5
207
100
AcDbEntity
  8
0
  6
BYBLOCK
 62
0
100
AcDbTrace
 10
0.0
 20
0.0
 11
-1.0
 21
0.2
 12
-1.0
 22
-0.2
 13
-1.0
 23
-0.2
  0
ENDBLK
  5
208
100
AcDbEntity
  8
0
  6
BYBLOCK
 62
0
100
AcDbBlockEnd
  0
ENDSEC
  0
SECTION
  2
ENTITIES
  0
MTEXT
  5
209
100
AcDbEntity
  8
0
100
AcDbMText
 62
2
  6
CONTINUOUS
  7
STANDARD
 71
3
 72
1
 10
5.6860760936
 20
1.1916661604
 30
0.0
 11
1.0
 21
0.0
 31
0.0
 73
2
 44
0.9
  1
SCALE 0.500
 40
0.08
 41
0.704
  0
LINE
  5
20A
100
AcDbEntity
  8
0
100
AcDbLine
 62
7
  6
CONTINUOUS
 10
0.0
 20
0.0
 11
0.0
 21
8.5
  0
LINE
  5
20B
100
AcDbEntity
  8
0
100
AcDbLine
 62
7
  6
CONTINUOUS
 10
0.0
 20
0.0
 11
11.0
 21
0.0
  0
LINE
  5
20C
100
AcDbEntity
  8
0
100
AcDbLine
 62
7
  6
CONTINUOUS
 10
0.0
 20
8.5
 11
11.0
 21
8.5
  0
LINE
  5
20D
100
AcDbEntity
  8
0
100
AcDbLine
 62
7
  6
CONTINUOUS
 10
11.0
 20
0.0
 11
11.0
 21
8.5
  0
LINE
  5
20E
100
AcDbEntity
  8
0
100
AcDbLine
 62
7
  6
CONTINUOUS
 10
2.1517736026
 20
5.3594043135
 11
2.1517736026
 21
5.5484043135
  0
LINE
  5
20F
100
AcDbEntity
  8
0
100
AcDbLine
 62
7
  6
CONTINUOUS
 10
2.1892736026
 20
5.3444043135
 11
2.1892736026
 21
5.5634043135
  0
LINE
  5
210
100
AcDbEntity
  8
0
100
AcDbLine
 62
7
  6
CONTINUOUS
 10
2.9067736026
 20
6.6949043135
 11
2.9067736026
 21
6.6099043135
  0
LINE
  5
211
100
AcDbEntity
  8
0
100
AcDbLine
 62
7
  6
CONTINUOUS
 10
3.2142736026
 20
6.5949043135
 11
3.2142736026
 21
5.7999043135
  0
LWPOLYLINE
  5
212
100
AcDbEntity
  8
0
100
AcDbPolyline
 62
7
  6
CONTINUOUS
 90
3
 70
0
 10
3.3867719365
 20
5.4193221438
 10
3.3867710996
 20
5.419383757
 10
3.3867700944
 20
5.4194043135
  0
LINE
  5
213
100
AcDbEntity
  8
0
100
AcDbLine
 62
7
  6
CONTINUOUS
 10
3.3867730838
 20
5.4190765336
 11
3.3867719365
 21
5.4193221438
  0
LINE
  5
214
100
AcDbEntity
  8
0
100
AcDbLine
 62
7
  6
CONTINUOUS
 10
3.2552714162
 20
5.4344043136
 11
3.2552714162
 21
5.5484043135
  0
LINE
  5
215
100
AcDbEntity
  8
0
100
AcDbLine
 62
7
  6
CONTINUOUS
 10
3.2611486026
 20
5.7849043135
 11
3.2611486026
 21
5.5784043135
  0
LINE
  5
216
100
AcDbEntity
  8
0
100
AcDbLine
 62
7
  6
CONTINUOUS
 10
3.2693921089
 20
5.4344043135
 11
3.2693921089
 21
5.5484043135
  0
LINE
  5
217
100
AcDbEntity
  8
0
100
AcDbLine
 62
7
  6
CONTINUOUS
 10
3.2876447692
 20
5.4194043135
 11
3.2876447692
 21
5.4044043135
  0
LINE
  5
218
100
AcDbEntity
  8
0
100
AcDbLine
 62
7
  6
CONTINUOUS
 10
3.3717736026
 20
5.3594043135
 11
3.3717736026
 21
5.3444043135
  0
LINE
  5
219
100
AcDbEntity
  8
0
100
AcDbLine
 62
7
  6
CONTINUOUS
 10
3.3867736026
 20
5.3744043135
 11
3.3867700944
 21
5.4194043135
  0
LINE
  5
21A
100
AcDbEntity
  8
0
100
AcDbLine
 62
7
  6
CONTINUOUS
 10
3.4017736026
 20
5.3744043135
 11
3.4017736026
 21
5.4044043135
  0
LINE
  5
21B
100
AcDbEntity
  8
0
100
AcDbLine
 62
7
  6
CONTINUOUS
 10
3.5423986026
 20
5.7849043135
 11
3.5423986026
 21
5.4344043135
  0
LINE
  5
21C
100
AcDbEntity
  8
0
100
AcDbLine
 62
7
  6
CONTINUOUS
 10
3.5892736026
 20
6.5949043135
 11
3.5892736026
 21
5.7999043135
  0
LINE
  5
21D
100
AcDbEntity
  8
0
100
AcDbLine
 62
7
  6
CONTINUOUS
 10
3.8967736026
 20
6.6949043135
 11
3.8967736026
 21
6.6099043135
  0
LINE
  5
21E
100
AcDbEntity
  8
0
100
AcDbLine
 62
7
  6
CONTINUOUS
 10
5.1515236026
 20
2.9449043135
 11
5.5890236026
 21
2.9449043135
  0
LINE
  5
21F
100
AcDbEntity
  8
0
100
AcDbLine
 62
7
  6
CONTINUOUS
 10
4.8752736026
 20
6.6949043135
 11
4.8752736026
 21
6.5224043135
  0
LINE
  5
220
100
AcDbEntity
  8
0
100
AcDbLine
 62
7
  6
CONTINUOUS
 10
5.0422736026
 20
6.5074043135
 11
5.0422736026
 21
5.4599043135
  0
LINE
  5
221
100
AcDbEntity
  8
0
100
AcDbLine
 62
7
  6
CONTINUOUS
 10
5.1515236026
 20
1.9449043135
 11
5.1515236026
 21
5.4449043135
  0
LINE
  5
222
100
AcDbEntity
  8
0
100
AcDbLine
 62
7
  6
CONTINUOUS
 10
5.5890236026
 20
1.9449043135
 11
5.5890236026
 21
5.4449043135
  0
LINE
  5
223
100
AcDbEntity
  8
0
100
AcDbLine
 62
7
  6
CONTINUOUS
 10
5.6982736026
 20
6.5074043135
 11
5.6982736026
 21
5.4599043135
  0
LINE
  5
224
100
AcDbEntity
  8
0
100
AcDbLine
 62
7
  6
CONTINUOUS
 10
5.8652736026
 20
6.6949043135
 11
5.8652736026
 21
6.5224043135
  0
LINE
  5
225
100
AcDbEntity
  8
0
100
AcDbLine
 62
7
  6
CONTINUOUS
 10
2.1667736026
 20
5.3444043135
 11
3.3717736026
 21
5.3444043135
  0
LINE
  5
226
100
AcDbEntity
  8
0
100
AcDbLine
 62
7
  6
CONTINUOUS
 10
7.3687736026
 20
5.3444043135
 11
8.5737734032
 21
5.3444043135
  0
LINE
  5
227
100
AcDbEntity
  8
0
100
AcDbLine
 62
7
  6
CONTINUOUS
 10
2.1517736026
 20
5.3594043135
 11
3.3717736026
 21
5.3594043135
  0
LINE
  5
228
100
AcDbEntity
  8
0
100
AcDbLine
 62
7
  6
CONTINUOUS
 10
7.3687736026
 20
5.3594043135
 11
8.5887736026
 21
5.3594043135
  0
LINE
  5
229
100
AcDbEntity
  8
0
100
AcDbLine
 62
7
  6
CONTINUOUS
 10
7.3537736026
 20
5.3744043135
 11
7.3387736026
 21
5.3744043135
  0
LINE
  5
22A
100
AcDbEntity
  8
0
100
AcDbLine
 62
7
  6
CONTINUOUS
 10
3.3867736026
 20
5.3744043135
 11
3.4017736026
 21
5.3744043135
  0
LINE
  5
22B
100
AcDbEntity
  8
0
100
AcDbLine
 62
7
  6
CONTINUOUS
 10
3.2876447692
 20
5.4044043135
 11
3.4017736026
 21
5.4044043135
  0
LINE
  5
22C
100
AcDbEntity
  8
0
100
AcDbLine
 62
7
  6
CONTINUOUS
 10
7.3387736026
 20
5.4044043135
 11
7.452902436
 21
5.4044043135
  0
LINE
  5
22D
100
AcDbEntity
  8
0
100
AcDbLine
 62
7
  6
CONTINUOUS
 10
7.4529024361
 20
5.4194043135
 11
7.2131487856
 21
5.4194043135
  0
LINE
  5
22E
100
AcDbEntity
  8
0
100
AcDbLine
 62
7
  6
CONTINUOUS
 10
3.5273983624
 20
5.4194043135
 11
3.2876447692
 21
5.4194043135
  0
LINE
  5
22F
100
AcDbEntity
  8
0
100
AcDbLine
 62
7
  6
CONTINUOUS
 10
3.2552714162
 20
5.4344043135
 11
3.5423986026
 21
5.4344043135
  0
LINE
  5
230
100
AcDbEntity
  8
0
100
AcDbLine
 62
7
  6
CONTINUOUS
 10
7.1981486026
 20
5.4344043135
 11
7.485275789
 21
5.4344043135
  0
LINE
  5
231
100
AcDbEntity
  8
0
100
AcDbLine
 62
7
  6
CONTINUOUS
 10
5.6832736026
 20
5.4449043135
 11
5.0572736026
 21
5.4449043135
  0
LINE
  5
232
100
AcDbEntity
  8
0
100
AcDbLine
 62
7
  6
CONTINUOUS
 10
5.6982736026
 20
5.4599043135
 11
5.0422736026
 21
5.4599043135
  0
LINE
  5
233
100
AcDbEntity
  8
0
100
AcDbLine
 62
7
  6
CONTINUOUS
 10
8.5887736026
 20
5.5484043135
 11
7.4711550964
 21
5.5484043135
  0
LINE
  5
234
100
AcDbEntity
  8
0
100
AcDbLine
 62
7
  6
CONTINUOUS
 10
2.1517736026
 20
5.5484043135
 11
3.2693921089
 21
5.5484043135
  0
LINE
  5
235
100
AcDbEntity
  8
0
100
AcDbLine
 62
7
  6
CONTINUOUS
 10
8.5737734032
 20
5.5634043135
 11
7.4927635069
 21
5.5634043135
  0
LINE
  5
236
100
AcDbEntity
  8
0
100
AcDbLine
 62
7
  6
CONTINUOUS
 10
3.2477836984
 20
5.5634043135
 11
2.1667736026
 21
5.5634043135
  0
LINE
  5
237
100
AcDbEntity
  8
0
100
AcDbLine
 62
7
  6
CONTINUOUS
 10
3.2611486026
 20
5.5784043135
 11
3.2626260987
 21
5.5784043135
  0
LINE
  5
238
100
AcDbEntity
  8
0
100
AcDbLine
 62
7
  6
CONTINUOUS
 10
7.4779211065
 20
5.5784043135
 11
7.4793986026
 21
5.5784043135
  0
LINE
  5
239
100
AcDbEntity
  8
0
100
AcDbLine
 62
7
  6
CONTINUOUS
 10
6.8437736026
 20
6.6949043135
 11
6.8437736026
 21
6.6099043135
  0
LINE
  5
23A
100
AcDbEntity
  8
0
100
AcDbLine
 62
7
  6
CONTINUOUS
 10
7.5112736026
 20
5.7849043135
 11
7.1662736026
 21
5.7849043135
  0
LINE
  5
23B
100
AcDbEntity
  8
0
100
AcDbLine
 62
7
  6
CONTINUOUS
 10
3.5742736026
 20
5.7849043135
 11
3.2292736026
 21
5.7849043135
  0
LINE
  5
23C
100
AcDbEntity
  8
0
100
AcDbLine
 62
7
  6
CONTINUOUS
 10
7.5262736026
 20
5.7999043135
 11
7.1512736026
 21
5.7999043135
  0
LINE
  5
23D
100
AcDbEntity
  8
0
100
AcDbLine
 62
7
  6
CONTINUOUS
 10
3.5892736026
 20
5.7999043135
 11
3.2142736026
 21
5.7999043135
  0
LINE
  5
23E
100
AcDbEntity
  8
0
100
AcDbLine
 62
7
  6
CONTINUOUS
 10
7.1512736026
 20
6.5949043135
 11
7.1512736026
 21
5.7999043135
  0
LINE
  5
23F
100
AcDbEntity
  8
0
100
AcDbLine
 62
7
  6
CONTINUOUS
 10
7.1981486026
 20
5.7849043135
 11
7.1981486026
 21
5.4344043135
  0
LWPOLYLINE
  5
240
100
AcDbEntity
  8
0
100
AcDbPolyline
 62
7
  6
CONTINUOUS
 90
3
 70
0
 10
7.3537700944
 20
5.4194043135
 10
7.3537710245
 20
5.419387324
 10
7.3537718097
 20
5.4193363939
  0
LINE
  5
241
100
AcDbEntity
  8
0
100
AcDbLine
 62
7
  6
CONTINUOUS
 10
7.3537718097
 20
5.4193363939
 11
7.3537729298
 21
5.4191332492
  0
LINE
  5
242
100
AcDbEntity
  8
0
100
AcDbLine
 62
7
  6
CONTINUOUS
 10
7.3387736026
 20
5.4044043135
 11
7.3387736026
 21
5.3744043135
  0
LINE
  5
243
100
AcDbEntity
  8
0
100
AcDbLine
 62
7
  6
CONTINUOUS
 10
7.3537700944
 20
5.4194043135
 11
7.3537736026
 21
5.3744043135
  0
LINE
  5
244
100
AcDbEntity
  8
0
100
AcDbLine
 62
7
  6
CONTINUOUS
 10
7.3687736026
 20
5.3594043135
 11
7.3687736026
 21
5.3444043135
  0
LINE
  5
245
100
AcDbEntity
  8
0
100
AcDbLine
 62
7
  6
CONTINUOUS
 10
7.452902436
 20
5.4194043135
 11
7.452902436
 21
5.4044043135
  0
LINE
  5
246
100
AcDbEntity
  8
0
100
AcDbLine
 62
7
  6
CONTINUOUS
 10
7.4711550964
 20
5.5484043135
 11
7.4711550964
 21
5.4344043135
  0
LINE
  5
247
100
AcDbEntity
  8
0
100
AcDbLine
 62
7
  6
CONTINUOUS
 10
7.4793986026
 20
5.7849043135
 11
7.4793986026
 21
5.5784043135
  0
LINE
  5
248
100
AcDbEntity
  8
0
100
AcDbLine
 62
7
  6
CONTINUOUS
 10
7.485275789
 20
5.5484043135
 11
7.485275789
 21
5.4344043136
  0
LINE
  5
249
100
AcDbEntity
  8
0
100
AcDbLine
 62
7
  6
CONTINUOUS
 10
7.5262736026
 20
6.5949043135
 11
7.5262736026
 21
5.7999043135
  0
LINE
  5
24A
100
AcDbEntity
  8
0
100
AcDbLine
 62
7
  6
CONTINUOUS
 10
7.8337736026
 20
6.6949043135
 11
7.8337736026
 21
6.6099043135
  0
LINE
  5
24B
100
AcDbEntity
  8
0
100
AcDbLine
 62
7
  6
CONTINUOUS
 10
5.8502736026
 20
6.5074043135
 11
4.8902736026
 21
6.5074043135
  0
LINE
  5
24C
100
AcDbEntity
  8
0
100
AcDbLine
 62
7
  6
CONTINUOUS
 10
5.8652736026
 20
6.5224043135
 11
4.8752736026
 21
6.5224043135
  0
LINE
  5
24D
100
AcDbEntity
  8
0
100
AcDbLine
 62
7
  6
CONTINUOUS
 10
7.8187736026
 20
6.5949043135
 11
6.8587736026
 21
6.5949043135
  0
LINE
  5
24E
100
AcDbEntity
  8
0
100
AcDbLine
 62
7
  6
CONTINUOUS
 10
3.8817736026
 20
6.5949043135
 11
2.9217736026
 21
6.5949043135
  0
LINE
  5
24F
100
AcDbEntity
  8
0
100
AcDbLine
 62
7
  6
CONTINUOUS
 10
7.8337736026
 20
6.6099043135
 11
6.8437736026
 21
6.6099043135
  0
LINE
  5
250
100
AcDbEntity
  8
0
100
AcDbLine
 62
7
  6
CONTINUOUS
 10
3.8967736026
 20
6.6099043135
 11
2.9067736026
 21
6.6099043135
  0
LINE
  5
251
100
AcDbEntity
  8
0
100
AcDbLine
 62
7
  6
CONTINUOUS
 10
7.8337736026
 20
6.6949043135
 11
6.8437736026
 21
6.6949043135
  0
LINE
  5
252
100
AcDbEntity
  8
0
100
AcDbLine
 62
7
  6
CONTINUOUS
 10
2.9067736026
 20
6.6949043135
 11
3.8967736026
 21
6.6949043135
  0
LINE
  5
253
100
AcDbEntity
  8
0
100
AcDbLine
 62
7
  6
CONTINUOUS
 10
4.8752736026
 20
6.6949043135
 11
5.8652736026
 21
6.6949043135
  0
LINE
  5
254
100
AcDbEntity
  8
0
100
AcDbLine
 62
7
  6
CONTINUOUS
 10
8.5512736026
 20
5.3444043135
 11
8.5512736026
 21
5.5634043135
  0
LINE
  5
255
100
AcDbEntity
  8
0
100
AcDbLine
 62
7
  6
CONTINUOUS
 10
8.5887736026
 20
5.3594043135
 11
8.5887736026
 21
5.5484043135
  0
ARC
  5
256
100
AcDbEntity
  8
0
100
AcDbCircle
 62
7
  6
CONTINUOUS
 10
5.3702736026
 20
1.9449043135
 40
0.21875
100
AcDbArc
 50
180.0
 51
360.0
  0
ARC
  5
257
100
AcDbEntity
  8
0
100
AcDbCircle
 62
7
  6
CONTINUOUS
 10
7.3687736026
 20
5.3744043135
 40
0.03
100
AcDbArc
 50
180.0
 51
270.0
  0
ARC
  5
258
100
AcDbEntity
  8
0
100
AcDbCircle
 62
7
  6
CONTINUOUS
 10
3.3717736026
 20
5.3744043135
 40
0.03
100
AcDbArc
 50
270.0
 51
360.0
  0
ARC
  5
259
100
AcDbEntity
  8
0
100
AcDbCircle
 62
7
  6
CONTINUOUS
 10
7.2131486026
 20
5.4344043135
 40
0.015
100
AcDbArc
 50
180.0
 51
270.0
  0
ARC
  5
25A
100
AcDbEntity
  8
0
100
AcDbCircle
 62
7
  6
CONTINUOUS
 10
5.6832736026
 20
5.4599043135
 40
0.015
100
AcDbArc
 50
270.0
 51
360.0
  0
ARC
  5
25B
100
AcDbEntity
  8
0
100
AcDbCircle
 62
7
  6
CONTINUOUS
 10
5.0572736026
 20
5.4599043135
 40
0.015
100
AcDbArc
 50
180.0
 51
270.0
  0
ARC
  5
25C
100
AcDbEntity
  8
0
100
AcDbCircle
 62
7
  6
CONTINUOUS
 10
7.4943986026
 20
5.5784043135
 40
0.015
100
AcDbArc
 50
180.0
 51
267.2727272727
  0
ARC
  5
25D
100
AcDbEntity
  8
0
100
AcDbCircle
 62
7
  6
CONTINUOUS
 10
8.5737736026
 20
5.5484043135
 40
0.015
100
AcDbArc
 50
0.0
 51
90.0
  0
ARC
  5
25E
100
AcDbEntity
  8
0
100
AcDbCircle
 62
7
  6
CONTINUOUS
 10
8.5737736026
 20
5.3594043135
 40
0.015
100
AcDbArc
 50
270.0
 51
360.0
  0
ARC
  5
25F
100
AcDbEntity
  8
0
100
AcDbCircle
 62
7
  6
CONTINUOUS
 10
5.8502736026
 20
6.5224043135
 40
0.015
100
AcDbArc
 50
270.0
 51
360.0
  0
ARC
  5
260
100
AcDbEntity
  8
0
100
AcDbCircle
 62
7
  6
CONTINUOUS
 10
4.8902736026
 20
6.5224043135
 40
0.015
100
AcDbArc
 50
180.0
 51
270.0
  0
ARC
  5
261
100
AcDbEntity
  8
0
100
AcDbCircle
 62
7
  6
CONTINUOUS
 10
3.5273986026
 20
5.4344043135
 40
0.015
100
AcDbArc
 50
270.0
 51
360.0
  0
ARC
  5
262
100
AcDbEntity
  8
0
100
AcDbCircle
 62
7
  6
CONTINUOUS
 10
3.2461486026
 20
5.5784043135
 40
0.015
100
AcDbArc
 50
272.7272727273
 51
360.0
  0
ARC
  5
263
100
AcDbEntity
  8
0
100
AcDbCircle
 62
7
  6
CONTINUOUS
 10
2.1667736026
 20
5.5484043135
 40
0.015
100
AcDbArc
 50
90.0
 51
180.0
  0
ARC
  5
264
100
AcDbEntity
  8
0
100
AcDbCircle
 62
7
  6
CONTINUOUS
 10
3.8817736026
 20
6.6099043135
 40
0.015
100
AcDbArc
 50
270.0
 51
360.0
  0
ARC
  5
265
100
AcDbEntity
  8
0
100
AcDbCircle
 62
7
  6
CONTINUOUS
 10
2.9217736026
 20
6.6099043135
 40
0.015
100
AcDbArc
 50
180.0
 51
270.0
  0
ARC
  5
266
100
AcDbEntity
  8
0
100
AcDbCircle
 62
7
  6
CONTINUOUS
 10
2.1667736026
 20
5.3594043135
 40
0.015
100
AcDbArc
 50
180.0
 51
270.0
  0
ARC
  5
267
100
AcDbEntity
  8
0
100
AcDbCircle
 62
7
  6
CONTINUOUS
 10
3.2292736026
 20
5.7999043135
 40
0.015
100
AcDbArc
 50
180.0
 51
270.0
  0
ARC
  5
268
100
AcDbEntity
  8
0
100
AcDbCircle
 62
7
  6
CONTINUOUS
 10
3.5742736026
 20
5.7999043135
 40
0.015
100
AcDbArc
 50
270.0
 51
360.0
  0
ARC
  5
269
100
AcDbEntity
  8
0
100
AcDbCircle
 62
7
  6
CONTINUOUS
 10
7.323773603
 20
5.4044043135
 40
0.015
100
AcDbArc
 50
0.0
 51
90.0000015671
  0
ARC
  5
26A
100
AcDbEntity
  8
0
100
AcDbCircle
 62
7
  6
CONTINUOUS
 10
3.4167736026
 20
5.4044043135
 40
0.015
100
AcDbArc
 50
90.0
 51
180.0
  0
ARC
  5
26B
100
AcDbEntity
  8
0
100
AcDbCircle
 62
7
  6
CONTINUOUS
 10
6.8587736026
 20
6.6099043135
 40
0.015
100
AcDbArc
 50
180.0
 51
270.0
  0
ARC
  5
26C
100
AcDbEntity
  8
0
100
AcDbCircle
 62
7
  6
CONTINUOUS
 10
7.8187736026
 20
6.6099043135
 40
0.015
100
AcDbArc
 50
270.0
 51
360.0
  0
ARC
  5
26D
100
AcDbEntity
  8
0
100
AcDbCircle
 62
7
  6
CONTINUOUS
 10
7.5112736026
 20
5.7999043135
 40
0.015
100
AcDbArc
 50
270.0
 51
360.0
  0
ARC
  5
26E
100
AcDbEntity
  8
0
100
AcDbCircle
 62
7
  6
CONTINUOUS
 10
7.1662736026
 20
5.7999043135
 40
0.015
100
AcDbArc
 50
180.0
 51
270.0
  0
ARC
  5
26F
100
AcDbEntity
  8
0
100
AcDbCircle
 62
7
  6
CONTINUOUS
 10
7.3687736026
 20
5.3744043135
 40
0.015
100
AcDbArc
 50
180.0
 51
270.0
  0
ARC
  5
270
100
AcDbEntity
  8
0
100
AcDbCircle
 62
7
  6
CONTINUOUS
 10
3.3717736026
 20
5.3744043135
 40
0.015
100
AcDbArc
 50
270.0
 51
360.0
  0
SPLINE
  5
271
100
AcDbEntity
  8
0
100
AcDbSpline
 62
7
  6
CONTINUOUS
 70
0
 71
3
 72
21
 73
17
 74
0
 42
0.0000001
 43
0.0000001
 44
0.0000000001
 40
0.0
 40
0.0
 40
0.0
 40
0.0
 40
0.1744721229
 40
0.342036305
 40
0.497593763
 40
0.5698270579
 40
0.6378953592
 40
0.7015044578
 40
0.7603453665
 40
0.8141012718
 40
0.862479928
 40
0.9052103079
 40
0.94213658
 40
0.9584938449
 40
0.9735293476
 40
1.0
 40
1.0
 40
1.0
 40
1.0
 10
7.485275789
 20
5.5484043135
 30
0.0
 10
7.4852758862
 20
5.5494325664
 30
0.0
 10
7.4854262569
 20
5.5514514562
 30
0.0
 10
7.4860591436
 20
5.5543238751
 30
0.0
 10
7.4868620196
 20
5.5565188116
 30
0.0
 10
7.4876141858
 20
5.5580928525
 30
0.0
 10
7.4881979124
 20
5.5591442137
 30
0.0
 10
7.4888027305
 20
5.5600910694
 30
0.0
 10
7.4894166329
 20
5.5609295689
 30
0.0
 10
7.4900281834
 20
5.5616559128
 30
0.0
 10
7.4906278326
 20
5.5622651264
 30
0.0
 10
7.4912057256
 20
5.5627521613
 30
0.0
 10
7.4916798618
 20
5.5630648201
 30
0.0
 10
7.492042441
 20
5.5632415913
 30
0.0
 10
7.4923625112
 20
5.5633594406
 30
0.0
 10
7.4926075019
 20
5.5634042877
 30
0.0
 10
7.4927635069
 20
5.5634043135
 30
0.0
  0
SPLINE
  5
272
100
AcDbEntity
  8
0
100
AcDbSpline
 62
7
  6
CONTINUOUS
 70
0
 71
3
 72
15
 73
11
 74
0
 42
0.0000001
 43
0.0000001
 44
0.0000000001
 40
0.0
 40
0.0
 40
0.0
 40
0.0
 40
0.1243551986
 40
0.248802204
 40
0.3734361105
 40
0.4983081602
 40
0.6234377654
 40
0.7488051698
 40
0.8743498792
 40
1.0
 40
1.0
 40
1.0
 40
1.0
 10
7.4927635069
 20
5.5634043135
 30
0.0
 10
7.4917935078
 20
5.5634043135
 30
0.0
 10
7.4898473057
 20
5.5635978787
 30
0.0
 10
7.4870451182
 20
5.5644576281
 30
0.0
 10
7.4844619391
 20
5.5658534321
 30
0.0
 10
7.4821985695
 20
5.5677315512
 30
0.0
 10
7.4803413966
 20
5.5700193565
 30
0.0
 10
7.4789617731
 20
5.5726292507
 30
0.0
 10
7.4781122775
 20
5.5754595095
 30
0.0
 10
7.4779211065
 20
5.5774242137
 30
0.0
 10
7.4779211065
 20
5.5784043135
 30
0.0
  0
SPLINE
  5
273
100
AcDbEntity
  8
0
100
AcDbSpline
 62
7
  6
CONTINUOUS
 70
0
 71
3
 72
21
 73
17
 74
0
 42
0.0000001
 43
0.0000001
 44
0.0000000001
 40
0.0
 40
0.0
 40
0.0
 40
0.0
 40
0.0264703358
 40
0.0415060639
 40
0.0578634733
 40
0.0947897738
 40
0.1375200376
 40
0.185898645
 40
0.2396545953
 40
0.2984955451
 40
0.3621046543
 40
0.4301729445
 40
0.5024062245
 40
0.657963688
 40
0.8255278699
 40
1.0
 40
1.0
 40
1.0
 40
1.0
 10
3.2477836983
 20
5.5634043135
 30
0.0
 10
3.2479397015
 20
5.5634042888
 30
0.0
 10
3.2481846913
 20
5.5633594392
 30
0.0
 10
3.2485047622
 20
5.5632415915
 30
0.0
 10
3.2488673444
 20
5.5630648208
 30
0.0
 10
3.2493414814
 20
5.5627521626
 30
0.0
 10
3.2499193718
 20
5.5622651257
 30
0.0
 10
3.2505190193
 20
5.5616559115
 30
0.0
 10
3.2511305715
 20
5.5609295689
 30
0.0
 10
3.2517444757
 20
5.56009107
 30
0.0
 10
3.2523492945
 20
5.5591442145
 30
0.0
 10
3.2529330204
 20
5.5580928529
 30
0.0
 10
3.2536851838
 20
5.5565188108
 30
0.0
 10
3.2544880609
 20
5.5543238753
 30
0.0
 10
3.2551209502
 20
5.5514514562
 30
0.0
 10
3.2552713149
 20
5.5494325664
 30
0.0
 10
3.2552714162
 20
5.5484043135
 30
0.0
  0
SPLINE
  5
274
100
AcDbEntity
  8
0
100
AcDbSpline
 62
7
  6
CONTINUOUS
 70
0
 71
3
 72
15
 73
11
 74
0
 42
0.0000001
 43
0.0000001
 44
0.0000000001
 40
0.0
 40
0.0
 40
0.0
 40
0.0
 40
0.1256508285
 40
0.2511941639
 40
0.3765624115
 40
0.5016918491
 40
0.6265637116
 40
0.7511984456
 40
0.8756441015
 40
1.0
 40
1.0
 40
1.0
 40
1.0
 10
3.2626260988
 20
5.5784043135
 30
0.0
 10
3.2626260988
 20
5.5774242085
 30
0.0
 10
3.2624349431
 20
5.5754595064
 30
0.0
 10
3.2615854007
 20
5.5726292609
 30
0.0
 10
3.2602058027
 20
5.5700193659
 30
0.0
 10
3.258348656
 20
5.5677315312
 30
0.0
 10
3.2560852568
 20
5.5658534379
 30
0.0
 10
3.2535020766
 20
5.5644576599
 30
0.0
 10
3.2506999028
 20
5.5635978633
 30
0.0
 10
3.2487537026
 20
5.5634043135
 30
0.0
 10
3.2477836984
 20
5.5634043135
 30
0.0
  0
SPLINE
  5
275
100
AcDbEntity
  8
0
100
AcDbSpline
 62
7
  6
CONTINUOUS
 70
0
 71
3
 72
23
 73
19
 74
0
 42
0.0000001
 43
0.0000001
 44
0.0000000001
 40
0.0
 40
0.0
 40
0.0
 40
0.0
 40
0.1249056258
 40
0.1874105068
 40
0.2499187002
 40
0.3124280213
 40
0.3749340748
 40
0.4374409275
 40
0.4999483707
 40
0.562452422
 40
0.6249588567
 40
0.687462697
 40
0.7499659296
 40
0.8124723375
 40
0.8437337265
 40
0.8749934669
 40
0.9375025208
 40
1.0
 40
1.0
 40
1.0
 40
1.0
 10
3.2876447692
 20
5.4044043135
 30
0.0
 10
3.2856028527
 20
5.4044045361
 30
0.0
 10
3.2825303463
 20
5.404664931
 30
0.0
 10
3.2785350938
 20
5.4055367973
 30
0.0
 10
3.275605954
 20
5.4064561323
 30
0.0
 10
3.2727723952
 20
5.4076370312
 30
0.0
 10
3.2700603479
 20
5.4090759355
 30
0.0
 10
3.2674973804
 20
5.4107662886
 30
0.0
 10
3.2651087606
 20
5.4126954708
 30
0.0
 10
3.2629234713
 20
5.4148526747
 30
0.0
 10
3.2609671076
 20
5.4172194391
 30
0.0
 10
3.259262004
 20
5.4197735447
 30
0.0
 10
3.2578349767
 20
5.4224928205
 30
0.0
 10
3.2568903377
 20
5.424872024
 30
0.0
 10
3.2562906625
 20
5.4268268865
 30
0.0
 10
3.2557981676
 20
5.428811553
 30
0.0
 10
3.255384457
 20
5.4313375427
 30
0.0
 10
3.2552715249
 20
5.4333826251
 30
0.0
 10
3.2552714162
 20
5.4344043136
 30
0.0
  0
SPLINE
  5
276
100
AcDbEntity
  8
0
100
AcDbSpline
 62
7
  6
CONTINUOUS
 70
0
 71
3
 72
21
 73
17
 74
0
 42
0.0000001
 43
0.0000001
 44
0.0000000001
 40
0.0
 40
0.0
 40
0.0
 40
0.0
 40
0.1219001339
 40
0.2445656791
 40
0.3062621617
 40
0.3681847852
 40
0.4303541074
 40
0.4927719086
 40
0.5554466258
 40
0.6183685905
 40
0.681527623
 40
0.7449160888
 40
0.8085001732
 40
0.872234737
 40
0.9360974005
 40
1.0
 40
1.0
 40
1.0
 40
1.0
 10
3.287645628
 20
5.4194043135
 30
0.0
 10
3.2865784475
 20
5.4194043885
 30
0.0
 10
3.284434657
 20
5.419540776
 30
0.0
 10
3.281798507
 20
5.4200842313
 30
0.0
 10
3.2797495927
 20
5.420762118
 30
0.0
 10
3.2782507167
 20
5.4213987729
 30
0.0
 10
3.2768071697
 20
5.4221664626
 30
0.0
 10
3.2754348754
 20
5.4230678791
 30
0.0
 10
3.2741519051
 20
5.4241034376
 30
0.0
 10
3.2729776734
 20
5.4252705292
 30
0.0
 10
3.2719333074
 20
5.4265636573
 30
0.0
 10
3.2710405664
 20
5.4279730317
 30
0.0
 10
3.2703196594
 20
5.429483475
 30
0.0
 10
3.2697894822
 20
5.4310757176
 30
0.0
 10
3.2694652024
 20
5.4327250184
 30
0.0
 10
3.2693921602
 20
5.4338448752
 30
0.0
 10
3.2693921089
 20
5.4344043135
 30
0.0
  0
SPLINE
  5
277
100
AcDbEntity
  8
0
100
AcDbSpline
 62
7
  6
CONTINUOUS
 70
0
 71
3
 72
19
 73
15
 74
0
 42
0.0000001
 43
0.0000001
 44
0.0000000001
 40
0.0
 40
0.0
 40
0.0
 40
0.0
 40
0.0639196835
 40
0.1277899889
 40
0.19154053
 40
0.2551382637
 40
0.3185381923
 40
0.3817137537
 40
0.444652977
 40
0.5073375494
 40
0.631822847
 40
0.7553676786
 40
0.8780645354
 40
1.0
 40
1.0
 40
1.0
 40
1.0
 10
7.4711550964
 20
5.4344043135
 30
0.0
 10
7.4711550472
 20
5.4338448588
 30
0.0
 10
7.4710820767
 20
5.4327250462
 30
0.0
 10
7.4707577289
 20
5.4310757964
 30
0.0
 10
7.4702275426
 20
5.429483643
 30
0.0
 10
7.4695068275
 20
5.427973151
 30
0.0
 10
7.4686140193
 20
5.4265638353
 30
0.0
 10
7.4675696135
 20
5.4252707887
 30
0.0
 10
7.4663955567
 20
5.4241034029
 30
0.0
 10
7.464689584
 20
5.4227265047
 30
0.0
 10
7.4623320304
 20
5.4213367369
 30
0.0
 10
7.4592801312
 20
5.4201937397
 30
0.0
 10
7.4561129648
 20
5.4195408757
 30
0.0
 10
7.4539688459
 20
5.4194043856
 30
0.0
 10
7.4529016102
 20
5.4194043135
 30
0.0
  0
SPLINE
  5
278
100
AcDbEntity
  8
0
100
AcDbSpline
 62
7
  6
CONTINUOUS
 70
0
 71
3
 72
22
 73
18
 74
0
 42
0.0000001
 43
0.0000001
 44
0.0000000001
 40
0.0
 40
0.0
 40
0.0
 40
0.0
 40
0.0625007599
 40
0.1250075647
 40
0.1875091266
 40
0.2500155461
 40
0.3125196712
 40
0.3750258283
 40
0.437532145
 40
0.5000393101
 40
0.5625464186
 40
0.6250552601
 40
0.6875634634
 40
0.7500734724
 40
0.8125840151
 40
0.8750911205
 40
1.0
 40
1.0
 40
1.0
 40
1.0
 10
7.485275789
 20
5.4344043136
 30
0.0
 10
7.485275685
 20
5.4333825954
 30
0.0
 10
7.4851625451
 20
5.4313374718
 30
0.0
 10
7.4846668628
 20
5.4283068573
 30
0.0
 10
7.483845462
 20
5.4253472913
 30
0.0
 10
7.4827126261
 20
5.4224928044
 30
0.0
 10
7.4812847592
 20
5.4197738458
 30
0.0
 10
7.4795804051
 20
5.417219332
 30
0.0
 10
7.4776236551
 20
5.414852808
 30
0.0
 10
7.4754384143
 20
5.4126956543
 30
0.0
 10
7.4730500697
 20
5.4107660766
 30
0.0
 10
7.4704867345
 20
5.4090763098
 30
0.0
 10
7.4677749731
 20
5.4076368792
 30
0.0
 10
7.4649412623
 20
5.4064562554
 30
0.0
 10
7.4620121381
 20
5.4055368902
 30
0.0
 10
7.4580169167
 20
5.4046646788
 30
0.0
 10
7.454944358
 20
5.4044045268
 30
0.0
 10
7.452902436
 20
5.4044043135
 30
0.0
  0
SPLINE
  5
279
100
AcDbEntity
  8
0
100
AcDbSpline
 62
7
  6
CONTINUOUS
 70
0
 71
3
 72
28
 73
24
 74
0
 42
0.0000001
 43
0.0000001
 44
0.0000000001
 40
0.0
 40
0.0
 40
0.0
 40
0.0
 40
0.0903602102
 40
0.1800849291
 40
0.2684729481
 40
0.3548774092
 40
0.4386423597
 40
0.5191069808
 40
0.5956059435
 40
0.6674652676
 40
0.7339943173
 40
0.7944999215
 40
0.8482895471
 40
0.8946868748
 40
0.9149316659
 40
0.9331216042
 40
0.9492093685
 40
0.9631716592
 40
0.9750454758
 40
0.9849429069
 40
0.9892231113
 40
0.9931147264
 40
1.0
 40
1.0
 40
1.0
 40
1.0
 10
3.2693921089
 20
5.5484043135
 30
0.0
 10
3.2693920855
 20
5.5493501704
 30
0.0
 10
3.26936264
 20
5.5512353536
 30
0.0
 10
3.2692337183
 20
5.5540430738
 30
0.0
 10
3.2690227363
 20
5.5568043351
 30
0.0
 10
3.2687331502
 20
5.5594957107
 30
0.0
 10
3.2683726901
 20
5.5620947896
 30
0.0
 10
3.2679494527
 20
5.5645792644
 30
0.0
 10
3.2674727535
 20
5.5669269989
 30
0.0
 10
3.2669533787
 20
5.5691160113
 30
0.0
 10
3.2664027774
 20
5.5711242911
 30
0.0
 10
3.2658333146
 20
5.5729299598
 30
0.0
 10
3.2652578863
 20
5.5745111274
 30
0.0
 10
3.2647642717
 20
5.5756721348
 30
0.0
 10
3.2643714338
 20
5.5764687524
 30
0.0
 10
3.2640966093
 20
5.5769692088
 30
0.0
 10
3.2638295151
 20
5.577398106
 30
0.0
 10
3.2635712464
 20
5.577753556
 30
0.0
 10
3.2633229557
 20
5.5780341736
 30
0.0
 10
3.263115619
 20
5.5782134864
 30
0.0
 10
3.2629545544
 20
5.5783135891
 30
0.0
 10
3.2628113973
 20
5.5783797914
 30
0.0
 10
3.2626981712
 20
5.5784042614
 30
0.0
 10
3.2626260987
 20
5.5784043135
 30
0.0
  0
SPLINE
  5
27A
100
AcDbEntity
  8
0
100
AcDbSpline
 62
7
  6
CONTINUOUS
 70
0
 71
3
 72
28
 73
24
 74
0
 42
0.0000001
 43
0.0000001
 44
0.0000000001
 40
0.0
 40
0.0
 40
0.0
 40
0.0
 40
0.0068856519
 40
0.0107772422
 40
0.0150572249
 40
0.0249535324
 40
0.0368272065
 40
0.0507921428
 40
0.0668788119
 40
0.0850667225
 40
0.105311427
 40
0.1517106988
 40
0.2054970576
 40
0.2660040954
 40
0.3325334038
 40
0.4043903824
 40
0.4808910979
 40
0.5613568083
 40
0.6451187762
 40
0.7315265397
 40
0.8199155585
 40
0.9096355225
 40
1.0
 40
1.0
 40
1.0
 40
1.0
 10
7.4779211065
 20
5.5784043135
 30
0.0
 10
7.4778490301
 20
5.5784042591
 30
0.0
 10
7.4777358015
 20
5.5783797829
 30
0.0
 10
7.4775926441
 20
5.5783135789
 30
0.0
 10
7.4774315871
 20
5.5782134923
 30
0.0
 10
7.4772242408
 20
5.5780342139
 30
0.0
 10
7.4769759563
 20
5.577753567
 30
0.0
 10
7.4767177406
 20
5.5773980623
 30
0.0
 10
7.4764506079
 20
5.5769691975
 30
0.0
 10
7.4761757604
 20
5.5764687906
 30
0.0
 10
7.4757829423
 20
5.5756721644
 30
0.0
 10
7.475289391
 20
5.5745111483
 30
0.0
 10
7.4747138544
 20
5.5729300196
 30
0.0
 10
7.4741444699
 20
5.5711243415
 30
0.0
 10
7.4735938622
 20
5.5691160731
 30
0.0
 10
7.47307442
 20
5.5669270792
 30
0.0
 10
7.4725978094
 20
5.564579321
 30
0.0
 10
7.4721745453
 20
5.5620948548
 30
0.0
 10
7.4718139765
 20
5.5594957739
 30
0.0
 10
7.4715245961
 20
5.5568043632
 30
0.0
 10
7.4713134418
 20
5.5540431216
 30
0.0
 10
7.4711845775
 20
5.5512353919
 30
0.0
 10
7.4711551182
 20
5.549350215
 30
0.0
 10
7.4711550964
 20
5.5484043135
 30
0.0
  0
ENDSEC
  0
SECTION
  2
OBJECTS
  0
DICTIONARY
  5
C
100
AcDbDictionary
280
0
281
1
  3
ACAD_GROUP
350
D
  3
ACAD_MLINESTYLE
350
17
  3
ACAD_LAYOUT
350
1A
  3
ACAD_PLOTSETTINGS
350
19
  3
ACAD_PLOTSTYLENAME
350
E
  0
DICTIONARY
  5
D
102
{ACAD_REACTORS
330
C
102
}
100
AcDbDictionary
280
0
281
1
  0
ACDBDICTIONARYWDFLT
  5
E
102
{ACAD_REACTORS
330
C
102
}
100
AcDbDictionary
281
1
  3
Normal
350
F
100
AcDbDictionaryWithDefault
340
F
  0
DICTIONARY
  5
17
102
{ACAD_REACTORS
330
C
102
}
100
AcDbDictionary
280
0
281
1
  3
Standard
350
18
  0
DICTIONARY
  5
19
102
{ACAD_REACTORS
330
C
102
}
100
AcDbDictionary
281
1
  0
DICTIONARY
  5
1A
102
{ACAD_REACTORS
330
C
102
}
100
AcDbDictionary
281
1
  3
Model
350
27B
  3
Layout1
350
27C
  0
ACDBPLACEHOLDER
  5
F
102
{ACAD_REACTORS
330
E
102
}
  0
MLINESTYLE
  5
18
102
{ACAD_REACTORS
330
17
102
}
100
AcDbMlineStyle
  2
STANDARD
 70
0
  3

 62
256
 51
90.0
 52
90.0
 71
2
 49
0.5
 62
256
  6
BYLAYER
 49
-0.5
 62
256
  6
BYLAYER
  0
LAYOUT
  5
27B
102
{ACAD_REACTORS
330
1A
102
}
100
AcDbPlotSettings
  1

  2
none_device
  4
ANSI_A_(11.00_x_8.50_Inches)
  6

 40
0.0
 41
0.0
 42
0.0
 43
0.0
 44
279.4
 45
215.9
 46
0.0
 47
0.0
 48
0.0
 49
0.0
140
0.0
141
0.0
142
1.0
143
1.0
 70
1024
 72
0
 73
0
 74
0
  7

 75
0
147
1.0
148
0.0
149
0.0
100
AcDbLayout
  1
Model
 70
0
 71
0
 10
0.0
 20
0.0
 11
11.0
 21
8.5
 12
0.0
 22
0.0
 32
0.0
 14
0.0
 24
0.0
 34
0.0
 15
0.0
 25
0.0
 35
0.0
146
0.0
 13
0.0
 23
0.0
 33
0.0
 16
1.0
 26
0.0
 36
0.0
 17
0.0
 27
1.0
 37
0.0
 76
0
330
202
345
0
346
0
  0
LAYOUT
  5
27C
102
{ACAD_REACTORS
330
1A
102
}
100
AcDbPlotSettings
  1

  2
none_device
  4
ANSI_A_(11.00_x_8.50_Inches)
  6

 40
0.0
 41
0.0
 42
0.0
 43
0.0
 44
279.4
 45
215.9
 46
0.0
 47
0.0
 48
0.0
 49
0.0
140
0.0
141
0.0
142
1.0
143
1.0
 70
0
 72
0
 73
0
 74
0
  7

 75
0
147
1.0
148
0.0
149
0.0
100
AcDbLayout
  1
Layout1
 70
0
 71
1
 10
0.0
 20
0.0
 11
11.0
 21
8.5
 12
0.0
 22
0.0
 32
0.0
 14
0.0
 24
0.0
 34
0.0
 15
0.0
 25
0.0
 35
0.0
146
0.0
 13
0.0
 23
0.0
 33
0.0
 16
1.0
 26
0.0
 36
0.0
 17
0.0
 27
1.0
 37
0.0
 76
0
330
203
345
0
346
0
  0
ENDSEC
  0
EOF
