999
DXF file: E:\BRASSTECH\JOE\EN-3XXX\EN-3934\Webdata\1\CAD\3-3323tr_FRONT.dxf
999
Pro/ENGINEER 2018400 by Parametric Technology Corporation
  0
SECTION
  2
HEADER
  9
$ACADVER
  1
AC1018
  9
$DWGCODEPAGE
  3
ANSI_1252
  9
$EXTMAX
 10
22.0
 20
17.0
 30
0.0
  9
$EXTMIN
 10
0.0
 20
0.0
 30
0.0
  9
$LIMMIN
 10
0.0
 20
0.0
  9
$LIMMAX
 10
22.0
 20
17.0
  9
$VIEWCTR
 10
11.0
 20
8.5
  9
$VIEWSIZE
 40
17.0
  9
$CLAYER
  8
0
  9
$LTSCALE
 40
1.21
  9
$CELTYPE
  6
BYLAYER
  9
$DIMSCALE
 40
1.0
  9
$DIMASZ
 40
0.1
  9
$DIMEXO
 40
0.0625
  9
$DIMDLI
 40
0.836
  9
$DIMEXE
 40
0.125
  9
$DIMCEN
 40
0.198
  9
$DIMLFAC
 40
1.0
  9
$DIMBLK
  1
_FILLED
  9
$DIMALT
 70
1
  9
$DIMALTD
 70
2
  9
$DIMALTTD
 70
2
  9
$DIMALTF
 40
25.4
  9
$DIMTXT
 40
0.08
  9
$DIMTOL
 70
1
  9
$DIMLIM
 70
0
  9
$DIMTFAC
 40
1.0
  9
$DIMTP
 40
0.001
  9
$DIMTM
 40
0.001
  9
$DIMGAP
 40
0.09
  9
$DIMDSEP
 70
46
  9
$AUNITS
 70
0
  9
$PDMODE
 70
3
  9
$PDSIZE
 40
0.06
  9
$HANDSEED
  5
393
  9
$TILEMODE
 70
1
  9
$MEASUREMENT
 70
0
  9
$INSUNITS
 70
1
  0
ENDSEC
  0
SECTION
  2
CLASSES
  0
CLASS
  1
ACDBDICTIONARYWDFLT
  2
AcDbDictionaryWithDefault
  3
AutoCAD 2000
 90
0
 91
1
280
0
281
0
  0
CLASS
  1
ACDBPLACEHOLDER
  2
AcDbPlaceHolder
  3
AutoCAD 2000
 90
0
 91
1
280
0
281
0
  0
CLASS
  1
LAYOUT
  2
AcDbLayout
  3
AutoCAD 2000
 90
0
 91
0
280
0
281
0
  0
ENDSEC
  0
SECTION
  2
TABLES
  0
TABLE
  2
VPORT
  5
8
100
AcDbSymbolTable
 70
2
  0
VPORT
  5
1F4
100
AcDbSymbolTableRecord
100
AcDbViewportTableRecord
  2
*ACTIVE
 70
0
 10
0.0
 20
0.0
 11
1.0
 21
1.0
 12
11.0
 22
8.5
 13
0.0
 23
0.0
 14
1.0
 24
1.0
 15
0.0
 25
0.0
 16
0.0
 26
0.0
 36
1.0
 17
0.0
 27
0.0
 37
0.0
 40
17.0
 41
1.2941176471
 42
50.0
 43
0.0
 44
0.0
 50
0.0
 51
0.0
 71
0
 72
100
 73
1
 74
1
 75
0
 76
0
 77
0
 78
0
  0
ENDTAB
  0
TABLE
  2
LTYPE
  5
5
100
AcDbSymbolTable
 70
6
  0
LTYPE
  5
14
100
AcDbSymbolTableRecord
100
AcDbLinetypeTableRecord
  2
BYBLOCK
 70
0
  3

 72
65
 73
0
 40
0.0
  0
LTYPE
  5
15
100
AcDbSymbolTableRecord
100
AcDbLinetypeTableRecord
  2
BYLAYER
 70
0
  3

 72
65
 73
0
 40
0.0
  0
LTYPE
  5
16
100
AcDbSymbolTableRecord
100
AcDbLinetypeTableRecord
  2
CONTINUOUS
 70
64
  3
Solid line
 72
65
 73
0
 40
0.0
  0
LTYPE
  5
1F5
100
AcDbSymbolTableRecord
100
AcDbLinetypeTableRecord
  2
CENTER
 70
64
  3
____ _ ____ _ ____ _ ____ _ ____ _ ____ _ ____
 72
65
 73
4
 40
0.6
 49
0.375
 74
0
 49
-0.075
 74
0
 49
0.075
 74
0
 49
-0.075
 74
0
  0
LTYPE
  5
1F6
100
AcDbSymbolTableRecord
100
AcDbLinetypeTableRecord
  2
HIDDEN
 70
64
  3
- - - - - - - - - - - - - - - - - - - -
 72
65
 73
2
 40
0.2
 49
0.1
 74
0
 49
-0.1
 74
0
  0
LTYPE
  5
1F7
100
AcDbSymbolTableRecord
100
AcDbLinetypeTableRecord
  2
PHANTOM
 70
64
  3
_____ _ _ _____ _ _ _____ _ _ _____
 72
65
 73
6
 40
0.8
 49
0.45
 74
0
 49
-0.05
 74
0
 49
0.1
 74
0
 49
-0.05
 74
0
 49
0.1
 74
0
 49
-0.05
 74
0
  0
LTYPE
  5
1F8
100
AcDbSymbolTableRecord
100
AcDbLinetypeTableRecord
  2
DOT
 70
64
  3
. . . . . . . . . . . . . . . . . . . .
 72
65
 73
2
 40
0.2
 49
0.1
 74
0
 49
-0.1
 74
0
  0
LTYPE
  5
1F9
100
AcDbSymbolTableRecord
100
AcDbLinetypeTableRecord
  2
DASHED
 70
64
  3
- - - - - - - - - - - - - - - - - - - -
 72
65
 73
2
 40
0.2
 49
0.1
 74
0
 49
-0.1
 74
0
  0
ENDTAB
  0
TABLE
  2
LAYER
  5
2
100
AcDbSymbolTable
 70
36
  0
LAYER
  5
10
100
AcDbSymbolTableRecord
100
AcDbLayerTableRecord
  2
0
 70
0
 62
7
  6
CONTINUOUS
370
-3
390
F
  0
LAYER
  5
1FA
100
AcDbSymbolTableRecord
100
AcDbLayerTableRecord
  2
DEFAULT_1
 70
0
 62
7
  6
CENTER
370
-3
390
F
  0
LAYER
  5
1FB
100
AcDbSymbolTableRecord
100
AcDbLayerTableRecord
  2
DEFAULT_2
 70
0
 62
8
  6
HIDDEN
370
-3
390
F
  0
LAYER
  5
1FC
100
AcDbSymbolTableRecord
100
AcDbLayerTableRecord
  2
DEFAULT_3
 70
0
 62
7
  6
PHANTOM
370
-3
390
F
  0
LAYER
  5
1FD
100
AcDbSymbolTableRecord
100
AcDbLayerTableRecord
  2
ALL_FEATURES
 70
0
 62
7
  6
CONTINUOUS
370
-3
390
F
  0
LAYER
  5
1FE
100
AcDbSymbolTableRecord
100
AcDbLayerTableRecord
  2
AXES_FEATURES
 70
0
 62
7
  6
CONTINUOUS
370
-3
390
F
  0
LAYER
  5
1FF
100
AcDbSymbolTableRecord
100
AcDbLayerTableRecord
  2
DIMENSIONS
 70
0
 62
7
  6
CONTINUOUS
370
-3
390
F
  0
ENDTAB
  0
TABLE
  2
STYLE
  5
3
100
AcDbSymbolTable
 70
1
  0
STYLE
  5
11
100
AcDbSymbolTableRecord
100
AcDbTextStyleTableRecord
  2
STANDARD
 70
0
 40
0.0
 41
0.8
 50
0.0
 71
0
 42
0.2
  3
txt
  4

  0
STYLE
  5
200
100
AcDbSymbolTableRecord
100
AcDbTextStyleTableRecord
  2
TEXTSTYLE_1
 70
0
 40
0.0
 41
0.8
 50
0.0
 71
0
 42
0.2
  3
gdt
  4

  0
ENDTAB
  0
TABLE
  2
VIEW
  5
6
100
AcDbSymbolTable
 70
0
  0
ENDTAB
  0
TABLE
  2
UCS
  5
7
100
AcDbSymbolTable
 70
0
  0
ENDTAB
  0
TABLE
  2
APPID
  5
9
100
AcDbSymbolTable
 70
1
  0
APPID
  5
201
100
AcDbSymbolTableRecord
100
AcDbRegAppTableRecord
  2
ACAD
 70
0
  0
ENDTAB
  0
TABLE
  2
BLOCK_RECORD
  5
1
100
AcDbSymbolTable
 70
0
  0
BLOCK_RECORD
  5
202
100
AcDbSymbolTableRecord
100
AcDbBlockTableRecord
  2
*Model_Space
  0
BLOCK_RECORD
  5
203
100
AcDbSymbolTableRecord
100
AcDbBlockTableRecord
  2
*Paper_Space
  0
BLOCK_RECORD
  5
204
100
AcDbSymbolTableRecord
100
AcDbBlockTableRecord
  2
_FILLED
  0
ENDTAB
  0
TABLE
  2
DIMSTYLE
  5
A
100
AcDbSymbolTable
 70
1
100
AcDbDimStyleTable
 71
0
  0
DIMSTYLE
105
205
100
AcDbSymbolTableRecord
100
AcDbDimStyleTableRecord
  2
STANDARD
 70
0
  3

  4

 40
1.0
 41
0.1
 42
0.0625
 43
0.38
 44
0.125
 45
0.0
 46
0.0
 47
0.001
 48
0.001
140
0.08
141
0.09
142
0.0
143
25.4
144
1.0
145
0.0
146
1.0
147
0.09
 71
1.0
 72
0.0
 73
1
 74
1
 75
0
 76
0
 77
0
 78
4
 79
1
170
1
171
2
172
0
173
0
174
0
175
0
176
0
177
0
178
0
270
2
179
3
271
3
272
3
273
2
274
2
275
0
280
0
281
0
282
0
283
1
284
4
285
0
286
0
287
3
288
0
340
11
278
46
341
204
342
204
343
204
344
204
  0
ENDTAB
  0
ENDSEC
  0
SECTION
  2
BLOCKS
  0
BLOCK
  5
20
100
AcDbEntity
  8
0
100
AcDbBlockBegin
  2
*Model_Space
 70
0
 10
0.0
 20
0.0
 30
0.0
  3
*Model_Space
  1

  0
ENDBLK
  5
21
100
AcDbEntity
  8
0
100
AcDbBlockEnd
  0
BLOCK
  5
1C
100
AcDbEntity
  8
0
100
AcDbBlockBegin
  2
*Paper_Space
 70
0
 10
0.0
 20
0.0
 30
0.0
  3
*Paper_Space
  1

  0
ENDBLK
  5
1D
100
AcDbEntity
  8
0
100
AcDbBlockEnd
  0
BLOCK
  5
206
100
AcDbEntity
  8
0
100
AcDbBlockBegin
  2
_FILLED
 70
64
 10
0.0
 20
0.0
  3
_FILLED
  1

  0
SOLID
  5
207
100
AcDbEntity
  8
0
  6
BYBLOCK
 62
0
100
AcDbTrace
 10
0.0
 20
0.0
 11
-1.0
 21
0.2
 12
-1.0
 22
-0.2
 13
-1.0
 23
-0.2
  0
ENDBLK
  5
208
100
AcDbEntity
  8
0
  6
BYBLOCK
 62
0
100
AcDbBlockEnd
  0
ENDSEC
  0
SECTION
  2
ENTITIES
  0
LINE
  5
209
100
AcDbEntity
  8
0
100
AcDbLine
 62
7
  6
CONTINUOUS
 10
10.9740632126
 20
6.3862939182
 11
10.9475966373
 21
6.3862939182
  0
LINE
  5
20A
100
AcDbEntity
  8
0
100
AcDbLine
 62
7
  6
CONTINUOUS
 10
11.0679240534
 20
6.4771533969
 11
10.9740632126
 21
6.4771533969
  0
LINE
  5
20B
100
AcDbEntity
  8
0
100
AcDbLine
 62
7
  6
CONTINUOUS
 10
10.9740632126
 20
6.5007550421
 11
11.0679240534
 21
6.5007550421
  0
LINE
  5
20C
100
AcDbEntity
  8
0
100
AcDbLine
 62
7
  6
CONTINUOUS
 10
11.0825216004
 20
6.5626922789
 11
10.9740632126
 21
6.5626922789
  0
LINE
  5
20D
100
AcDbEntity
  8
0
100
AcDbLine
 62
7
  6
CONTINUOUS
 10
10.9475966373
 20
6.5862939182
 11
11.0825216004
 21
6.5862939182
  0
LINE
  5
20E
100
AcDbEntity
  8
0
100
AcDbLine
 62
9
  6
CONTINUOUS
 10
10.8626923427
 20
6.8712423967
 11
10.892692219
 21
6.8712423967
  0
LINE
  5
20F
100
AcDbEntity
  8
0
100
AcDbLine
 62
9
  6
CONTINUOUS
 10
10.9826923428
 20
6.8712423967
 11
11.0126923427
 21
6.8712423967
  0
LINE
  5
210
100
AcDbEntity
  8
0
100
AcDbLine
 62
7
  6
CONTINUOUS
 10
9.8526315762
 20
6.9241736498
 11
9.8605442626
 21
6.9104684748
  0
LINE
  5
211
100
AcDbEntity
  8
0
100
AcDbLine
 62
7
  6
CONTINUOUS
 10
12.1799649516
 20
7.885784987
 11
12.2026306099
 21
7.8918582318
  0
LINE
  5
212
100
AcDbEntity
  8
0
100
AcDbLine
 62
9
  6
CONTINUOUS
 10
11.0126923427
 20
7.3676088622
 11
10.9826923428
 21
7.3676088622
  0
LINE
  5
213
100
AcDbEntity
  8
0
100
AcDbLine
 62
9
  6
CONTINUOUS
 10
10.892692219
 20
7.3676088622
 11
10.8626923427
 21
7.3676088622
  0
LINE
  5
214
100
AcDbEntity
  8
0
100
AcDbLine
 62
7
  6
CONTINUOUS
 10
9.6626464325
 20
7.8800113025
 11
9.6852226714
 21
7.8726758378
  0
LINE
  5
215
100
AcDbEntity
  8
0
100
AcDbLine
 62
7
  6
CONTINUOUS
 10
9.6722440719
 20
7.9285335485
 11
9.821065602
 21
7.8801785021
  0
LINE
  5
216
100
AcDbEntity
  8
0
100
AcDbLine
 62
7
  6
CONTINUOUS
 10
9.8286540127
 20
7.9035332289
 11
9.6376642102
 21
7.9655895775
  0
LINE
  5
217
100
AcDbEntity
  8
0
100
AcDbLine
 62
7
  6
CONTINUOUS
 10
9.9101304883
 20
7.1790164621
 11
9.9591755086
 21
7.094067995
  0
LINE
  5
218
100
AcDbEntity
  8
0
100
AcDbLine
 62
7
  6
CONTINUOUS
 10
10.0388238593
 20
7.0033162804
 11
10.0265455529
 21
7.024582931
  0
LINE
  5
219
100
AcDbEntity
  8
0
100
AcDbLine
 62
7
  6
CONTINUOUS
 10
9.9966683313
 20
7.0763317968
 11
9.9305701062
 21
7.190817281
  0
LINE
  5
21A
100
AcDbEntity
  8
0
100
AcDbLine
 62
7
  6
CONTINUOUS
 10
9.8705299125
 20
7.0088617897
 11
9.8601553552
 21
7.0320152234
  0
LINE
  5
21B
100
AcDbEntity
  8
0
100
AcDbLine
 62
7
  6
CONTINUOUS
 10
9.7350784271
 20
7.4656060081
 11
9.8335592024
 21
7.4829708258
  0
LINE
  5
21C
100
AcDbEntity
  8
0
100
AcDbLine
 62
7
  6
CONTINUOUS
 10
9.829217998
 20
7.5075910197
 11
9.7307372227
 21
7.4902262019
  0
LINE
  5
21D
100
AcDbEntity
  8
0
100
AcDbLine
 62
7
  6
CONTINUOUS
 10
12.1768899472
 20
7.987923693
 11
12.0726478612
 21
7.9800479476
  0
LINE
  5
21E
100
AcDbEntity
  8
0
100
AcDbLine
 62
7
  6
CONTINUOUS
 10
12.1045992454
 20
7.9593729835
 11
12.1593088629
 21
7.9628745594
  0
LINE
  5
21F
100
AcDbEntity
  8
0
100
AcDbLine
 62
7
  6
CONTINUOUS
 10
12.0094018496
 20
7.5779701674
 11
12.1090213194
 21
7.5692545932
  0
LINE
  5
220
100
AcDbEntity
  8
0
100
AcDbLine
 62
7
  6
CONTINUOUS
 10
12.111200213
 20
7.5941594606
 11
12.0115807432
 21
7.6028750349
  0
LINE
  5
221
100
AcDbEntity
  8
0
100
AcDbLine
 62
7
  6
CONTINUOUS
 10
9.720524572
 20
8.0757649307
 11
9.8692479295
 21
8.0284684583
  0
LINE
  5
222
100
AcDbEntity
  8
0
100
AcDbLine
 62
7
  6
CONTINUOUS
 10
9.7106642168
 20
8.0277948468
 11
9.7332404557
 21
8.0204593821
  0
LINE
  5
223
100
AcDbEntity
  8
0
100
AcDbLine
 62
7
  6
CONTINUOUS
 10
9.8766717952
 20
8.0513167676
 11
9.6856819927
 21
8.1133731162
  0
LINE
  5
224
100
AcDbEntity
  8
0
100
AcDbLine
 62
7
  6
CONTINUOUS
 10
9.7688755109
 20
8.2820028354
 11
9.7465587642
 21
8.289253986
  0
LINE
  5
225
100
AcDbEntity
  8
0
100
AcDbLine
 62
7
  6
CONTINUOUS
 10
9.715825693
 20
8.1946673187
 11
9.8075399044
 21
8.1444981768
  0
LINE
  5
226
100
AcDbEntity
  8
0
100
AcDbLine
 62
7
  6
CONTINUOUS
 10
9.7920036114
 20
8.1792396316
 11
9.7442131668
 21
8.206099945
  0
LINE
  5
227
100
AcDbEntity
  8
0
100
AcDbLine
 62
7
  6
CONTINUOUS
 10
11.8808074886
 20
6.8452575996
 11
11.9000290684
 21
6.8317985045
  0
LINE
  5
228
100
AcDbEntity
  8
0
100
AcDbLine
 62
7
  6
CONTINUOUS
 10
11.9690841721
 20
6.9634806914
 11
11.9847296429
 21
6.9525256148
  0
LINE
  5
229
100
AcDbEntity
  8
0
100
AcDbLine
 62
7
  6
CONTINUOUS
 10
9.7307372227
 20
7.4902262019
 11
9.7350784271
 21
7.4656060081
  0
LINE
  5
22A
100
AcDbEntity
  8
0
100
AcDbLine
 62
7
  6
CONTINUOUS
 10
9.8335592024
 20
7.4829708258
 11
9.829217998
 21
7.5075910197
  0
LINE
  5
22B
100
AcDbEntity
  8
0
100
AcDbLine
 62
9
  6
CONTINUOUS
 10
10.8626923427
 20
8.0248759312
 11
10.8926923427
 21
8.0248759312
  0
LINE
  5
22C
100
AcDbEntity
  8
0
100
AcDbLine
 62
9
  6
CONTINUOUS
 10
10.9826924675
 20
8.0248759312
 11
11.0126923427
 21
8.0248759312
  0
LINE
  5
22D
100
AcDbEntity
  8
0
100
AcDbLine
 62
7
  6
CONTINUOUS
 10
12.0589894053
 20
7.0585795464
 11
12.0396560742
 21
7.0721168906
  0
LINE
  5
22E
100
AcDbEntity
  8
0
100
AcDbLine
 62
7
  6
CONTINUOUS
 10
10.263100733
 20
8.5726451104
 11
10.2021094732
 21
8.6518984653
  0
LINE
  5
22F
100
AcDbEntity
  8
0
100
AcDbLine
 62
7
  6
CONTINUOUS
 10
10.1825161569
 20
8.6371338424
 11
10.2426976592
 21
8.5572702914
  0
LINE
  5
230
100
AcDbEntity
  8
0
100
AcDbLine
 62
7
  6
CONTINUOUS
 10
9.8521750006
 20
8.1525164494
 11
9.8462831387
 21
8.1273194367
  0
LINE
  5
231
100
AcDbEntity
  8
0
100
AcDbLine
 62
7
  6
CONTINUOUS
 10
9.6856819927
 20
8.1133731162
 11
9.6807916854
 21
8.0983222978
  0
LINE
  5
232
100
AcDbEntity
  8
0
100
AcDbLine
 62
7
  6
CONTINUOUS
 10
9.6376642102
 20
7.9655895775
 11
9.6327739011
 21
7.9505387535
  0
LINE
  5
233
100
AcDbEntity
  8
0
100
AcDbLine
 62
7
  6
CONTINUOUS
 10
9.7465587642
 20
8.289253986
 11
9.715825693
 21
8.1946673187
  0
LINE
  5
234
100
AcDbEntity
  8
0
100
AcDbLine
 62
7
  6
CONTINUOUS
 10
9.7442131668
 20
8.206099945
 11
9.7688755109
 21
8.2820028354
  0
LINE
  5
235
100
AcDbEntity
  8
0
100
AcDbLine
 62
7
  6
CONTINUOUS
 10
9.821065602
 20
7.8801785021
 11
9.8286540127
 21
7.9035332289
  0
LINE
  5
236
100
AcDbEntity
  8
0
100
AcDbLine
 62
7
  6
CONTINUOUS
 10
9.8692479295
 20
8.0284684583
 11
9.8766717952
 21
8.0513167676
  0
LINE
  5
237
100
AcDbEntity
  8
0
100
AcDbLine
 62
9
  6
CONTINUOUS
 10
11.0126923427
 20
8.5212423967
 11
10.9826924675
 21
8.5212423967
  0
LINE
  5
238
100
AcDbEntity
  8
0
100
AcDbLine
 62
9
  6
CONTINUOUS
 10
10.8926923427
 20
8.5212423967
 11
10.8626923427
 21
8.5212423967
  0
LINE
  5
239
100
AcDbEntity
  8
0
100
AcDbLine
 62
7
  6
CONTINUOUS
 10
11.957073702
 20
6.9132666844
 11
11.8840350098
 21
6.9880583235
  0
LINE
  5
23A
100
AcDbEntity
  8
0
100
AcDbLine
 62
7
  6
CONTINUOUS
 10
11.8887350223
 20
6.9502925325
 11
11.9265840493
 21
6.9106333036
  0
LINE
  5
23B
100
AcDbEntity
  8
0
100
AcDbLine
 62
7
  6
CONTINUOUS
 10
9.8075399044
 20
8.1444981768
 11
9.8175190451
 21
8.165498202
  0
LINE
  5
23C
100
AcDbEntity
  8
0
100
AcDbLine
 62
9
  6
CONTINUOUS
 10
11.1326923427
 20
8.6530140502
 11
10.7426923427
 21
8.6530140502
  0
LINE
  5
23D
100
AcDbEntity
  8
0
100
AcDbLine
 62
7
  6
CONTINUOUS
 10
11.1226923427
 20
8.6630140502
 11
10.7526923427
 21
8.6630140502
  0
LINE
  5
23E
100
AcDbEntity
  8
0
100
AcDbLine
 62
7
  6
CONTINUOUS
 10
10.7856843915
 20
8.7862939182
 11
10.7611277785
 21
8.7862939182
  0
LINE
  5
23F
100
AcDbEntity
  8
0
100
AcDbLine
 62
7
  6
CONTINUOUS
 10
10.7120145466
 20
8.9131697717
 11
10.7120145466
 21
8.9369078341
  0
LINE
  5
240
100
AcDbEntity
  8
0
100
AcDbLine
 62
7
  6
CONTINUOUS
 10
10.7426923427
 20
8.6530140502
 11
10.7426923427
 21
8.4973690812
  0
LINE
  5
241
100
AcDbEntity
  8
0
100
AcDbLine
 62
7
  6
CONTINUOUS
 10
10.7611277785
 20
8.7862939182
 11
10.7611277785
 21
8.9427741352
  0
LINE
  5
242
100
AcDbEntity
  8
0
100
AcDbLine
 62
7
  6
CONTINUOUS
 10
10.7856843915
 20
8.9871124807
 11
10.7856843915
 21
8.7862939182
  0
LINE
  5
243
100
AcDbEntity
  8
0
100
AcDbLine
 62
7
  6
CONTINUOUS
 10
10.8626923427
 20
10.5176093923
 11
10.8626923427
 21
10.0212423967
  0
LINE
  5
244
100
AcDbEntity
  8
0
100
AcDbLine
 62
7
  6
CONTINUOUS
 10
10.8626923427
 20
7.3676093923
 11
10.8626923427
 21
6.8712423967
  0
LINE
  5
245
100
AcDbEntity
  8
0
100
AcDbLine
 62
7
  6
CONTINUOUS
 10
10.8626923427
 20
8.0248759312
 11
10.8626923427
 21
8.5212423966
  0
LINE
  5
246
100
AcDbEntity
  8
0
100
AcDbLine
 62
7
  6
CONTINUOUS
 10
10.8626923427
 20
11.1748759312
 11
10.8626923427
 21
11.6712423966
  0
LINE
  5
247
100
AcDbEntity
  8
0
100
AcDbLine
 62
9
  6
CONTINUOUS
 10
10.8926920952
 20
7.3676176383
 11
10.8926923427
 21
6.8712423967
  0
LINE
  5
248
100
AcDbEntity
  8
0
100
AcDbLine
 62
9
  6
CONTINUOUS
 10
10.8926923427
 20
11.6712423967
 11
10.8926923427
 21
11.1748759342
  0
LINE
  5
249
100
AcDbEntity
  8
0
100
AcDbLine
 62
9
  6
CONTINUOUS
 10
10.8926923427
 20
8.5212423967
 11
10.8926923427
 21
8.0248759342
  0
LINE
  5
24A
100
AcDbEntity
  8
0
100
AcDbLine
 62
9
  6
CONTINUOUS
 10
10.8926920952
 20
10.5176176383
 11
10.8926923427
 21
10.0212423967
  0
LINE
  5
24B
100
AcDbEntity
  8
0
100
AcDbLine
 62
7
  6
CONTINUOUS
 10
10.9475966373
 20
6.3862939182
 11
10.9475966373
 21
6.5862939182
  0
LINE
  5
24C
100
AcDbEntity
  8
0
100
AcDbLine
 62
7
  6
CONTINUOUS
 10
10.9740632126
 20
6.5626922789
 11
10.9740632126
 21
6.5007550421
  0
LINE
  5
24D
100
AcDbEntity
  8
0
100
AcDbLine
 62
7
  6
CONTINUOUS
 10
10.9740632126
 20
6.4771533969
 11
10.9740632126
 21
6.3862939182
  0
LINE
  5
24E
100
AcDbEntity
  8
0
100
AcDbLine
 62
7
  6
CONTINUOUS
 10
10.7698590186
 20
8.9871124807
 11
10.7856843915
 21
8.9871124807
  0
LINE
  5
24F
100
AcDbEntity
  8
0
100
AcDbLine
 62
7
  6
CONTINUOUS
 10
11.6121679436
 20
8.5369776507
 11
11.6313190547
 21
8.5209079605
  0
LINE
  5
250
100
AcDbEntity
  8
0
100
AcDbLine
 62
7
  6
CONTINUOUS
 10
11.6955978157
 20
8.5975124048
 11
11.6764467046
 21
8.613582095
  0
LINE
  5
251
100
AcDbEntity
  8
0
100
AcDbLine
 62
9
  6
CONTINUOUS
 10
10.9826925923
 20
8.0248670848
 11
10.9826923427
 21
8.5212423967
  0
LINE
  5
252
100
AcDbEntity
  8
0
100
AcDbLine
 62
9
  6
CONTINUOUS
 10
10.9826923427
 20
6.8712423967
 11
10.9826923428
 21
7.3676088592
  0
LINE
  5
253
100
AcDbEntity
  8
0
100
AcDbLine
 62
9
  6
CONTINUOUS
 10
10.9826923427
 20
10.0212423967
 11
10.9826923428
 21
10.5176088592
  0
LINE
  5
254
100
AcDbEntity
  8
0
100
AcDbLine
 62
9
  6
CONTINUOUS
 10
10.9826925923
 20
11.1748670848
 11
10.9826923427
 21
11.6712423967
  0
LINE
  5
255
100
AcDbEntity
  8
0
100
AcDbLine
 62
7
  6
CONTINUOUS
 10
11.0126923427
 20
10.5176088621
 11
11.0126923427
 21
10.0212423967
  0
LINE
  5
256
100
AcDbEntity
  8
0
100
AcDbLine
 62
7
  6
CONTINUOUS
 10
11.0126923427
 20
7.3676088621
 11
11.0126923427
 21
6.8712423967
  0
LINE
  5
257
100
AcDbEntity
  8
0
100
AcDbLine
 62
7
  6
CONTINUOUS
 10
11.0126923427
 20
8.024875397
 11
11.0126923427
 21
8.5212423966
  0
LINE
  5
258
100
AcDbEntity
  8
0
100
AcDbLine
 62
7
  6
CONTINUOUS
 10
11.0126923427
 20
11.174875397
 11
11.0126923427
 21
11.6712423966
  0
LINE
  5
259
100
AcDbEntity
  8
0
100
AcDbLine
 62
7
  6
CONTINUOUS
 10
11.0679240534
 20
6.5007550421
 11
11.0679240534
 21
6.4771533969
  0
LINE
  5
25A
100
AcDbEntity
  8
0
100
AcDbLine
 62
7
  6
CONTINUOUS
 10
11.0825216004
 20
6.5862939182
 11
11.0825216004
 21
6.5626922789
  0
LINE
  5
25B
100
AcDbEntity
  8
0
100
AcDbLine
 62
7
  6
CONTINUOUS
 10
11.1326923427
 20
8.6530140502
 11
11.1326923427
 21
8.4973888567
  0
LINE
  5
25C
100
AcDbEntity
  8
0
100
AcDbLine
 62
9
  6
CONTINUOUS
 10
11.033561925
 20
10.5461904717
 11
11.0335619081
 21
10.5461856909
  0
LINE
  5
25D
100
AcDbEntity
  8
0
100
AcDbLine
 62
9
  6
CONTINUOUS
 10
11.033561925
 20
7.3961904717
 11
11.0335619081
 21
7.3961856909
  0
LINE
  5
25E
100
AcDbEntity
  8
0
100
AcDbLine
 62
7
  6
CONTINUOUS
 10
10.2021094732
 20
8.6518984653
 11
10.1825161569
 21
8.6371338424
  0
LINE
  5
25F
100
AcDbEntity
  8
0
100
AcDbLine
 62
7
  6
CONTINUOUS
 10
10.2426976592
 20
8.5572702914
 11
10.263100733
 21
8.5726451104
  0
LINE
  5
260
100
AcDbEntity
  8
0
100
AcDbLine
 62
7
  6
CONTINUOUS
 10
12.0395807841
 20
7.9490132426
 11
12.0307988416
 21
7.9733541621
  0
LINE
  5
261
100
AcDbEntity
  8
0
100
AcDbLine
 62
7
  6
CONTINUOUS
 10
11.6764467046
 20
8.613582095
 11
11.6121679436
 21
8.5369776507
  0
LINE
  5
262
100
AcDbEntity
  8
0
100
AcDbLine
 62
7
  6
CONTINUOUS
 10
11.6313190547
 20
8.5209079605
 11
11.6955978157
 21
8.5975124048
  0
LINE
  5
263
100
AcDbEntity
  8
0
100
AcDbLine
 62
9
  6
CONTINUOUS
 10
10.8626923427
 20
10.0212423967
 11
10.892692219
 21
10.0212423967
  0
LINE
  5
264
100
AcDbEntity
  8
0
100
AcDbLine
 62
9
  6
CONTINUOUS
 10
10.9826923428
 20
10.0212423967
 11
11.0126923427
 21
10.0212423967
  0
LINE
  5
265
100
AcDbEntity
  8
0
100
AcDbLine
 62
7
  6
CONTINUOUS
 10
12.1593088629
 20
7.9628745594
 11
12.1799649516
 21
7.885784987
  0
LINE
  5
266
100
AcDbEntity
  8
0
100
AcDbLine
 62
7
  6
CONTINUOUS
 10
12.2026306099
 20
7.8918582318
 11
12.1768899472
 21
7.987923693
  0
LINE
  5
267
100
AcDbEntity
  8
0
100
AcDbLine
 62
7
  6
CONTINUOUS
 10
12.0726478612
 20
7.9800479476
 11
12.0757160832
 21
7.957000815
  0
LINE
  5
268
100
AcDbEntity
  8
0
100
AcDbLine
 62
7
  6
CONTINUOUS
 10
12.0115807432
 20
7.6028750349
 11
12.0094018496
 21
7.5779701674
  0
LINE
  5
269
100
AcDbEntity
  8
0
100
AcDbLine
 62
7
  6
CONTINUOUS
 10
12.1090213194
 20
7.5692545932
 11
12.111200213
 21
7.5941594606
  0
LINE
  5
26A
100
AcDbEntity
  8
0
100
AcDbLine
 62
7
  6
CONTINUOUS
 10
9.9305701062
 20
7.190817281
 11
9.9101304883
 21
7.1790164621
  0
LINE
  5
26B
100
AcDbEntity
  8
0
100
AcDbLine
 62
9
  6
CONTINUOUS
 10
11.0126923427
 20
10.5176088622
 11
10.9826923428
 21
10.5176088622
  0
LINE
  5
26C
100
AcDbEntity
  8
0
100
AcDbLine
 62
9
  6
CONTINUOUS
 10
10.892692219
 20
10.5176088622
 11
10.8626923427
 21
10.5176088622
  0
LINE
  5
26D
100
AcDbEntity
  8
0
100
AcDbLine
 62
7
  6
CONTINUOUS
 10
10.0265455529
 20
7.024582931
 11
9.8526315762
 21
6.9241736498
  0
LINE
  5
26E
100
AcDbEntity
  8
0
100
AcDbLine
 62
7
  6
CONTINUOUS
 10
9.9033080162
 20
6.9250761719
 11
10.0388238593
 21
7.0033162804
  0
LINE
  5
26F
100
AcDbEntity
  8
0
100
AcDbLine
 62
7
  6
CONTINUOUS
 10
9.9329449979
 20
6.8854760159
 11
9.953502763
 21
6.8973450471
  0
LINE
  5
270
100
AcDbEntity
  8
0
100
AcDbLine
 62
7
  6
CONTINUOUS
 10
11.839005939
 20
6.9934404504
 11
11.8520072413
 21
7.0158138501
  0
LINE
  5
271
100
AcDbEntity
  8
0
100
AcDbLine
 62
7
  6
CONTINUOUS
 10
11.8812409496
 20
7.1488986374
 11
11.866764601
 21
7.1282242691
  0
LINE
  5
272
100
AcDbEntity
  8
0
100
AcDbLine
 62
9
  6
CONTINUOUS
 10
10.8626923427
 20
11.1748759312
 11
10.8926923427
 21
11.1748759312
  0
LINE
  5
273
100
AcDbEntity
  8
0
100
AcDbLine
 62
9
  6
CONTINUOUS
 10
10.9826924675
 20
11.1748759312
 11
11.0126923427
 21
11.1748759312
  0
LINE
  5
274
100
AcDbEntity
  8
0
100
AcDbLine
 62
7
  6
CONTINUOUS
 10
12.0396560742
 20
7.0721168906
 11
11.9834721916
 21
6.9918779906
  0
LINE
  5
275
100
AcDbEntity
  8
0
100
AcDbLine
 62
7
  6
CONTINUOUS
 10
11.9265840493
 20
6.9106333036
 11
11.8808074886
 21
6.8452575996
  0
LINE
  5
276
100
AcDbEntity
  8
0
100
AcDbLine
 62
7
  6
CONTINUOUS
 10
11.9000290684
 20
6.8317985045
 11
11.957073702
 21
6.9132666844
  0
LINE
  5
277
100
AcDbEntity
  8
0
100
AcDbLine
 62
7
  6
CONTINUOUS
 10
11.9847296429
 20
6.9525256148
 11
12.0589894053
 21
7.0585795464
  0
LINE
  5
278
100
AcDbEntity
  8
0
100
AcDbLine
 62
7
  6
CONTINUOUS
 10
11.8840350098
 20
6.9880583235
 11
11.8683520969
 21
6.9708935179
  0
LINE
  5
279
100
AcDbEntity
  8
0
100
AcDbLine
 62
9
  6
CONTINUOUS
 10
11.0126923427
 20
11.6712423967
 11
10.9826924675
 21
11.6712423967
  0
LINE
  5
27A
100
AcDbEntity
  8
0
100
AcDbLine
 62
9
  6
CONTINUOUS
 10
10.8926923427
 20
11.6712423967
 11
10.8626923427
 21
11.6712423967
  0
ARC
  5
27B
100
AcDbEntity
  8
0
100
AcDbCircle
 62
9
  6
CONTINUOUS
 10
10.8326923427
 20
7.3676088622
 40
0.0599999996
100
AcDbArc
 50
0.0083805999
 51
86.8535837669
  0
CIRCLE
  5
27C
100
AcDbEntity
  8
0
100
AcDbCircle
 62
7
  6
CONTINUOUS
 10
10.8646771285
 20
6.5547939182
 40
0.0315
  0
ARC
  5
27D
100
AcDbEntity
  8
0
100
AcDbCircle
 62
7
  6
CONTINUOUS
 10
10.8326923427
 20
7.3676088622
 40
0.0299999996
100
AcDbArc
 50
0.0
 51
72.2813371695
  0
CIRCLE
  5
27E
100
AcDbEntity
  8
0
100
AcDbCircle
 62
7
  6
CONTINUOUS
 10
10.8646771285
 20
6.5547939182
 40
0.015625
  0
ARC
  5
27F
100
AcDbEntity
  8
0
100
AcDbCircle
 62
7
  6
CONTINUOUS
 10
10.9074043667
 20
8.8445585325
 40
0.0657694644
100
AcDbArc
 50
321.1711392409
 51
325.1384734411
  0
ARC
  5
280
100
AcDbEntity
  8
0
100
AcDbCircle
 62
7
  6
CONTINUOUS
 10
10.9184632306
 20
8.9265763595
 40
0.0637106278
100
AcDbArc
 50
139.0196069621
 51
143.0682153517
  0
ARC
  5
281
100
AcDbEntity
  8
0
100
AcDbCircle
 62
9
  6
CONTINUOUS
 10
10.8326923427
 20
8.0248759312
 40
0.0599999996
100
AcDbArc
 50
273.1462862061
 51
0.0000029176
  0
ARC
  5
282
100
AcDbEntity
  8
0
100
AcDbCircle
 62
7
  6
CONTINUOUS
 10
10.915436412
 20
8.9292611927
 40
0.0596648785
100
AcDbArc
 50
129.440885946
 51
139.0598260791
  0
ARC
  5
283
100
AcDbEntity
  8
0
100
AcDbCircle
 62
7
  6
CONTINUOUS
 10
10.8326923427
 20
8.0248759312
 40
0.0299999996
100
AcDbArc
 50
287.7189318734
 51
360.0
  0
ARC
  5
284
100
AcDbEntity
  8
0
100
AcDbCircle
 62
7
  6
CONTINUOUS
 10
10.7526923427
 20
8.6530140502
 40
0.01
100
AcDbArc
 50
90.0
 51
180.0
  0
ARC
  5
285
100
AcDbEntity
  8
0
100
AcDbCircle
 62
7
  6
CONTINUOUS
 10
10.9376923427
 20
7.6947463337
 40
0.8366141732
100
AcDbArc
 50
275.1202032315
 51
76.4801545851
  0
ARC
  5
286
100
AcDbEntity
  8
0
100
AcDbCircle
 62
7
  6
CONTINUOUS
 10
10.9376923427
 20
7.6947463337
 40
0.8366141732
100
AcDbArc
 50
103.5216502404
 51
264.8830662358
  0
ARC
  5
287
100
AcDbEntity
  8
0
100
AcDbCircle
 62
7
  6
CONTINUOUS
 10
10.9376923427
 20
7.6962423967
 40
0.8267716535
100
AcDbArc
 50
275.2070862548
 51
84.7923372886
  0
ARC
  5
288
100
AcDbEntity
  8
0
100
AcDbCircle
 62
7
  6
CONTINUOUS
 10
10.9376923427
 20
7.6962423967
 40
0.8267716535
100
AcDbArc
 50
95.2070862547
 51
264.7923372885
  0
ARC
  5
289
100
AcDbEntity
  8
0
100
AcDbCircle
 62
7
  6
CONTINUOUS
 10
10.9376923427
 20
7.6962423967
 40
0.655
100
AcDbArc
 50
96.5990715423
 51
263.4054425296
  0
ARC
  5
28A
100
AcDbEntity
  8
0
100
AcDbCircle
 62
7
  6
CONTINUOUS
 10
10.9376923427
 20
7.6962423967
 40
0.655
100
AcDbArc
 50
276.5990715423
 51
83.4054425296
  0
ARC
  5
28B
100
AcDbEntity
  8
0
100
AcDbCircle
 62
7
  6
CONTINUOUS
 10
10.9376923427
 20
7.6962423967
 40
0.315
100
AcDbArc
 50
107.7189318734
 51
252.2810425034
  0
ARC
  5
28C
100
AcDbEntity
  8
0
100
AcDbCircle
 62
7
  6
CONTINUOUS
 10
10.9376923427
 20
7.6962423967
 40
0.315
100
AcDbArc
 50
287.718931873
 51
72.2810455637
  0
ARC
  5
28D
100
AcDbEntity
  8
0
100
AcDbCircle
 62
9
  6
CONTINUOUS
 10
10.9376923427
 20
7.6962423967
 40
0.285
100
AcDbArc
 50
291.6182762811
 51
68.3817234177
  0
ARC
  5
28E
100
AcDbEntity
  8
0
100
AcDbCircle
 62
9
  6
CONTINUOUS
 10
10.9376923427
 20
7.6962423967
 40
0.285
100
AcDbArc
 50
111.6182770353
 51
248.3817236064
  0
ARC
  5
28F
100
AcDbEntity
  8
0
100
AcDbCircle
 62
7
  6
CONTINUOUS
 10
10.9376923427
 20
6.8712423967
 40
0.075
100
AcDbArc
 50
180.0
 51
360.0
  0
ARC
  5
290
100
AcDbEntity
  8
0
100
AcDbCircle
 62
9
  6
CONTINUOUS
 10
11.0426923427
 20
7.3676088622
 40
0.0599999996
100
AcDbArc
 50
93.1464452803
 51
180.0000028371
  0
ARC
  5
291
100
AcDbEntity
  8
0
100
AcDbCircle
 62
9
  6
CONTINUOUS
 10
10.9376923427
 20
6.8712423967
 40
0.045
100
AcDbArc
 50
180.0
 51
360.0
  0
ARC
  5
292
100
AcDbEntity
  8
0
100
AcDbCircle
 62
7
  6
CONTINUOUS
 10
11.0426923427
 20
7.3676088622
 40
0.0299999996
100
AcDbArc
 50
107.7189318734
 51
180.0000000354
  0
ARC
  5
293
100
AcDbEntity
  8
0
100
AcDbCircle
 62
7
  6
CONTINUOUS
 10
10.9376923427
 20
8.5212423967
 40
0.075
100
AcDbArc
 50
0.0
 51
180.0
  0
ARC
  5
294
100
AcDbEntity
  8
0
100
AcDbCircle
 62
7
  6
CONTINUOUS
 10
11.0627930419
 20
8.8445586223
 40
0.0657696269
100
AcDbArc
 50
321.1711589706
 51
325.1384751591
  0
ARC
  5
295
100
AcDbEntity
  8
0
100
AcDbCircle
 62
7
  6
CONTINUOUS
 10
11.0738521015
 20
8.9265763285
 40
0.0637106886
100
AcDbArc
 50
139.0196284783
 51
143.0682272883
  0
ARC
  5
296
100
AcDbEntity
  8
0
100
AcDbCircle
 62
9
  6
CONTINUOUS
 10
11.0426923427
 20
8.0248759312
 40
0.0599999996
100
AcDbArc
 50
180.0084476868
 51
266.8536062755
  0
ARC
  5
297
100
AcDbEntity
  8
0
100
AcDbCircle
 62
7
  6
CONTINUOUS
 10
11.0708252429
 20
8.9292611957
 40
0.0596648869
100
AcDbArc
 50
129.4409045366
 51
139.0598485257
  0
ARC
  5
298
100
AcDbEntity
  8
0
100
AcDbCircle
 62
9
  6
CONTINUOUS
 10
10.9376923427
 20
8.5212423967
 40
0.045
100
AcDbArc
 50
0.0
 51
180.0
  0
ARC
  5
299
100
AcDbEntity
  8
0
100
AcDbCircle
 62
7
  6
CONTINUOUS
 10
11.0426923427
 20
8.0248759312
 40
0.0299999996
100
AcDbArc
 50
180.0
 51
252.281305036
  0
ARC
  5
29A
100
AcDbEntity
  8
0
100
AcDbCircle
 62
7
  6
CONTINUOUS
 10
11.1226923427
 20
8.6530140502
 40
0.01
100
AcDbArc
 50
0.0
 51
90.0
  0
ARC
  5
29B
100
AcDbEntity
  8
0
100
AcDbCircle
 62
9
  6
CONTINUOUS
 10
10.8326923427
 20
11.1748759312
 40
0.0599999996
100
AcDbArc
 50
273.1462862061
 51
0.0000029176
  0
ARC
  5
29C
100
AcDbEntity
  8
0
100
AcDbCircle
 62
9
  6
CONTINUOUS
 10
10.8326923427
 20
10.5176088622
 40
0.0599999996
100
AcDbArc
 50
0.0083805999
 51
86.8535837669
  0
ARC
  5
29D
100
AcDbEntity
  8
0
100
AcDbCircle
 62
7
  6
CONTINUOUS
 10
10.8326923427
 20
11.1748759312
 40
0.0299999996
100
AcDbArc
 50
287.7189318734
 51
360.0
  0
ARC
  5
29E
100
AcDbEntity
  8
0
100
AcDbCircle
 62
7
  6
CONTINUOUS
 10
10.8326923427
 20
10.5176088622
 40
0.0299999996
100
AcDbArc
 50
0.0
 51
72.2813371695
  0
CIRCLE
  5
29F
100
AcDbEntity
  8
0
100
AcDbCircle
 62
7
  6
CONTINUOUS
 10
10.9376923427
 20
9.2712423967
 40
3.545
  0
CIRCLE
  5
2A0
100
AcDbEntity
  8
0
100
AcDbCircle
 62
9
  6
CONTINUOUS
 10
10.9376923427
 20
9.2712423967
 40
3.495
  0
ARC
  5
2A1
100
AcDbEntity
  8
0
100
AcDbCircle
 62
7
  6
CONTINUOUS
 10
10.9376923427
 20
10.0212423967
 40
0.075
100
AcDbArc
 50
180.0
 51
360.0
  0
ARC
  5
2A2
100
AcDbEntity
  8
0
100
AcDbCircle
 62
9
  6
CONTINUOUS
 10
10.9376923427
 20
10.0212423967
 40
0.045
100
AcDbArc
 50
180.0
 51
360.0
  0
ARC
  5
2A3
100
AcDbEntity
  8
0
100
AcDbCircle
 62
7
  6
CONTINUOUS
 10
10.9376923427
 20
10.8462423967
 40
0.82677
100
AcDbArc
 50
95.1988059574
 51
264.8003773727
  0
ARC
  5
2A4
100
AcDbEntity
  8
0
100
AcDbCircle
 62
7
  6
CONTINUOUS
 10
10.9376923427
 20
10.8462423967
 40
0.82677
100
AcDbArc
 50
275.1988059576
 51
84.8003773728
  0
ARC
  5
2A5
100
AcDbEntity
  8
0
100
AcDbCircle
 62
7
  6
CONTINUOUS
 10
10.9376923427
 20
10.8462423967
 40
0.671
100
AcDbArc
 50
96.4313185427
 51
263.5688572879
  0
ARC
  5
2A6
100
AcDbEntity
  8
0
100
AcDbCircle
 62
7
  6
CONTINUOUS
 10
10.9376923427
 20
10.8462423967
 40
0.671
100
AcDbArc
 50
276.4313185427
 51
83.5688572879
  0
ARC
  5
2A7
100
AcDbEntity
  8
0
100
AcDbCircle
 62
7
  6
CONTINUOUS
 10
10.9376923427
 20
10.8462423967
 40
0.6475
100
AcDbArc
 50
96.6620311051
 51
263.3381340712
  0
ARC
  5
2A8
100
AcDbEntity
  8
0
100
AcDbCircle
 62
7
  6
CONTINUOUS
 10
10.9376923427
 20
10.8462423967
 40
0.6475
100
AcDbArc
 50
276.6620311051
 51
83.3381340712
  0
ARC
  5
2A9
100
AcDbEntity
  8
0
100
AcDbCircle
 62
7
  6
CONTINUOUS
 10
10.9376923427
 20
10.8462423967
 40
0.315
100
AcDbArc
 50
107.7189318734
 51
252.2810425034
  0
ARC
  5
2AA
100
AcDbEntity
  8
0
100
AcDbCircle
 62
7
  6
CONTINUOUS
 10
10.9376923427
 20
10.8462423967
 40
0.315
100
AcDbArc
 50
287.718931873
 51
72.2810455637
  0
ARC
  5
2AB
100
AcDbEntity
  8
0
100
AcDbCircle
 62
9
  6
CONTINUOUS
 10
10.9376923427
 20
10.8462423967
 40
0.285
100
AcDbArc
 50
291.6182762811
 51
68.3817234177
  0
ARC
  5
2AC
100
AcDbEntity
  8
0
100
AcDbCircle
 62
9
  6
CONTINUOUS
 10
10.9376923427
 20
10.8462423967
 40
0.285
100
AcDbArc
 50
111.6182770353
 51
248.3817236064
  0
ARC
  5
2AD
100
AcDbEntity
  8
0
100
AcDbCircle
 62
7
  6
CONTINUOUS
 10
10.9376923427
 20
11.6712423967
 40
0.075
100
AcDbArc
 50
0.0
 51
180.0
  0
ARC
  5
2AE
100
AcDbEntity
  8
0
100
AcDbCircle
 62
9
  6
CONTINUOUS
 10
11.0426923427
 20
10.5176088622
 40
0.0599999996
100
AcDbArc
 50
93.1464452803
 51
180.0000028371
  0
ARC
  5
2AF
100
AcDbEntity
  8
0
100
AcDbCircle
 62
9
  6
CONTINUOUS
 10
11.0426923427
 20
11.1748759312
 40
0.0599999996
100
AcDbArc
 50
180.0084476868
 51
266.8536062755
  0
ARC
  5
2B0
100
AcDbEntity
  8
0
100
AcDbCircle
 62
9
  6
CONTINUOUS
 10
10.9376923427
 20
11.6712423967
 40
0.045
100
AcDbArc
 50
0.0
 51
180.0
  0
ARC
  5
2B1
100
AcDbEntity
  8
0
100
AcDbCircle
 62
7
  6
CONTINUOUS
 10
11.0426923427
 20
10.5176088622
 40
0.0299999996
100
AcDbArc
 50
107.7189318734
 51
180.0000000354
  0
ARC
  5
2B2
100
AcDbEntity
  8
0
100
AcDbCircle
 62
7
  6
CONTINUOUS
 10
11.0426923427
 20
11.1748759312
 40
0.0299999996
100
AcDbArc
 50
180.0
 51
252.281305036
  0
ARC
  5
2B3
100
AcDbEntity
  8
0
100
AcDbCircle
 62
7
  6
CONTINUOUS
 10
11.6506832503
 20
6.8830057331
 40
0.3284048964
100
AcDbArc
 50
25.7192428241
 51
38.8502571724
  0
ARC
  5
2B4
100
AcDbEntity
  8
0
100
AcDbCircle
 62
7
  6
CONTINUOUS
 10
12.1223996461
 20
8.085407965
 40
0.0655759855
100
AcDbArc
 50
215.5321661967
 51
218.4432371055
  0
ARC
  5
2B5
100
AcDbEntity
  8
0
100
AcDbCircle
 62
7
  6
CONTINUOUS
 10
12.0992252114
 20
8.0922064781
 40
0.0505982021
100
AcDbArc
 50
42.9741330775
 51
58.4997467241
  0
ARC
  5
2B6
100
AcDbEntity
  8
0
100
AcDbCircle
 62
7
  6
CONTINUOUS
 10
12.0210920819
 20
8.0451510804
 40
0.0471075078
100
AcDbArc
 50
320.669583042
 51
333.8832177256
  0
LINE
  5
2B7
100
AcDbEntity
  8
0
100
AcDbLine
 62
7
  6
CONTINUOUS
 10
11.0426923571
 20
10.5812895866
 11
11.0393990488
 21
10.577518412
  0
SPLINE
  5
2B8
100
AcDbEntity
  8
0
100
AcDbSpline
 62
7
  6
CONTINUOUS
 70
0
 71
3
 72
36
 73
32
 74
0
 42
0.0000001
 43
0.0000001
 44
0.0000000001
 40
0.0
 40
0.0
 40
0.0
 40
0.0
 40
0.0473935216
 40
0.0949601003
 40
0.1424337483
 40
0.1894944117
 40
0.2361680566
 40
0.2824173221
 40
0.3732049503
 40
0.4609620366
 40
0.5448134908
 40
0.6239022697
 40
0.6973902152
 40
0.7644778941
 40
0.824417485
 40
0.8514894152
 40
0.8765122618
 40
0.8994075439
 40
0.920105497
 40
0.9385364416
 40
0.9546304865
 40
0.9683185938
 40
0.9795607882
 40
0.9842620886
 40
0.9883490525
 40
0.9918208406
 40
0.9946767578
 40
0.9969165454
 40
0.9985412279
 40
0.9995565232
 40
1.0
 40
1.0
 40
1.0
 40
1.0
 10
10.8359856061
 20
10.5775184137
 30
0.0
 10
10.8363214817
 20
10.5771326382
 30
0.0
 10
10.8369356664
 20
10.5763072813
 30
0.0
 10
10.8376983562
 20
10.5749696656
 30
0.0
 10
10.8383345134
 20
10.5735724175
 30
0.0
 10
10.8388704338
 20
10.5721447687
 30
0.0
 10
10.8393231751
 20
10.5707028094
 30
0.0
 10
10.8398436629
 20
10.5687893468
 30
0.0
 10
10.840385813
 20
10.5664233233
 30
0.0
 10
10.8408777515
 20
10.5636333479
 30
0.0
 10
10.8412317629
 20
10.560950273
 30
0.0
 10
10.8414850352
 20
10.5584108595
 30
0.0
 10
10.8416599008
 20
10.5560463227
 30
0.0
 10
10.8417711222
 20
10.5538849346
 30
0.0
 10
10.8418249109
 20
10.5522225695
 30
0.0
 10
10.8418487131
 20
10.5510136441
 30
0.0
 10
10.8418588575
 20
10.5502043578
 30
0.0
 10
10.8418631629
 20
10.5494638137
 30
0.0
 10
10.8418624221
 20
10.5487944017
 30
0.0
 10
10.8418574988
 20
10.548198414
 30
0.0
 10
10.8418493114
 20
10.5476781234
 30
0.0
 10
10.8418385673
 20
10.5472354889
 30
0.0
 10
10.8418281423
 20
10.5469158438
 30
0.0
 10
10.8418205128
 20
10.5466998108
 30
0.0
 10
10.8418158815
 20
10.5465675393
 30
0.0
 10
10.8418123071
 20
10.546455293
 30
0.0
 10
10.8418100637
 20
10.5463625754
 30
0.0
 10
10.8418094958
 20
10.54629076
 30
0.0
 10
10.8418106327
 20
10.5462364298
 30
0.0
 10
10.8418138463
 20
10.5462063712
 30
0.0
 10
10.8418179498
 20
10.5461872332
 30
0.0
 10
10.841822509
 20
10.5461857766
 30
0.0
  0
SPLINE
  5
2B9
100
AcDbEntity
  8
0
100
AcDbSpline
 62
9
  6
CONTINUOUS
 70
0
 71
3
 72
25
 73
21
 74
0
 42
0.0000001
 43
0.0000001
 44
0.0000000001
 40
0.0
 40
0.0
 40
0.0
 40
0.0
 40
0.0012709323
 40
0.0028505481
 40
0.0050539459
 40
0.0113151369
 40
0.0200206081
 40
0.0311364697
 40
0.0446288393
 40
0.060463842
 40
0.0786076107
 40
0.121621095
 40
0.1730741016
 40
0.232307117
 40
0.2986613749
 40
0.3714637088
 40
0.4499808173
 40
0.6211697037
 40
0.8063495516
 40
1.0
 40
1.0
 40
1.0
 40
1.0
 10
10.8418228214
 20
11.1462981951
 30
0.0
 10
10.8418204293
 20
11.146283013
 30
0.0
 10
10.8418115824
 20
11.1462496182
 30
0.0
 10
10.8417991266
 20
11.1461898025
 30
0.0
 10
10.8417724413
 20
11.1460712907
 30
0.0
 10
10.8417276808
 20
11.1458685446
 30
0.0
 10
10.8416587812
 20
11.1455607397
 30
0.0
 10
10.841570641
 20
11.1451676381
 30
0.0
 10
10.8414630765
 20
11.1446905309
 30
0.0
 10
10.8413362868
 20
11.1441306374
 30
0.0
 10
10.8411297161
 20
11.1432227717
 30
0.0
 10
10.840825342
 20
11.1418954213
 30
0.0
 10
10.8404041546
 20
11.1400850743
 30
0.0
 10
10.8399109889
 20
11.1380016881
 30
0.0
 10
10.8393480253
 20
11.1356695328
 30
0.0
 10
10.8387176923
 20
11.1331137674
 30
0.0
 10
10.8377634431
 20
11.1293321894
 30
0.0
 10
10.8364307133
 20
11.1242446004
 30
0.0
 10
10.8346555546
 20
11.1178342383
 30
0.0
 10
10.8333686063
 20
11.1134372812
 30
0.0
 10
10.8326925253
 20
11.1111951747
 30
0.0
  0
SPLINE
  5
2BA
100
AcDbEntity
  8
0
100
AcDbSpline
 62
9
  6
CONTINUOUS
 70
0
 71
3
 72
25
 73
21
 74
0
 42
0.0000001
 43
0.0000001
 44
0.0000000001
 40
0.0
 40
0.0
 40
0.0
 40
0.0
 40
0.1936643822
 40
0.3788563568
 40
0.5500550194
 40
0.6285751534
 40
0.7013786076
 40
0.7677316589
 40
0.8269611312
 40
0.8784083799
 40
0.9214140128
 40
0.9395531238
 40
0.9553832652
 40
0.9688709509
 40
0.9799826871
 40
0.9886849723
 40
0.994944298
 40
0.9971473775
 40
0.9987271482
 40
1.0
 40
1.0
 40
1.0
 40
1.0
 10
10.8326925491
 20
10.5812896219
 30
0.0
 10
10.8333687049
 20
10.5790473556
 30
0.0
 10
10.8346557441
 20
10.5746500837
 30
0.0
 10
10.836430963
 20
10.5682392706
 30
0.0
 10
10.8377637542
 20
10.563151372
 30
0.0
 10
10.8387180426
 20
10.5593696197
 30
0.0
 10
10.8393483844
 20
10.5568138128
 30
0.0
 10
10.8399113364
 20
10.5544816934
 30
0.0
 10
10.8404044705
 20
10.5523984245
 30
0.0
 10
10.8408256082
 20
10.5505882739
 30
0.0
 10
10.8411299309
 20
10.5492611348
 30
0.0
 10
10.8413364549
 20
10.5483534714
 30
0.0
 10
10.8414632071
 20
10.547793744
 30
0.0
 10
10.8415707355
 20
10.5473167968
 30
0.0
 10
10.8416588445
 20
10.5469238357
 30
0.0
 10
10.8417277181
 20
10.5466161379
 30
0.0
 10
10.841772465
 20
10.5464134547
 30
0.0
 10
10.8417991399
 20
10.5462949655
 30
0.0
 10
10.8418116027
 20
10.5462351294
 30
0.0
 10
10.841820446
 20
10.5462017081
 30
0.0
 10
10.8418228431
 20
10.5461865032
 30
0.0
  0
SPLINE
  5
2BB
100
AcDbEntity
  8
0
100
AcDbSpline
 62
7
  6
CONTINUOUS
 70
0
 71
3
 72
36
 73
32
 74
0
 42
0.0000001
 43
0.0000001
 44
0.0000000001
 40
0.0
 40
0.0
 40
0.0
 40
0.0
 40
0.0004378919
 40
0.0014501435
 40
0.0030726274
 40
0.0053106782
 40
0.0081651906
 40
0.0116358568
 40
0.0157219666
 40
0.0204226845
 40
0.0316645956
 40
0.0453537958
 40
0.0614503197
 40
0.0798845885
 40
0.1005860704
 40
0.1234843908
 40
0.1485090694
 40
0.1755814822
 40
0.2355197399
 40
0.3026064321
 40
0.3760955349
 40
0.4551854827
 40
0.5390371054
 40
0.6267941166
 40
0.7175817291
 40
0.7638311735
 40
0.8105050936
 40
0.8575659933
 40
0.9050396432
 40
0.9526061887
 40
1.0
 40
1.0
 40
1.0
 40
1.0
 10
10.8418227774
 20
11.1462991025
 30
0.0
 10
10.8418182756
 20
11.1462976641
 30
0.0
 10
10.8418144977
 20
11.1462784741
 30
0.0
 10
10.8418113887
 20
11.1462486238
 30
0.0
 10
10.8418105186
 20
11.1461943038
 30
0.0
 10
10.8418112587
 20
11.1461225758
 30
0.0
 10
10.8418136902
 20
11.1460298981
 30
0.0
 10
10.8418174149
 20
11.1459176971
 30
0.0
 10
10.8418221709
 20
11.1457854561
 30
0.0
 10
10.841829925
 20
11.1455694464
 30
0.0
 10
10.8418403866
 20
11.1452497989
 30
0.0
 10
10.8418509672
 20
11.1448071239
 30
0.0
 10
10.8418588138
 20
11.1442867528
 30
0.0
 10
10.8418633137
 20
11.1436906603
 30
0.0
 10
10.8418636271
 20
11.1430211405
 30
0.0
 10
10.8418589727
 20
11.1422805074
 30
0.0
 10
10.8418486544
 20
11.1414711648
 30
0.0
 10
10.8418248749
 20
11.1402622275
 30
0.0
 10
10.8417713897
 20
11.1385998708
 30
0.0
 10
10.841660276
 20
11.1364384838
 30
0.0
 10
10.8414851329
 20
11.1340739483
 30
0.0
 10
10.8412315776
 20
11.131534534
 30
0.0
 10
10.8408774611
 20
11.1288514587
 30
0.0
 10
10.8403856708
 20
11.1260614565
 30
0.0
 10
10.8398437366
 20
11.1236953782
 30
0.0
 10
10.8393233096
 20
11.1217818904
 30
0.0
 10
10.8388705525
 20
11.1203399254
 30
0.0
 10
10.8383345693
 20
11.1189122909
 30
0.0
 10
10.8376983009
 20
11.1175150878
 30
0.0
 10
10.8369355058
 20
11.116177528
 30
0.0
 10
10.836321321
 20
11.1153521742
 30
0.0
 10
10.8359854701
 20
11.1149663721
 30
0.0
  0
SPLINE
  5
2BC
100
AcDbEntity
  8
0
100
AcDbSpline
 62
7
  6
CONTINUOUS
 70
0
 71
3
 72
33
 73
29
 74
0
 42
0.0000001
 43
0.0000001
 44
0.0000000001
 40
0.0
 40
0.0
 40
0.0
 40
0.0
 40
0.0008244363
 40
0.0022354071
 40
0.0042459109
 40
0.0068586417
 40
0.0100737662
 40
0.0138906051
 40
0.0233253774
 40
0.0351544438
 40
0.0493684256
 40
0.0659272332
 40
0.0847612972
 40
0.1057999553
 40
0.128972644
 40
0.1814302755
 40
0.241491017
 40
0.3084805314
 40
0.381673748
 40
0.4602921699
 40
0.5435212479
 40
0.6305304927
 40
0.7204700906
 40
0.8124549136
 40
0.8590391268
 40
0.9060257476
 40
0.9530979451
 40
1.0
 40
1.0
 40
1.0
 40
1.0
 10
11.033561925
 20
10.5461904717
 30
0.0
 10
11.0335656151
 20
10.5461985664
 30
0.0
 10
11.0335690242
 20
10.5462229474
 30
0.0
 10
11.0335718932
 20
10.5462684013
 30
0.0
 10
11.0335722859
 20
10.5463336668
 30
0.0
 10
11.0335710351
 20
10.5464181824
 30
0.0
 10
11.0335681281
 20
10.5465222351
 30
0.0
 10
11.033562143
 20
10.5466998085
 30
0.0
 10
11.0335522514
 20
10.546970266
 30
0.0
 10
11.0335401549
 20
10.5473528978
 30
0.0
 10
11.0335298426
 20
10.5478124843
 30
0.0
 10
11.033522819
 20
10.5483477253
 30
0.0
 10
11.0335195469
 20
10.5489566443
 30
0.0
 10
11.033520774
 20
10.5496369382
 30
0.0
 10
11.033529737
 20
10.5506800082
 30
0.0
 10
11.0335565492
 20
10.5521439824
 30
0.0
 10
11.0336224123
 20
10.554079932
 30
0.0
 10
11.0337371919
 20
10.5562377593
 30
0.0
 10
11.0339157141
 20
10.5585921918
 30
0.0
 10
11.0341724565
 20
10.5611156962
 30
0.0
 10
11.0345293837
 20
10.5637777385
 30
0.0
 10
11.0350227359
 20
10.5665427358
 30
0.0
 10
11.0356776715
 20
10.5693705929
 30
0.0
 10
11.036361742
 20
10.5717426089
 30
0.0
 10
11.0370697965
 20
10.5736167613
 30
0.0
 10
11.037702001
 20
10.5749981392
 30
0.0
 10
11.0384585489
 20
10.5763205333
 30
0.0
 10
11.0390667176
 20
10.5771367212
 30
0.0
 10
11.039399049
 20
10.577518412
 30
0.0
  0
SPLINE
  5
2BD
100
AcDbEntity
  8
0
100
AcDbSpline
 62
9
  6
CONTINUOUS
 70
0
 71
3
 72
9
 73
5
 74
0
 42
0.0000001
 43
0.0000001
 44
0.0000000001
 40
0.0
 40
0.0
 40
0.0
 40
0.0
 40
0.304507269
 40
1.0
 40
1.0
 40
1.0
 40
1.0
 10
11.0335630139
 20
10.5461917125
 30
0.0
 10
11.034363172
 20
10.5497852868
 30
0.0
 10
11.0371037658
 20
10.561561196
 30
0.0
 10
11.0402644556
 20
10.5732389893
 30
0.0
 10
11.0426921516
 20
10.5812896178
 30
0.0
  0
SPLINE
  5
2BE
100
AcDbEntity
  8
0
100
AcDbSpline
 62
9
  6
CONTINUOUS
 70
0
 71
3
 72
25
 73
21
 74
0
 42
0.0000001
 43
0.0000001
 44
0.0000000001
 40
0.0
 40
0.0
 40
0.0
 40
0.0
 40
0.1936626655
 40
0.3788529667
 40
0.5500502467
 40
0.6285699547
 40
0.701373255
 40
0.7677264746
 40
0.8269564035
 40
0.8784043429
 40
0.9214108458
 40
0.93955044
 40
0.9553810767
 40
0.9688692514
 40
0.9799814517
 40
0.9886841574
 40
0.9949438415
 40
0.9971470712
 40
0.9987269696
 40
1.0
 40
1.0
 40
1.0
 40
1.0
 10
11.0426921582
 20
11.1111951776
 30
0.0
 10
11.0420160162
 20
11.1134374252
 30
0.0
 10
11.0407289901
 20
11.1178346556
 30
0.0
 10
11.0389537725
 20
11.1242454057
 30
0.0
 10
11.0376209886
 20
11.12933326
 30
0.0
 10
11.0366667064
 20
11.1331149873
 30
0.0
 10
11.0360363664
 20
11.1356707882
 30
0.0
 10
11.0354734136
 20
11.138002912
 30
0.0
 10
11.034980276
 20
11.1400861953
 30
0.0
 10
11.0345591325
 20
11.1418963687
 30
0.0
 10
11.0342548037
 20
11.1432235311
 30
0.0
 10
11.0340482741
 20
11.1441312156
 30
0.0
 10
11.0339215175
 20
11.1446909599
 30
0.0
 10
11.0338139847
 20
11.1451679238
 30
0.0
 10
11.0337258718
 20
11.1455609008
 30
0.0
 10
11.0336569943
 20
11.145868613
 30
0.0
 10
11.0336122453
 20
11.1460713071
 30
0.0
 10
11.0335855678
 20
11.1461898036
 30
0.0
 10
11.0335731052
 20
11.1462496453
 30
0.0
 10
11.0335642585
 20
11.1462830698
 30
0.0
 10
11.0335618627
 20
11.1462982771
 30
0.0
  0
SPLINE
  5
2BF
100
AcDbEntity
  8
0
100
AcDbSpline
 62
7
  6
CONTINUOUS
 70
0
 71
3
 72
36
 73
32
 74
0
 42
0.0000001
 43
0.0000001
 44
0.0000000001
 40
0.0
 40
0.0
 40
0.0
 40
0.0
 40
0.0473935534
 40
0.0949600567
 40
0.1424335593
 40
0.1894941993
 40
0.236167907
 40
0.2824172217
 40
0.3732047933
 40
0.4609618372
 40
0.5448133135
 40
0.6239023123
 40
0.6973905003
 40
0.76447813
 40
0.8244174201
 40
0.8514892068
 40
0.8765119563
 40
0.8994071839
 40
0.9201051195
 40
0.9385360803
 40
0.9546301738
 40
0.9683183582
 40
0.979560624
 40
0.9842619553
 40
0.9883489472
 40
0.9918207603
 40
0.9946766995
 40
0.9969165062
 40
0.998541205
 40
0.9995565138
 40
1.0
 40
1.0
 40
1.0
 40
1.0
 10
11.0393991029
 20
11.1149663784
 30
0.0
 10
11.0390632346
 20
11.1153521611
 30
0.0
 10
11.0384490524
 20
11.1161775183
 30
0.0
 10
11.0376863397
 20
11.1175151195
 30
0.0
 10
11.0370501551
 20
11.1189123538
 30
0.0
 10
11.0365142204
 20
11.1203399976
 30
0.0
 10
11.0360614771
 20
11.1217819587
 30
0.0
 10
11.0355410072
 20
11.1236954286
 30
0.0
 10
11.0349989157
 20
11.1260614672
 30
0.0
 10
11.0345070083
 20
11.1288514483
 30
0.0
 10
11.0341529593
 20
11.1315345219
 30
0.0
 10
11.0338996211
 20
11.1340739359
 30
0.0
 10
11.0337246905
 20
11.1364384744
 30
0.0
 10
11.0336134724
 20
11.1385998638
 30
0.0
 10
11.0335597406
 20
11.1402622269
 30
0.0
 10
11.0335359808
 20
11.1414711481
 30
0.0
 10
11.0335258571
 20
11.1422804322
 30
0.0
 10
11.0335215591
 20
11.143020975
 30
0.0
 10
11.033522298
 20
11.143690387
 30
0.0
 10
11.0335272127
 20
11.1442863757
 30
0.0
 10
11.0335353878
 20
11.1448066683
 30
0.0
 10
11.0335461186
 20
11.1452493056
 30
0.0
 10
11.033556534
 20
11.1455689532
 30
0.0
 10
11.0335641568
 20
11.1457849881
 30
0.0
 10
11.0335687841
 20
11.1459172607
 30
0.0
 10
11.033572355
 20
11.146029508
 30
0.0
 10
11.0335745954
 20
11.1461222265
 30
0.0
 10
11.033575161
 20
11.1461940426
 30
0.0
 10
11.0335740224
 20
11.1462483732
 30
0.0
 10
11.0335708077
 20
11.1462784323
 30
0.0
 10
11.0335667038
 20
11.1462975703
 30
0.0
 10
11.0335621444
 20
11.146299027
 30
0.0
  0
LINE
  5
2C0
100
AcDbEntity
  8
0
100
AcDbLine
 62
7
  6
CONTINUOUS
 10
10.8359856063
 20
10.5775184136
 11
10.8326923281
 21
10.5812895873
  0
LINE
  5
2C1
100
AcDbEntity
  8
0
100
AcDbLine
 62
7
  6
CONTINUOUS
 10
10.8326923255
 20
11.111195204
 11
10.8359854703
 21
11.1149663722
  0
LINE
  5
2C2
100
AcDbEntity
  8
0
100
AcDbLine
 62
7
  6
CONTINUOUS
 10
11.0393991028
 20
11.1149663784
 11
11.0426923581
 21
11.1111952053
  0
LINE
  5
2C3
100
AcDbEntity
  8
0
100
AcDbLine
 62
7
  6
CONTINUOUS
 10
11.0426923571
 20
7.4312895866
 11
11.0393990488
 21
7.427518412
  0
SPLINE
  5
2C4
100
AcDbEntity
  8
0
100
AcDbSpline
 62
7
  6
CONTINUOUS
 70
0
 71
3
 72
36
 73
32
 74
0
 42
0.0000001
 43
0.0000001
 44
0.0000000001
 40
0.0
 40
0.0
 40
0.0
 40
0.0
 40
0.0473935216
 40
0.0949601003
 40
0.1424337483
 40
0.1894944117
 40
0.2361680566
 40
0.2824173221
 40
0.3732049503
 40
0.4609620366
 40
0.5448134908
 40
0.6239022697
 40
0.6973902152
 40
0.7644778941
 40
0.824417485
 40
0.8514894152
 40
0.8765122618
 40
0.8994075439
 40
0.920105497
 40
0.9385364416
 40
0.9546304865
 40
0.9683185938
 40
0.9795607882
 40
0.9842620886
 40
0.9883490525
 40
0.9918208406
 40
0.9946767578
 40
0.9969165454
 40
0.9985412279
 40
0.9995565232
 40
1.0
 40
1.0
 40
1.0
 40
1.0
 10
10.8359856061
 20
7.4275184137
 30
0.0
 10
10.8363214817
 20
7.4271326382
 30
0.0
 10
10.8369356664
 20
7.4263072813
 30
0.0
 10
10.8376983562
 20
7.4249696656
 30
0.0
 10
10.8383345134
 20
7.4235724175
 30
0.0
 10
10.8388704338
 20
7.4221447687
 30
0.0
 10
10.8393231751
 20
7.4207028094
 30
0.0
 10
10.8398436629
 20
7.4187893468
 30
0.0
 10
10.840385813
 20
7.4164233233
 30
0.0
 10
10.8408777515
 20
7.4136333479
 30
0.0
 10
10.8412317629
 20
7.410950273
 30
0.0
 10
10.8414850352
 20
7.4084108595
 30
0.0
 10
10.8416599008
 20
7.4060463227
 30
0.0
 10
10.8417711222
 20
7.4038849346
 30
0.0
 10
10.8418249109
 20
7.4022225695
 30
0.0
 10
10.8418487131
 20
7.4010136441
 30
0.0
 10
10.8418588575
 20
7.4002043578
 30
0.0
 10
10.8418631629
 20
7.3994638137
 30
0.0
 10
10.8418624221
 20
7.3987944017
 30
0.0
 10
10.8418574988
 20
7.398198414
 30
0.0
 10
10.8418493114
 20
7.3976781234
 30
0.0
 10
10.8418385673
 20
7.3972354889
 30
0.0
 10
10.8418281423
 20
7.3969158438
 30
0.0
 10
10.8418205128
 20
7.3966998108
 30
0.0
 10
10.8418158815
 20
7.3965675393
 30
0.0
 10
10.8418123071
 20
7.396455293
 30
0.0
 10
10.8418100637
 20
7.3963625754
 30
0.0
 10
10.8418094958
 20
7.39629076
 30
0.0
 10
10.8418106327
 20
7.3962364298
 30
0.0
 10
10.8418138463
 20
7.3962063712
 30
0.0
 10
10.8418179498
 20
7.3961872332
 30
0.0
 10
10.841822509
 20
7.3961857766
 30
0.0
  0
SPLINE
  5
2C5
100
AcDbEntity
  8
0
100
AcDbSpline
 62
9
  6
CONTINUOUS
 70
0
 71
3
 72
25
 73
21
 74
0
 42
0.0000001
 43
0.0000001
 44
0.0000000001
 40
0.0
 40
0.0
 40
0.0
 40
0.0
 40
0.0012709323
 40
0.0028505481
 40
0.0050539459
 40
0.0113151369
 40
0.0200206081
 40
0.0311364697
 40
0.0446288393
 40
0.060463842
 40
0.0786076107
 40
0.121621095
 40
0.1730741016
 40
0.232307117
 40
0.2986613749
 40
0.3714637088
 40
0.4499808173
 40
0.6211697037
 40
0.8063495516
 40
1.0
 40
1.0
 40
1.0
 40
1.0
 10
10.8418228214
 20
7.9962981951
 30
0.0
 10
10.8418204293
 20
7.996283013
 30
0.0
 10
10.8418115824
 20
7.9962496182
 30
0.0
 10
10.8417991266
 20
7.9961898025
 30
0.0
 10
10.8417724413
 20
7.9960712907
 30
0.0
 10
10.8417276808
 20
7.9958685446
 30
0.0
 10
10.8416587812
 20
7.9955607397
 30
0.0
 10
10.841570641
 20
7.9951676381
 30
0.0
 10
10.8414630765
 20
7.9946905309
 30
0.0
 10
10.8413362868
 20
7.9941306374
 30
0.0
 10
10.8411297161
 20
7.9932227717
 30
0.0
 10
10.840825342
 20
7.9918954213
 30
0.0
 10
10.8404041546
 20
7.9900850743
 30
0.0
 10
10.8399109889
 20
7.9880016881
 30
0.0
 10
10.8393480253
 20
7.9856695328
 30
0.0
 10
10.8387176923
 20
7.9831137674
 30
0.0
 10
10.8377634431
 20
7.9793321894
 30
0.0
 10
10.8364307133
 20
7.9742446004
 30
0.0
 10
10.8346555546
 20
7.9678342383
 30
0.0
 10
10.8333686063
 20
7.9634372812
 30
0.0
 10
10.8326925253
 20
7.9611951747
 30
0.0
  0
SPLINE
  5
2C6
100
AcDbEntity
  8
0
100
AcDbSpline
 62
9
  6
CONTINUOUS
 70
0
 71
3
 72
25
 73
21
 74
0
 42
0.0000001
 43
0.0000001
 44
0.0000000001
 40
0.0
 40
0.0
 40
0.0
 40
0.0
 40
0.1936643822
 40
0.3788563568
 40
0.5500550194
 40
0.6285751534
 40
0.7013786076
 40
0.7677316589
 40
0.8269611312
 40
0.8784083799
 40
0.9214140128
 40
0.9395531238
 40
0.9553832652
 40
0.9688709509
 40
0.9799826871
 40
0.9886849723
 40
0.994944298
 40
0.9971473775
 40
0.9987271482
 40
1.0
 40
1.0
 40
1.0
 40
1.0
 10
10.8326925491
 20
7.4312896219
 30
0.0
 10
10.8333687049
 20
7.4290473556
 30
0.0
 10
10.8346557441
 20
7.4246500837
 30
0.0
 10
10.836430963
 20
7.4182392706
 30
0.0
 10
10.8377637542
 20
7.413151372
 30
0.0
 10
10.8387180426
 20
7.4093696197
 30
0.0
 10
10.8393483844
 20
7.4068138128
 30
0.0
 10
10.8399113364
 20
7.4044816934
 30
0.0
 10
10.8404044705
 20
7.4023984245
 30
0.0
 10
10.8408256082
 20
7.4005882739
 30
0.0
 10
10.8411299309
 20
7.3992611348
 30
0.0
 10
10.8413364549
 20
7.3983534714
 30
0.0
 10
10.8414632071
 20
7.397793744
 30
0.0
 10
10.8415707355
 20
7.3973167968
 30
0.0
 10
10.8416588445
 20
7.3969238357
 30
0.0
 10
10.8417277181
 20
7.3966161379
 30
0.0
 10
10.841772465
 20
7.3964134547
 30
0.0
 10
10.8417991399
 20
7.3962949655
 30
0.0
 10
10.8418116027
 20
7.3962351294
 30
0.0
 10
10.841820446
 20
7.3962017081
 30
0.0
 10
10.8418228431
 20
7.3961865032
 30
0.0
  0
SPLINE
  5
2C7
100
AcDbEntity
  8
0
100
AcDbSpline
 62
7
  6
CONTINUOUS
 70
0
 71
3
 72
36
 73
32
 74
0
 42
0.0000001
 43
0.0000001
 44
0.0000000001
 40
0.0
 40
0.0
 40
0.0
 40
0.0
 40
0.0004378919
 40
0.0014501435
 40
0.0030726274
 40
0.0053106782
 40
0.0081651906
 40
0.0116358568
 40
0.0157219666
 40
0.0204226845
 40
0.0316645956
 40
0.0453537958
 40
0.0614503197
 40
0.0798845885
 40
0.1005860704
 40
0.1234843908
 40
0.1485090694
 40
0.1755814822
 40
0.2355197399
 40
0.3026064321
 40
0.3760955349
 40
0.4551854827
 40
0.5390371054
 40
0.6267941166
 40
0.7175817291
 40
0.7638311735
 40
0.8105050936
 40
0.8575659933
 40
0.9050396432
 40
0.9526061887
 40
1.0
 40
1.0
 40
1.0
 40
1.0
 10
10.8418227774
 20
7.9962991025
 30
0.0
 10
10.8418182756
 20
7.9962976641
 30
0.0
 10
10.8418144977
 20
7.9962784741
 30
0.0
 10
10.8418113887
 20
7.9962486238
 30
0.0
 10
10.8418105186
 20
7.9961943038
 30
0.0
 10
10.8418112587
 20
7.9961225758
 30
0.0
 10
10.8418136902
 20
7.9960298981
 30
0.0
 10
10.8418174149
 20
7.9959176971
 30
0.0
 10
10.8418221709
 20
7.9957854561
 30
0.0
 10
10.841829925
 20
7.9955694464
 30
0.0
 10
10.8418403866
 20
7.9952497989
 30
0.0
 10
10.8418509672
 20
7.9948071239
 30
0.0
 10
10.8418588138
 20
7.9942867528
 30
0.0
 10
10.8418633137
 20
7.9936906603
 30
0.0
 10
10.8418636271
 20
7.9930211405
 30
0.0
 10
10.8418589727
 20
7.9922805074
 30
0.0
 10
10.8418486544
 20
7.9914711648
 30
0.0
 10
10.8418248749
 20
7.9902622275
 30
0.0
 10
10.8417713897
 20
7.9885998708
 30
0.0
 10
10.841660276
 20
7.9864384838
 30
0.0
 10
10.8414851329
 20
7.9840739483
 30
0.0
 10
10.8412315776
 20
7.981534534
 30
0.0
 10
10.8408774611
 20
7.9788514587
 30
0.0
 10
10.8403856708
 20
7.9760614565
 30
0.0
 10
10.8398437366
 20
7.9736953782
 30
0.0
 10
10.8393233096
 20
7.9717818904
 30
0.0
 10
10.8388705525
 20
7.9703399254
 30
0.0
 10
10.8383345693
 20
7.9689122909
 30
0.0
 10
10.8376983009
 20
7.9675150878
 30
0.0
 10
10.8369355058
 20
7.966177528
 30
0.0
 10
10.836321321
 20
7.9653521742
 30
0.0
 10
10.8359854701
 20
7.9649663721
 30
0.0
  0
SPLINE
  5
2C8
100
AcDbEntity
  8
0
100
AcDbSpline
 62
7
  6
CONTINUOUS
 70
0
 71
3
 72
33
 73
29
 74
0
 42
0.0000001
 43
0.0000001
 44
0.0000000001
 40
0.0
 40
0.0
 40
0.0
 40
0.0
 40
0.0008244363
 40
0.0022354071
 40
0.0042459109
 40
0.0068586417
 40
0.0100737662
 40
0.0138906051
 40
0.0233253774
 40
0.0351544438
 40
0.0493684256
 40
0.0659272332
 40
0.0847612972
 40
0.1057999553
 40
0.128972644
 40
0.1814302755
 40
0.241491017
 40
0.3084805314
 40
0.381673748
 40
0.4602921699
 40
0.5435212479
 40
0.6305304927
 40
0.7204700906
 40
0.8124549136
 40
0.8590391268
 40
0.9060257476
 40
0.9530979451
 40
1.0
 40
1.0
 40
1.0
 40
1.0
 10
11.033561925
 20
7.3961904717
 30
0.0
 10
11.0335656151
 20
7.3961985664
 30
0.0
 10
11.0335690242
 20
7.3962229474
 30
0.0
 10
11.0335718932
 20
7.3962684013
 30
0.0
 10
11.0335722859
 20
7.3963336668
 30
0.0
 10
11.0335710351
 20
7.3964181824
 30
0.0
 10
11.0335681281
 20
7.3965222351
 30
0.0
 10
11.033562143
 20
7.3966998085
 30
0.0
 10
11.0335522514
 20
7.396970266
 30
0.0
 10
11.0335401549
 20
7.3973528978
 30
0.0
 10
11.0335298426
 20
7.3978124843
 30
0.0
 10
11.033522819
 20
7.3983477253
 30
0.0
 10
11.0335195469
 20
7.3989566443
 30
0.0
 10
11.033520774
 20
7.3996369382
 30
0.0
 10
11.033529737
 20
7.4006800082
 30
0.0
 10
11.0335565492
 20
7.4021439824
 30
0.0
 10
11.0336224123
 20
7.404079932
 30
0.0
 10
11.0337371919
 20
7.4062377593
 30
0.0
 10
11.0339157141
 20
7.4085921918
 30
0.0
 10
11.0341724565
 20
7.4111156962
 30
0.0
 10
11.0345293837
 20
7.4137777385
 30
0.0
 10
11.0350227359
 20
7.4165427358
 30
0.0
 10
11.0356776715
 20
7.4193705929
 30
0.0
 10
11.036361742
 20
7.4217426089
 30
0.0
 10
11.0370697965
 20
7.4236167613
 30
0.0
 10
11.037702001
 20
7.4249981392
 30
0.0
 10
11.0384585489
 20
7.4263205333
 30
0.0
 10
11.0390667176
 20
7.4271367212
 30
0.0
 10
11.039399049
 20
7.427518412
 30
0.0
  0
SPLINE
  5
2C9
100
AcDbEntity
  8
0
100
AcDbSpline
 62
9
  6
CONTINUOUS
 70
0
 71
3
 72
9
 73
5
 74
0
 42
0.0000001
 43
0.0000001
 44
0.0000000001
 40
0.0
 40
0.0
 40
0.0
 40
0.0
 40
0.304507269
 40
1.0
 40
1.0
 40
1.0
 40
1.0
 10
11.0335630139
 20
7.3961917125
 30
0.0
 10
11.034363172
 20
7.3997852868
 30
0.0
 10
11.0371037658
 20
7.411561196
 30
0.0
 10
11.0402644556
 20
7.4232389893
 30
0.0
 10
11.0426921516
 20
7.4312896178
 30
0.0
  0
SPLINE
  5
2CA
100
AcDbEntity
  8
0
100
AcDbSpline
 62
9
  6
CONTINUOUS
 70
0
 71
3
 72
25
 73
21
 74
0
 42
0.0000001
 43
0.0000001
 44
0.0000000001
 40
0.0
 40
0.0
 40
0.0
 40
0.0
 40
0.1936626655
 40
0.3788529667
 40
0.5500502467
 40
0.6285699547
 40
0.701373255
 40
0.7677264746
 40
0.8269564035
 40
0.8784043429
 40
0.9214108458
 40
0.93955044
 40
0.9553810767
 40
0.9688692514
 40
0.9799814517
 40
0.9886841574
 40
0.9949438415
 40
0.9971470712
 40
0.9987269696
 40
1.0
 40
1.0
 40
1.0
 40
1.0
 10
11.0426921582
 20
7.9611951776
 30
0.0
 10
11.0420160162
 20
7.9634374252
 30
0.0
 10
11.0407289901
 20
7.9678346556
 30
0.0
 10
11.0389537725
 20
7.9742454057
 30
0.0
 10
11.0376209886
 20
7.97933326
 30
0.0
 10
11.0366667064
 20
7.9831149873
 30
0.0
 10
11.0360363664
 20
7.9856707882
 30
0.0
 10
11.0354734136
 20
7.988002912
 30
0.0
 10
11.034980276
 20
7.9900861953
 30
0.0
 10
11.0345591325
 20
7.9918963687
 30
0.0
 10
11.0342548037
 20
7.9932235311
 30
0.0
 10
11.0340482741
 20
7.9941312156
 30
0.0
 10
11.0339215175
 20
7.9946909599
 30
0.0
 10
11.0338139847
 20
7.9951679238
 30
0.0
 10
11.0337258718
 20
7.9955609008
 30
0.0
 10
11.0336569943
 20
7.995868613
 30
0.0
 10
11.0336122453
 20
7.9960713071
 30
0.0
 10
11.0335855678
 20
7.9961898036
 30
0.0
 10
11.0335731052
 20
7.9962496453
 30
0.0
 10
11.0335642585
 20
7.9962830698
 30
0.0
 10
11.0335618627
 20
7.9962982771
 30
0.0
  0
SPLINE
  5
2CB
100
AcDbEntity
  8
0
100
AcDbSpline
 62
7
  6
CONTINUOUS
 70
0
 71
3
 72
36
 73
32
 74
0
 42
0.0000001
 43
0.0000001
 44
0.0000000001
 40
0.0
 40
0.0
 40
0.0
 40
0.0
 40
0.0473935534
 40
0.0949600567
 40
0.1424335593
 40
0.1894941993
 40
0.236167907
 40
0.2824172217
 40
0.3732047933
 40
0.4609618372
 40
0.5448133135
 40
0.6239023123
 40
0.6973905003
 40
0.76447813
 40
0.8244174201
 40
0.8514892068
 40
0.8765119563
 40
0.8994071839
 40
0.9201051195
 40
0.9385360803
 40
0.9546301738
 40
0.9683183582
 40
0.979560624
 40
0.9842619553
 40
0.9883489472
 40
0.9918207603
 40
0.9946766995
 40
0.9969165062
 40
0.998541205
 40
0.9995565138
 40
1.0
 40
1.0
 40
1.0
 40
1.0
 10
11.0393991029
 20
7.9649663784
 30
0.0
 10
11.0390632346
 20
7.9653521611
 30
0.0
 10
11.0384490524
 20
7.9661775183
 30
0.0
 10
11.0376863397
 20
7.9675151195
 30
0.0
 10
11.0370501551
 20
7.9689123538
 30
0.0
 10
11.0365142204
 20
7.9703399976
 30
0.0
 10
11.0360614771
 20
7.9717819587
 30
0.0
 10
11.0355410072
 20
7.9736954286
 30
0.0
 10
11.0349989157
 20
7.9760614672
 30
0.0
 10
11.0345070083
 20
7.9788514483
 30
0.0
 10
11.0341529593
 20
7.9815345219
 30
0.0
 10
11.0338996211
 20
7.9840739359
 30
0.0
 10
11.0337246905
 20
7.9864384744
 30
0.0
 10
11.0336134724
 20
7.9885998638
 30
0.0
 10
11.0335597406
 20
7.9902622269
 30
0.0
 10
11.0335359808
 20
7.9914711481
 30
0.0
 10
11.0335258571
 20
7.9922804322
 30
0.0
 10
11.0335215591
 20
7.993020975
 30
0.0
 10
11.033522298
 20
7.993690387
 30
0.0
 10
11.0335272127
 20
7.9942863757
 30
0.0
 10
11.0335353878
 20
7.9948066683
 30
0.0
 10
11.0335461186
 20
7.9952493056
 30
0.0
 10
11.033556534
 20
7.9955689532
 30
0.0
 10
11.0335641568
 20
7.9957849881
 30
0.0
 10
11.0335687841
 20
7.9959172607
 30
0.0
 10
11.033572355
 20
7.996029508
 30
0.0
 10
11.0335745954
 20
7.9961222265
 30
0.0
 10
11.033575161
 20
7.9961940426
 30
0.0
 10
11.0335740224
 20
7.9962483732
 30
0.0
 10
11.0335708077
 20
7.9962784323
 30
0.0
 10
11.0335667038
 20
7.9962975703
 30
0.0
 10
11.0335621444
 20
7.996299027
 30
0.0
  0
LINE
  5
2CC
100
AcDbEntity
  8
0
100
AcDbLine
 62
7
  6
CONTINUOUS
 10
10.8359856063
 20
7.4275184136
 11
10.8326923281
 21
7.4312895873
  0
LINE
  5
2CD
100
AcDbEntity
  8
0
100
AcDbLine
 62
7
  6
CONTINUOUS
 10
10.8326923255
 20
7.961195204
 11
10.8359854703
 21
7.9649663722
  0
LINE
  5
2CE
100
AcDbEntity
  8
0
100
AcDbLine
 62
7
  6
CONTINUOUS
 10
11.0393991028
 20
7.9649663784
 11
11.0426923581
 21
7.9611952053
  0
SPLINE
  5
2CF
100
AcDbEntity
  8
0
100
AcDbSpline
 62
7
  6
CONTINUOUS
 70
0
 71
3
 72
8
 73
4
 74
0
 42
0.0000001
 43
0.0000001
 44
0.0000000001
 40
0.0
 40
0.0
 40
0.0
 40
0.0
 40
1.0
 40
1.0
 40
1.0
 40
1.0
 10
9.8193646004
 20
7.1861593769
 30
0.0
 10
9.7910090628
 20
7.1697882996
 30
0.0
 10
9.7694000373
 20
7.1621957686
 30
0.0
 10
9.7545416761
 20
7.1634306611
 30
0.0
  0
SPLINE
  5
2D0
100
AcDbEntity
  8
0
100
AcDbSpline
 62
7
  6
CONTINUOUS
 70
0
 71
3
 72
8
 73
4
 74
0
 42
0.0000001
 43
0.0000001
 44
0.0000000001
 40
0.0
 40
0.0
 40
0.0
 40
0.0
 40
1.0
 40
1.0
 40
1.0
 40
1.0
 10
9.8704639488
 20
7.2288941858
 30
0.0
 10
9.8648320216
 20
7.2168208669
 30
0.0
 10
9.8478382891
 20
7.2025986688
 30
0.0
 10
9.8193646004
 20
7.1861593769
 30
0.0
  0
SPLINE
  5
2D1
100
AcDbEntity
  8
0
100
AcDbSpline
 62
7
  6
CONTINUOUS
 70
0
 71
3
 72
8
 73
4
 74
0
 42
0.0000001
 43
0.0000001
 44
0.0000000001
 40
0.0
 40
0.0
 40
0.0
 40
0.0
 40
1.0
 40
1.0
 40
1.0
 40
1.0
 10
9.8702670931
 20
7.2617044553
 30
0.0
 10
9.8759287595
 20
7.2518981614
 30
0.0
 10
9.8760958761
 20
7.2409675047
 30
0.0
 10
9.8704639488
 20
7.2288941858
 30
0.0
  0
SPLINE
  5
2D2
100
AcDbEntity
  8
0
100
AcDbSpline
 62
7
  6
CONTINUOUS
 70
0
 71
3
 72
8
 73
4
 74
0
 42
0.0000001
 43
0.0000001
 44
0.0000000001
 40
0.0
 40
0.0
 40
0.0
 40
0.0
 40
1.0
 40
1.0
 40
1.0
 40
1.0
 10
9.8419010572
 20
7.2780937131
 30
0.0
 10
9.8551728217
 20
7.2769344457
 30
0.0
 10
9.8646736383
 20
7.2713926032
 30
0.0
 10
9.8702670931
 20
7.2617044553
 30
0.0
  0
SPLINE
  5
2D3
100
AcDbEntity
  8
0
100
AcDbSpline
 62
7
  6
CONTINUOUS
 70
0
 71
3
 72
8
 73
4
 74
0
 42
0.0000001
 43
0.0000001
 44
0.0000000001
 40
0.0
 40
0.0
 40
0.0
 40
0.0
 40
1.0
 40
1.0
 40
1.0
 40
1.0
 10
9.7793918779
 20
7.2553941633
 30
0.0
 10
9.8077474155
 20
7.2717652406
 30
0.0
 10
9.8286292927
 20
7.2792529805
 30
0.0
 10
9.8419010572
 20
7.2780937131
 30
0.0
  0
SPLINE
  5
2D4
100
AcDbEntity
  8
0
100
AcDbSpline
 62
7
  6
CONTINUOUS
 70
0
 71
3
 72
8
 73
4
 74
0
 42
0.0000001
 43
0.0000001
 44
0.0000000001
 40
0.0
 40
0.0
 40
0.0
 40
0.0
 40
1.0
 40
1.0
 40
1.0
 40
1.0
 10
9.7283963813
 20
7.2125246374
 30
0.0
 10
9.7309364393
 20
7.2180120048
 30
0.0
 10
9.7358104071
 20
7.2239629923
 30
0.0
 10
9.7430387592
 20
7.2303634276
 30
0.0
  0
LINE
  5
2D5
100
AcDbEntity
  8
0
100
AcDbLine
 62
7
  6
CONTINUOUS
 10
9.7430387592
 20
7.2303634276
 11
9.7503699891
 21
7.2363907686
  0
SPLINE
  5
2D6
100
AcDbEntity
  8
0
100
AcDbSpline
 62
7
  6
CONTINUOUS
 70
0
 71
3
 72
8
 73
4
 74
0
 42
0.0000001
 43
0.0000001
 44
0.0000000001
 40
0.0
 40
0.0
 40
0.0
 40
0.0
 40
1.0
 40
1.0
 40
1.0
 40
1.0
 10
9.7503699891
 20
7.2363907686
 30
0.0
 10
9.7581441691
 20
7.2423713622
 30
0.0
 10
9.767813224
 20
7.2487092243
 30
0.0
 10
9.7793918779
 20
7.2553941633
 30
0.0
  0
SPLINE
  5
2D7
100
AcDbEntity
  8
0
100
AcDbSpline
 62
7
  6
CONTINUOUS
 70
0
 71
3
 72
8
 73
4
 74
0
 42
0.0000001
 43
0.0000001
 44
0.0000000001
 40
0.0
 40
0.0
 40
0.0
 40
0.0
 40
1.0
 40
1.0
 40
1.0
 40
1.0
 10
9.7286258189
 20
7.1796127718
 30
0.0
 10
9.722895941
 20
7.1895372115
 30
0.0
 10
9.7228469767
 20
7.2005360835
 30
0.0
 10
9.7283963813
 20
7.2125246374
 30
0.0
  0
SPLINE
  5
2D8
100
AcDbEntity
  8
0
100
AcDbSpline
 62
7
  6
CONTINUOUS
 70
0
 71
3
 72
8
 73
4
 74
0
 42
0.0000001
 43
0.0000001
 44
0.0000000001
 40
0.0
 40
0.0
 40
0.0
 40
0.0
 40
1.0
 40
1.0
 40
1.0
 40
1.0
 10
9.7545416761
 20
7.1634306611
 30
0.0
 10
9.7429247198
 20
7.1643961575
 30
0.0
 10
9.7342874853
 20
7.1698064779
 30
0.0
 10
9.7286258189
 20
7.1796127718
 30
0.0
  0
SPLINE
  5
2D9
100
AcDbEntity
  8
0
100
AcDbSpline
 62
7
  6
CONTINUOUS
 70
0
 71
3
 72
8
 73
4
 74
0
 42
0.0000001
 43
0.0000001
 44
0.0000000001
 40
0.0
 40
0.0
 40
0.0
 40
0.0
 40
1.0
 40
1.0
 40
1.0
 40
1.0
 10
12.0708534556
 20
8.0768802726
 30
0.0
 10
12.0683111685
 20
8.086368217
 30
0.0
 10
12.0691623127
 20
8.0947880993
 30
0.0
 10
12.0733651428
 20
8.102163539
 30
0.0
  0
SPLINE
  5
2DA
100
AcDbEntity
  8
0
100
AcDbSpline
 62
7
  6
CONTINUOUS
 70
0
 71
3
 72
8
 73
4
 74
0
 42
0.0000001
 43
0.0000001
 44
0.0000000001
 40
0.0
 40
0.0
 40
0.0
 40
0.0
 40
1.0
 40
1.0
 40
1.0
 40
1.0
 10
12.0854215906
 20
8.0567732891
 30
0.0
 10
12.083314563
 20
8.0579897813
 30
0.0
 10
12.0814187863
 20
8.0594136933
 30
0.0
 10
12.0797288868
 20
8.0610402607
 30
0.0
  0
SPLINE
  5
2DB
100
AcDbEntity
  8
0
100
AcDbSpline
 62
7
  6
CONTINUOUS
 70
0
 71
3
 72
8
 73
4
 74
0
 42
0.0000001
 43
0.0000001
 44
0.0000000001
 40
0.0
 40
0.0
 40
0.0
 40
0.0
 40
1.0
 40
1.0
 40
1.0
 40
1.0
 10
12.0797288868
 20
8.0610402607
 30
0.0
 10
12.0755224073
 20
8.0650890944
 30
0.0
 10
12.0725915561
 20
8.0703935929
 30
0.0
 10
12.0708534556
 20
8.0768802726
 30
0.0
  0
SPLINE
  5
2DC
100
AcDbEntity
  8
0
100
AcDbSpline
 62
7
  6
CONTINUOUS
 70
0
 71
3
 72
8
 73
4
 74
0
 42
0.0000001
 43
0.0000001
 44
0.0000000001
 40
0.0
 40
0.0
 40
0.0
 40
0.0
 40
1.0
 40
1.0
 40
1.0
 40
1.0
 10
12.1090034342
 20
8.0536290688
 30
0.0
 10
12.1005696982
 20
8.051369256
 30
0.0
 10
12.0927733973
 20
8.0525287239
 30
0.0
 10
12.0854215906
 20
8.0567732891
 30
0.0
  0
SPLINE
  5
2DD
100
AcDbEntity
  8
0
100
AcDbSpline
 62
7
  6
CONTINUOUS
 70
0
 71
3
 72
8
 73
4
 74
0
 42
0.0000001
 43
0.0000001
 44
0.0000000001
 40
0.0
 40
0.0
 40
0.0
 40
0.0
 40
1.0
 40
1.0
 40
1.0
 40
1.0
 10
12.1284420671
 20
8.0685830715
 30
0.0
 10
12.1241363408
 20
8.0609323993
 30
0.0
 10
12.1177007194
 20
8.0559594993
 30
0.0
 10
12.1090034342
 20
8.0536290688
 30
0.0
  0
SPLINE
  5
2DE
100
AcDbEntity
  8
0
100
AcDbSpline
 62
7
  6
CONTINUOUS
 70
0
 71
3
 72
8
 73
4
 74
0
 42
0.0000001
 43
0.0000001
 44
0.0000000001
 40
0.0
 40
0.0
 40
0.0
 40
0.0
 40
1.0
 40
1.0
 40
1.0
 40
1.0
 10
12.1314002835
 20
8.0933862236
 30
0.0
 10
12.1338013334
 20
8.0844253834
 30
0.0
 10
12.1327477953
 20
8.0762337472
 30
0.0
 10
12.1284420671
 20
8.0685830715
 30
0.0
  0
SPLINE
  5
2DF
100
AcDbEntity
  8
0
100
AcDbSpline
 62
7
  6
CONTINUOUS
 70
0
 71
3
 72
8
 73
4
 74
0
 42
0.0000001
 43
0.0000001
 44
0.0000000001
 40
0.0
 40
0.0
 40
0.0
 40
0.0
 40
1.0
 40
1.0
 40
1.0
 40
1.0
 10
12.1166893458
 20
8.1136303927
 30
0.0
 10
12.1240521815
 20
8.1092133179
 30
0.0
 10
12.1289639247
 20
8.1024788384
 30
0.0
 10
12.1314002835
 20
8.0933862236
 30
0.0
  0
SPLINE
  5
2E0
100
AcDbEntity
  8
0
100
AcDbSpline
 62
7
  6
CONTINUOUS
 70
0
 71
3
 72
8
 73
4
 74
0
 42
0.0000001
 43
0.0000001
 44
0.0000000001
 40
0.0
 40
0.0
 40
0.0
 40
0.0
 40
1.0
 40
1.0
 40
1.0
 40
1.0
 10
12.0934432363
 20
8.1169715944
 30
0.0
 10
12.1014816369
 20
8.1191254774
 30
0.0
 10
12.1092426274
 20
8.1180977899
 30
0.0
 10
12.1166893458
 20
8.1136303927
 30
0.0
  0
SPLINE
  5
2E1
100
AcDbEntity
  8
0
100
AcDbSpline
 62
7
  6
CONTINUOUS
 70
0
 71
3
 72
8
 73
4
 74
0
 42
0.0000001
 43
0.0000001
 44
0.0000000001
 40
0.0
 40
0.0
 40
0.0
 40
0.0
 40
1.0
 40
1.0
 40
1.0
 40
1.0
 10
12.0733651428
 20
8.102163539
 30
0.0
 10
12.0776161347
 20
8.1096234967
 30
0.0
 10
12.0842188411
 20
8.1144999252
 30
0.0
 10
12.0934432363
 20
8.1169715944
 30
0.0
  0
SPLINE
  5
2E2
100
AcDbEntity
  8
0
100
AcDbSpline
 62
7
  6
CONTINUOUS
 70
0
 71
3
 72
8
 73
4
 74
0
 42
0.0000001
 43
0.0000001
 44
0.0000000001
 40
0.0
 40
0.0
 40
0.0
 40
0.0
 40
1.0
 40
1.0
 40
1.0
 40
1.0
 10
11.9838185765
 20
8.0907049984
 30
0.0
 10
11.9892964468
 20
8.0955625072
 30
0.0
 10
11.9953298089
 20
8.0988739997
 30
0.0
 10
12.002182215
 20
8.1007100964
 30
0.0
  0
SPLINE
  5
2E3
100
AcDbEntity
  8
0
100
AcDbSpline
 62
7
  6
CONTINUOUS
 70
0
 71
3
 72
8
 73
4
 74
0
 42
0.0000001
 43
0.0000001
 44
0.0000000001
 40
0.0
 40
0.0
 40
0.0
 40
0.0
 40
1.0
 40
1.0
 40
1.0
 40
1.0
 10
11.9729082891
 20
8.0723866278
 30
0.0
 10
11.9746396341
 20
8.0796299751
 30
0.0
 10
11.9783407073
 20
8.0858474905
 30
0.0
 10
11.9838185765
 20
8.0907049984
 30
0.0
  0
SPLINE
  5
2E4
100
AcDbEntity
  8
0
100
AcDbSpline
 62
7
  6
CONTINUOUS
 70
0
 71
3
 72
8
 73
4
 74
0
 42
0.0000001
 43
0.0000001
 44
0.0000000001
 40
0.0
 40
0.0
 40
0.0
 40
0.0
 40
1.0
 40
1.0
 40
1.0
 40
1.0
 10
11.9732419649
 20
8.0505841107
 30
0.0
 10
11.9712646296
 20
8.0579636269
 30
0.0
 10
11.9711769447
 20
8.065143283
 30
0.0
 10
11.9729082891
 20
8.0723866278
 30
0.0
  0
SPLINE
  5
2E5
100
AcDbEntity
  8
0
100
AcDbSpline
 62
7
  6
CONTINUOUS
 70
0
 71
3
 72
8
 73
4
 74
0
 42
0.0000001
 43
0.0000001
 44
0.0000000001
 40
0.0
 40
0.0
 40
0.0
 40
0.0
 40
1.0
 40
1.0
 40
1.0
 40
1.0
 10
11.9916760749
 20
8.0254043888
 30
0.0
 10
11.9823435461
 20
8.0308484698
 30
0.0
 10
11.9762785858
 20
8.0392512873
 30
0.0
 10
11.9732419649
 20
8.0505841107
 30
0.0
  0
SPLINE
  5
2E6
100
AcDbEntity
  8
0
100
AcDbSpline
 62
7
  6
CONTINUOUS
 70
0
 71
3
 72
8
 73
4
 74
0
 42
0.0000001
 43
0.0000001
 44
0.0000000001
 40
0.0
 40
0.0
 40
0.0
 40
0.0
 40
1.0
 40
1.0
 40
1.0
 40
1.0
 10
12.0224713549
 20
8.0218273361
 30
0.0
 10
12.0111385315
 20
8.0187907152
 30
0.0
 10
12.0009254686
 20
8.0200088041
 30
0.0
 10
11.9916760749
 20
8.0254043888
 30
0.0
  0
SPLINE
  5
2E7
100
AcDbEntity
  8
0
100
AcDbSpline
 62
7
  6
CONTINUOUS
 70
0
 71
3
 72
8
 73
4
 74
0
 42
0.0000001
 43
0.0000001
 44
0.0000000001
 40
0.0
 40
0.0
 40
0.0
 40
0.0
 40
1.0
 40
1.0
 40
1.0
 40
1.0
 10
12.0476889132
 20
8.0409074592
 30
0.0
 10
12.045896306
 20
8.0377064548
 30
0.0
 10
12.0437708986
 20
8.034868066
 30
0.0
 10
12.0413189965
 20
8.032392703
 30
0.0
  0
SPLINE
  5
2E8
100
AcDbEntity
  8
0
100
AcDbSpline
 62
7
  6
CONTINUOUS
 70
0
 71
3
 72
8
 73
4
 74
0
 42
0.0000001
 43
0.0000001
 44
0.0000000001
 40
0.0
 40
0.0
 40
0.0
 40
0.0
 40
1.0
 40
1.0
 40
1.0
 40
1.0
 10
12.0413189965
 20
8.032392703
 30
0.0
 10
12.0363564677
 20
8.0273826904
 30
0.0
 10
12.0300564941
 20
8.0238597681
 30
0.0
 10
12.0224713549
 20
8.0218273361
 30
0.0
  0
SPLINE
  5
2E9
100
AcDbEntity
  8
0
100
AcDbSpline
 62
7
  6
CONTINUOUS
 70
0
 71
3
 72
8
 73
4
 74
0
 42
0.0000001
 43
0.0000001
 44
0.0000000001
 40
0.0
 40
0.0
 40
0.0
 40
0.0
 40
1.0
 40
1.0
 40
1.0
 40
1.0
 10
12.0513056782
 20
8.0723486517
 30
0.0
 10
12.0543423006
 20
8.0610158226
 30
0.0
 10
12.0530630549
 20
8.0505039016
 30
0.0
 10
12.0476889132
 20
8.0409074592
 30
0.0
  0
SPLINE
  5
2EA
100
AcDbEntity
  8
0
100
AcDbSpline
 62
7
  6
CONTINUOUS
 70
0
 71
3
 72
8
 73
4
 74
0
 42
0.0000001
 43
0.0000001
 44
0.0000000001
 40
0.0
 40
0.0
 40
0.0
 40
0.0
 40
1.0
 40
1.0
 40
1.0
 40
1.0
 10
12.0327860897
 20
8.0971876086
 30
0.0
 10
12.0358999288
 20
8.0953898324
 30
0.0
 10
12.0386598836
 20
8.0932782485
 30
0.0
 10
12.0410672554
 20
8.0908480004
 30
0.0
  0
SPLINE
  5
2EB
100
AcDbEntity
  8
0
100
AcDbSpline
 62
7
  6
CONTINUOUS
 70
0
 71
3
 72
8
 73
4
 74
0
 42
0.0000001
 43
0.0000001
 44
0.0000000001
 40
0.0
 40
0.0
 40
0.0
 40
0.0
 40
1.0
 40
1.0
 40
1.0
 40
1.0
 10
12.0410672554
 20
8.0908480004
 30
0.0
 10
12.0458938523
 20
8.0859755383
 30
0.0
 10
12.0493031642
 20
8.0798221355
 30
0.0
 10
12.0513056782
 20
8.0723486517
 30
0.0
  0
SPLINE
  5
2EC
100
AcDbEntity
  8
0
100
AcDbSpline
 62
7
  6
CONTINUOUS
 70
0
 71
3
 72
8
 73
4
 74
0
 42
0.0000001
 43
0.0000001
 44
0.0000000001
 40
0.0
 40
0.0
 40
0.0
 40
0.0
 40
1.0
 40
1.0
 40
1.0
 40
1.0
 10
12.002182215
 20
8.1007100964
 30
0.0
 10
12.0132514892
 20
8.1036760995
 30
0.0
 10
12.0234292424
 20
8.1025897881
 30
0.0
 10
12.0327860897
 20
8.0971876086
 30
0.0
  0
SPLINE
  5
2ED
100
AcDbEntity
  8
0
100
AcDbSpline
 62
7
  6
CONTINUOUS
 70
0
 71
3
 72
8
 73
4
 74
0
 42
0.0000001
 43
0.0000001
 44
0.0000000001
 40
0.0
 40
0.0
 40
0.0
 40
0.0
 40
1.0
 40
1.0
 40
1.0
 40
1.0
 10
11.0419319914
 20
8.9524323203
 30
0.0
 10
11.0440876773
 20
8.9555396142
 30
0.0
 10
11.046491702
 20
8.9581413905
 30
0.0
 10
11.0491426918
 20
8.960238606
 30
0.0
  0
SPLINE
  5
2EE
100
AcDbEntity
  8
0
100
AcDbSpline
 62
7
  6
CONTINUOUS
 70
0
 71
3
 72
8
 73
4
 74
0
 42
0.0000001
 43
0.0000001
 44
0.0000000001
 40
0.0
 40
0.0
 40
0.0
 40
0.0
 40
1.0
 40
1.0
 40
1.0
 40
1.0
 10
11.0491426918
 20
8.960238606
 30
0.0
 10
11.0546630351
 20
8.9646057859
 30
0.0
 10
11.0612542855
 20
8.9667850557
 30
0.0
 10
11.0689040389
 20
8.9667850557
 30
0.0
  0
SPLINE
  5
2EF
100
AcDbEntity
  8
0
100
AcDbSpline
 62
7
  6
CONTINUOUS
 70
0
 71
3
 72
8
 73
4
 74
0
 42
0.0000001
 43
0.0000001
 44
0.0000000001
 40
0.0
 40
0.0
 40
0.0
 40
0.0
 40
1.0
 40
1.0
 40
1.0
 40
1.0
 10
11.0292041745
 20
8.8849296632
 30
0.0
 10
11.0292041745
 20
8.9176718178
 30
0.0
 10
11.0334333625
 20
8.9401820484
 30
0.0
 10
11.0419319914
 20
8.9524323203
 30
0.0
  0
SPLINE
  5
2F0
100
AcDbEntity
  8
0
100
AcDbSpline
 62
7
  6
CONTINUOUS
 70
0
 71
3
 72
8
 73
4
 74
0
 42
0.0000001
 43
0.0000001
 44
0.0000000001
 40
0.0
 40
0.0
 40
0.0
 40
0.0
 40
1.0
 40
1.0
 40
1.0
 40
1.0
 10
10.7698590186
 20
8.9871124807
 30
0.0
 10
10.7654934015
 20
8.9783812347
 30
0.0
 10
10.7582628396
 20
8.9695135656
 30
0.0
 10
10.7480345106
 20
8.9603690307
 30
0.0
  0
SPLINE
  5
2F1
100
AcDbEntity
  8
0
100
AcDbSpline
 62
7
  6
CONTINUOUS
 70
0
 71
3
 72
8
 73
4
 74
0
 42
0.0000001
 43
0.0000001
 44
0.0000000001
 40
0.0
 40
0.0
 40
0.0
 40
0.0
 40
1.0
 40
1.0
 40
1.0
 40
1.0
 10
10.7480345106
 20
8.9603690307
 30
0.0
 10
10.7376625683
 20
8.9510960999
 30
0.0
 10
10.7256571111
 20
8.9433198395
 30
0.0
 10
10.7120145466
 20
8.9369078341
 30
0.0
  0
SPLINE
  5
2F2
100
AcDbEntity
  8
0
100
AcDbSpline
 62
7
  6
CONTINUOUS
 70
0
 71
3
 72
8
 73
4
 74
0
 42
0.0000001
 43
0.0000001
 44
0.0000000001
 40
0.0
 40
0.0
 40
0.0
 40
0.0
 40
1.0
 40
1.0
 40
1.0
 40
1.0
 10
10.7120145466
 20
8.9131697717
 30
0.0
 10
10.7196543839
 20
8.9158982816
 30
0.0
 10
10.7282491979
 20
8.9201274815
 30
0.0
 10
10.7378287832
 20
8.9258068033
 30
0.0
  0
SPLINE
  5
2F3
100
AcDbEntity
  8
0
100
AcDbSpline
 62
7
  6
CONTINUOUS
 70
0
 71
3
 72
8
 73
4
 74
0
 42
0.0000001
 43
0.0000001
 44
0.0000000001
 40
0.0
 40
0.0
 40
0.0
 40
0.0
 40
1.0
 40
1.0
 40
1.0
 40
1.0
 10
10.7378287832
 20
8.9258068033
 30
0.0
 10
10.747348788
 20
8.9314508024
 30
0.0
 10
10.7551250484
 20
8.9370442572
 30
0.0
 10
10.7611277785
 20
8.9427741352
 30
0.0
  0
SPLINE
  5
2F4
100
AcDbEntity
  8
0
100
AcDbSpline
 62
7
  6
CONTINUOUS
 70
0
 71
3
 72
8
 73
4
 74
0
 42
0.0000001
 43
0.0000001
 44
0.0000000001
 40
0.0
 40
0.0
 40
0.0
 40
0.0
 40
1.0
 40
1.0
 40
1.0
 40
1.0
 10
10.8485766139
 20
8.8849296632
 30
0.0
 10
10.8485766139
 20
8.8472761813
 30
0.0
 10
10.8551250544
 20
8.8202639046
 30
0.0
 10
10.8683080231
 20
8.8035803679
 30
0.0
  0
SPLINE
  5
2F5
100
AcDbEntity
  8
0
100
AcDbSpline
 62
7
  6
CONTINUOUS
 70
0
 71
3
 72
8
 73
4
 74
0
 42
0.0000001
 43
0.0000001
 44
0.0000000001
 40
0.0
 40
0.0
 40
0.0
 40
0.0
 40
1.0
 40
1.0
 40
1.0
 40
1.0
 10
10.8683080231
 20
8.8035803679
 30
0.0
 10
10.8792723861
 20
8.7897045593
 30
0.0
 10
10.8944156375
 20
8.7828832771
 30
0.0
 10
10.9137880769
 20
8.7828832771
 30
0.0
  0
SPLINE
  5
2F6
100
AcDbEntity
  8
0
100
AcDbSpline
 62
7
  6
CONTINUOUS
 70
0
 71
3
 72
8
 73
4
 74
0
 42
0.0000001
 43
0.0000001
 44
0.0000000001
 40
0.0
 40
0.0
 40
0.0
 40
0.0
 40
1.0
 40
1.0
 40
1.0
 40
1.0
 10
10.9137880769
 20
8.7828832771
 30
0.0
 10
10.928385612
 20
8.7828832771
 30
0.0
 10
10.9405275073
 20
8.7867031951
 30
0.0
 10
10.9500772968
 20
8.7946158771
 30
0.0
  0
SPLINE
  5
2F7
100
AcDbEntity
  8
0
100
AcDbSpline
 62
7
  6
CONTINUOUS
 70
0
 71
3
 72
8
 73
4
 74
0
 42
0.0000001
 43
0.0000001
 44
0.0000000001
 40
0.0
 40
0.0
 40
0.0
 40
0.0
 40
1.0
 40
1.0
 40
1.0
 40
1.0
 10
10.9500772968
 20
8.7946158771
 30
0.0
 10
10.9531765872
 20
8.7971838604
 30
0.0
 10
10.9560316018
 20
8.8000823338
 30
0.0
 10
10.9586402419
 20
8.8033213219
 30
0.0
  0
SPLINE
  5
2F8
100
AcDbEntity
  8
0
100
AcDbSpline
 62
7
  6
CONTINUOUS
 70
0
 71
3
 72
8
 73
4
 74
0
 42
0.0000001
 43
0.0000001
 44
0.0000000001
 40
0.0
 40
0.0
 40
0.0
 40
0.0
 40
1.0
 40
1.0
 40
1.0
 40
1.0
 10
10.9613705721
 20
8.806965034
 30
0.0
 10
10.9655509852
 20
8.8129617026
 30
0.0
 10
10.9690002233
 20
8.8199765433
 30
0.0
 10
10.9717076066
 20
8.8280605717
 30
0.0
  0
SPLINE
  5
2F9
100
AcDbEntity
  8
0
100
AcDbSpline
 62
7
  6
CONTINUOUS
 70
0
 71
3
 72
8
 73
4
 74
0
 42
0.0000001
 43
0.0000001
 44
0.0000000001
 40
0.0
 40
0.0
 40
0.0
 40
0.0
 40
1.0
 40
1.0
 40
1.0
 40
1.0
 10
10.9717076066
 20
8.8280605717
 30
0.0
 10
10.9765438762
 20
8.842501283
 30
0.0
 10
10.9789995399
 20
8.861464453
 30
0.0
 10
10.9789995399
 20
8.8849296632
 30
0.0
  0
SPLINE
  5
2FA
100
AcDbEntity
  8
0
100
AcDbSpline
 62
7
  6
CONTINUOUS
 70
0
 71
3
 72
8
 73
4
 74
0
 42
0.0000001
 43
0.0000001
 44
0.0000000001
 40
0.0
 40
0.0
 40
0.0
 40
0.0
 40
1.0
 40
1.0
 40
1.0
 40
1.0
 10
10.9789995399
 20
8.8849296632
 30
0.0
 10
10.9789995399
 20
8.9047113839
 30
0.0
 10
10.9774988618
 20
8.9204003277
 30
0.0
 10
10.9744974916
 20
8.9321329443
 30
0.0
  0
SPLINE
  5
2FB
100
AcDbEntity
  8
0
100
AcDbSpline
 62
7
  6
CONTINUOUS
 70
0
 71
3
 72
8
 73
4
 74
0
 42
0.0000001
 43
0.0000001
 44
0.0000000001
 40
0.0
 40
0.0
 40
0.0
 40
0.0
 40
1.0
 40
1.0
 40
1.0
 40
1.0
 10
10.9744974916
 20
8.9321329443
 30
0.0
 10
10.9714961257
 20
8.9438655439
 30
0.0
 10
10.9672669377
 20
8.9536881867
 30
0.0
 10
10.9620345378
 20
8.9618425825
 30
0.0
  0
SPLINE
  5
2FC
100
AcDbEntity
  8
0
100
AcDbSpline
 62
7
  6
CONTINUOUS
 70
0
 71
3
 72
8
 73
4
 74
0
 42
0.0000001
 43
0.0000001
 44
0.0000000001
 40
0.0
 40
0.0
 40
0.0
 40
0.0
 40
1.0
 40
1.0
 40
1.0
 40
1.0
 10
10.9620345378
 20
8.9618425825
 30
0.0
 10
10.9567621675
 20
8.9700592699
 30
0.0
 10
10.950077292
 20
8.9761984172
 30
0.0
 10
10.9420129315
 20
8.9805355588
 30
0.0
  0
SPLINE
  5
2FD
100
AcDbEntity
  8
0
100
AcDbSpline
 62
7
  6
CONTINUOUS
 70
0
 71
3
 72
8
 73
4
 74
0
 42
0.0000001
 43
0.0000001
 44
0.0000000001
 40
0.0
 40
0.0
 40
0.0
 40
0.0
 40
1.0
 40
1.0
 40
1.0
 40
1.0
 10
10.9420129315
 20
8.9805355588
 30
0.0
 10
10.9338426557
 20
8.9849296632
 30
0.0
 10
10.9244292703
 20
8.9871124807
 30
0.0
 10
10.9137880769
 20
8.9871124807
 30
0.0
  0
SPLINE
  5
2FE
100
AcDbEntity
  8
0
100
AcDbSpline
 62
7
  6
CONTINUOUS
 70
0
 71
3
 72
8
 73
4
 74
0
 42
0.0000001
 43
0.0000001
 44
0.0000000001
 40
0.0
 40
0.0
 40
0.0
 40
0.0
 40
1.0
 40
1.0
 40
1.0
 40
1.0
 10
10.9137880769
 20
8.9871124807
 30
0.0
 10
10.8991905418
 20
8.9871124807
 30
0.0
 10
10.8870486465
 20
8.983156127
 30
0.0
 10
10.8775324023
 20
8.9753392111
 30
0.0
  0
SPLINE
  5
2FF
100
AcDbEntity
  8
0
100
AcDbSpline
 62
7
  6
CONTINUOUS
 70
0
 71
3
 72
8
 73
4
 74
0
 42
0.0000001
 43
0.0000001
 44
0.0000000001
 40
0.0
 40
0.0
 40
0.0
 40
0.0
 40
1.0
 40
1.0
 40
1.0
 40
1.0
 10
10.8675360476
 20
8.9648577666
 30
0.0
 10
10.8627405605
 20
8.9584825304
 30
0.0
 10
10.8588335517
 20
8.9508665772
 30
0.0
 10
10.8558071783
 20
8.9419555858
 30
0.0
  0
SPLINE
  5
300
100
AcDbEntity
  8
0
100
AcDbSpline
 62
7
  6
CONTINUOUS
 70
0
 71
3
 72
8
 73
4
 74
0
 42
0.0000001
 43
0.0000001
 44
0.0000000001
 40
0.0
 40
0.0
 40
0.0
 40
0.0
 40
1.0
 40
1.0
 40
1.0
 40
1.0
 10
10.8558071783
 20
8.9419555858
 30
0.0
 10
10.8508958545
 20
8.9274944606
 30
0.0
 10
10.8485766139
 20
8.9085313025
 30
0.0
 10
10.8485766139
 20
8.8849296632
 30
0.0
  0
SPLINE
  5
301
100
AcDbEntity
  8
0
100
AcDbSpline
 62
7
  6
CONTINUOUS
 70
0
 71
3
 72
8
 73
4
 74
0
 42
0.0000001
 43
0.0000001
 44
0.0000000001
 40
0.0
 40
0.0
 40
0.0
 40
0.0
 40
1.0
 40
1.0
 40
1.0
 40
1.0
 10
11.0111959919
 20
8.941955584
 30
0.0
 10
11.0062846627
 20
8.9274944606
 30
0.0
 10
11.0039654222
 20
8.9085313025
 30
0.0
 10
11.0039654222
 20
8.8849296632
 30
0.0
  0
SPLINE
  5
302
100
AcDbEntity
  8
0
100
AcDbSpline
 62
7
  6
CONTINUOUS
 70
0
 71
3
 72
8
 73
4
 74
0
 42
0.0000001
 43
0.0000001
 44
0.0000000001
 40
0.0
 40
0.0
 40
0.0
 40
0.0
 40
1.0
 40
1.0
 40
1.0
 40
1.0
 10
11.0039654222
 20
8.8849296632
 30
0.0
 10
11.0039654222
 20
8.8472761813
 30
0.0
 10
11.0105138745
 20
8.8202639046
 30
0.0
 10
11.0236968393
 20
8.8035803648
 30
0.0
  0
SPLINE
  5
303
100
AcDbEntity
  8
0
100
AcDbSpline
 62
7
  6
CONTINUOUS
 70
0
 71
3
 72
8
 73
4
 74
0
 42
0.0000001
 43
0.0000001
 44
0.0000000001
 40
0.0
 40
0.0
 40
0.0
 40
0.0
 40
1.0
 40
1.0
 40
1.0
 40
1.0
 10
11.0236968393
 20
8.8035803648
 30
0.0
 10
11.0346611943
 20
8.7897045593
 30
0.0
 10
11.0498044458
 20
8.7828832771
 30
0.0
 10
11.0691768851
 20
8.7828832771
 30
0.0
  0
SPLINE
  5
304
100
AcDbEntity
  8
0
100
AcDbSpline
 62
7
  6
CONTINUOUS
 70
0
 71
3
 72
8
 73
4
 74
0
 42
0.0000001
 43
0.0000001
 44
0.0000000001
 40
0.0
 40
0.0
 40
0.0
 40
0.0
 40
1.0
 40
1.0
 40
1.0
 40
1.0
 10
11.0691768851
 20
8.7828832771
 30
0.0
 10
11.0837744441
 20
8.7828832771
 30
0.0
 10
11.0959163394
 20
8.7867031951
 30
0.0
 10
11.1054661099
 20
8.7946158712
 30
0.0
  0
SPLINE
  5
305
100
AcDbEntity
  8
0
100
AcDbSpline
 62
7
  6
CONTINUOUS
 70
0
 71
3
 72
8
 73
4
 74
0
 42
0.0000001
 43
0.0000001
 44
0.0000000001
 40
0.0
 40
0.0
 40
0.0
 40
0.0
 40
1.0
 40
1.0
 40
1.0
 40
1.0
 10
11.1054661099
 20
8.7946158712
 30
0.0
 10
11.1085654011
 20
8.7971838583
 30
0.0
 10
11.1114204166
 20
8.8000823355
 30
0.0
 10
11.114029058
 20
8.8033213275
 30
0.0
  0
SPLINE
  5
306
100
AcDbEntity
  8
0
100
AcDbSpline
 62
7
  6
CONTINUOUS
 70
0
 71
3
 72
8
 73
4
 74
0
 42
0.0000001
 43
0.0000001
 44
0.0000000001
 40
0.0
 40
0.0
 40
0.0
 40
0.0
 40
1.0
 40
1.0
 40
1.0
 40
1.0
 10
11.1167593818
 20
8.8069650326
 30
0.0
 10
11.1209397957
 20
8.8129617027
 30
0.0
 10
11.1243890373
 20
8.8199765446
 30
0.0
 10
11.127096428
 20
8.8280605753
 30
0.0
  0
SPLINE
  5
307
100
AcDbEntity
  8
0
100
AcDbSpline
 62
7
  6
CONTINUOUS
 70
0
 71
3
 72
8
 73
4
 74
0
 42
0.0000001
 43
0.0000001
 44
0.0000000001
 40
0.0
 40
0.0
 40
0.0
 40
0.0
 40
1.0
 40
1.0
 40
1.0
 40
1.0
 10
11.127096428
 20
8.8280605753
 30
0.0
 10
11.1319327083
 20
8.842501283
 30
0.0
 10
11.134388372
 20
8.861464453
 30
0.0
 10
11.134388372
 20
8.8849296632
 30
0.0
  0
SPLINE
  5
308
100
AcDbEntity
  8
0
100
AcDbSpline
 62
7
  6
CONTINUOUS
 70
0
 71
3
 72
8
 73
4
 74
0
 42
0.0000001
 43
0.0000001
 44
0.0000000001
 40
0.0
 40
0.0
 40
0.0
 40
0.0
 40
1.0
 40
1.0
 40
1.0
 40
1.0
 10
11.134388372
 20
8.8849296632
 30
0.0
 10
11.134388372
 20
8.9047113839
 30
0.0
 10
11.1328876701
 20
8.9204003277
 30
0.0
 10
11.1298863125
 20
8.9321329414
 30
0.0
  0
SPLINE
  5
309
100
AcDbEntity
  8
0
100
AcDbSpline
 62
7
  6
CONTINUOUS
 70
0
 71
3
 72
8
 73
4
 74
0
 42
0.0000001
 43
0.0000001
 44
0.0000000001
 40
0.0
 40
0.0
 40
0.0
 40
0.0
 40
1.0
 40
1.0
 40
1.0
 40
1.0
 10
11.1298863125
 20
8.9321329414
 30
0.0
 10
11.1268849578
 20
8.9438655439
 30
0.0
 10
11.122655746
 20
8.9536881867
 30
0.0
 10
11.1174233461
 20
8.9618425825
 30
0.0
  0
SPLINE
  5
30A
100
AcDbEntity
  8
0
100
AcDbSpline
 62
7
  6
CONTINUOUS
 70
0
 71
3
 72
8
 73
4
 74
0
 42
0.0000001
 43
0.0000001
 44
0.0000000001
 40
0.0
 40
0.0
 40
0.0
 40
0.0
 40
1.0
 40
1.0
 40
1.0
 40
1.0
 10
11.1174233461
 20
8.9618425825
 30
0.0
 10
11.1121509757
 20
8.9700592699
 30
0.0
 10
11.1054661002
 20
8.9761984172
 30
0.0
 10
11.0974017397
 20
8.9805355588
 30
0.0
  0
SPLINE
  5
30B
100
AcDbEntity
  8
0
100
AcDbSpline
 62
7
  6
CONTINUOUS
 70
0
 71
3
 72
8
 73
4
 74
0
 42
0.0000001
 43
0.0000001
 44
0.0000000001
 40
0.0
 40
0.0
 40
0.0
 40
0.0
 40
1.0
 40
1.0
 40
1.0
 40
1.0
 10
11.0974017397
 20
8.9805355588
 30
0.0
 10
11.0892314639
 20
8.9849296632
 30
0.0
 10
11.0798181024
 20
8.9871124807
 30
0.0
 10
11.0691768851
 20
8.9871124807
 30
0.0
  0
SPLINE
  5
30C
100
AcDbEntity
  8
0
100
AcDbSpline
 62
7
  6
CONTINUOUS
 70
0
 71
3
 72
8
 73
4
 74
0
 42
0.0000001
 43
0.0000001
 44
0.0000000001
 40
0.0
 40
0.0
 40
0.0
 40
0.0
 40
1.0
 40
1.0
 40
1.0
 40
1.0
 10
11.0691768851
 20
8.9871124807
 30
0.0
 10
11.05457935
 20
8.9871124807
 30
0.0
 10
11.0424374547
 20
8.983156127
 30
0.0
 10
11.032921213
 20
8.9753392082
 30
0.0
  0
SPLINE
  5
30D
100
AcDbEntity
  8
0
100
AcDbSpline
 62
7
  6
CONTINUOUS
 70
0
 71
3
 72
8
 73
4
 74
0
 42
0.0000001
 43
0.0000001
 44
0.0000000001
 40
0.0
 40
0.0
 40
0.0
 40
0.0
 40
1.0
 40
1.0
 40
1.0
 40
1.0
 10
11.0229248619
 20
8.9648577615
 30
0.0
 10
11.0181293779
 20
8.9584825267
 30
0.0
 10
11.0142223687
 20
8.9508665745
 30
0.0
 10
11.0111959919
 20
8.941955584
 30
0.0
  0
SPLINE
  5
30E
100
AcDbEntity
  8
0
100
AcDbSpline
 62
7
  6
CONTINUOUS
 70
0
 71
3
 72
8
 73
4
 74
0
 42
0.0000001
 43
0.0000001
 44
0.0000000001
 40
0.0
 40
0.0
 40
0.0
 40
0.0
 40
1.0
 40
1.0
 40
1.0
 40
1.0
 10
11.9828932926
 20
8.0040180786
 30
0.0
 10
11.9972024411
 20
7.9954244328
 30
0.0
 10
12.0126279592
 20
7.993201975
 30
0.0
 10
12.0292318676
 20
7.9976509788
 30
0.0
  0
SPLINE
  5
30F
100
AcDbEntity
  8
0
100
AcDbSpline
 62
7
  6
CONTINUOUS
 70
0
 71
3
 72
8
 73
4
 74
0
 42
0.0000001
 43
0.0000001
 44
0.0000000001
 40
0.0
 40
0.0
 40
0.0
 40
0.0
 40
1.0
 40
1.0
 40
1.0
 40
1.0
 10
12.0292318676
 20
7.9976509788
 30
0.0
 10
12.0410918067
 20
8.00082884
 30
0.0
 10
12.050522987
 20
8.0067456331
 30
0.0
 10
12.0575299208
 20
8.0152947378
 30
0.0
  0
SPLINE
  5
310
100
AcDbEntity
  8
0
100
AcDbSpline
 62
7
  6
CONTINUOUS
 70
0
 71
3
 72
8
 73
4
 74
0
 42
0.0000001
 43
0.0000001
 44
0.0000000001
 40
0.0
 40
0.0
 40
0.0
 40
0.0
 40
1.0
 40
1.0
 40
1.0
 40
1.0
 10
12.0633898508
 20
8.0244142523
 30
0.0
 10
12.0666469766
 20
8.0310416941
 30
0.0
 10
12.068515862
 20
8.0386553894
 30
0.0
 10
12.0690346056
 20
8.047297831
 30
0.0
  0
SPLINE
  5
311
100
AcDbEntity
  8
0
100
AcDbSpline
 62
7
  6
CONTINUOUS
 70
0
 71
3
 72
8
 73
4
 74
0
 42
0.0000001
 43
0.0000001
 44
0.0000000001
 40
0.0
 40
0.0
 40
0.0
 40
0.0
 40
1.0
 40
1.0
 40
1.0
 40
1.0
 10
12.0710389279
 20
8.0446368173
 30
0.0
 10
12.0766624669
 20
8.0375587748
 30
0.0
 10
12.0830276555
 20
8.0327034861
 30
0.0
 10
12.0900408943
 20
8.0300458627
 30
0.0
  0
SPLINE
  5
312
100
AcDbEntity
  8
0
100
AcDbSpline
 62
7
  6
CONTINUOUS
 70
0
 71
3
 72
8
 73
4
 74
0
 42
0.0000001
 43
0.0000001
 44
0.0000000001
 40
0.0
 40
0.0
 40
0.0
 40
0.0
 40
1.0
 40
1.0
 40
1.0
 40
1.0
 10
12.0900408943
 20
8.0300458627
 30
0.0
 10
12.0979008964
 20
8.0270673637
 30
0.0
 10
12.1064430804
 20
8.0268139572
 30
0.0
 10
12.1154039263
 20
8.0292150087
 30
0.0
  0
SPLINE
  5
313
100
AcDbEntity
  8
0
100
AcDbSpline
 62
7
  6
CONTINUOUS
 70
0
 71
3
 72
8
 73
4
 74
0
 42
0.0000001
 43
0.0000001
 44
0.0000000001
 40
0.0
 40
0.0
 40
0.0
 40
0.0
 40
1.0
 40
1.0
 40
1.0
 40
1.0
 10
12.1154039263
 20
8.0292150087
 30
0.0
 10
12.1293722879
 20
8.0329578199
 30
0.0
 10
12.1399869356
 20
8.0413102932
 30
0.0
 10
12.1469842859
 20
8.0542018014
 30
0.0
  0
SPLINE
  5
314
100
AcDbEntity
  8
0
100
AcDbSpline
 62
7
  6
CONTINUOUS
 70
0
 71
3
 72
8
 73
4
 74
0
 42
0.0000001
 43
0.0000001
 44
0.0000000001
 40
0.0
 40
0.0
 40
0.0
 40
0.0
 40
1.0
 40
1.0
 40
1.0
 40
1.0
 10
12.1469842859
 20
8.0542018014
 30
0.0
 10
12.1539816442
 20
8.0670933245
 30
0.0
 10
12.1553522983
 20
8.0820081282
 30
0.0
 10
12.1508326759
 20
8.0988755886
 30
0.0
  0
SPLINE
  5
315
100
AcDbEntity
  8
0
100
AcDbSpline
 62
7
  6
CONTINUOUS
 70
0
 71
3
 72
8
 73
4
 74
0
 42
0.0000001
 43
0.0000001
 44
0.0000000001
 40
0.0
 40
0.0
 40
0.0
 40
0.0
 40
1.0
 40
1.0
 40
1.0
 40
1.0
 10
12.1508326759
 20
8.0988755886
 30
0.0
 10
12.1492778394
 20
8.1046783173
 30
0.0
 10
12.1472546111
 20
8.1099209397
 30
0.0
 10
12.1447736675
 20
8.1146062416
 30
0.0
  0
SPLINE
  5
316
100
AcDbEntity
  8
0
100
AcDbSpline
 62
7
  6
CONTINUOUS
 70
0
 71
3
 72
8
 73
4
 74
0
 42
0.0000001
 43
0.0000001
 44
0.0000000001
 40
0.0
 40
0.0
 40
0.0
 40
0.0
 40
1.0
 40
1.0
 40
1.0
 40
1.0
 10
12.1447736675
 20
8.1146062416
 30
0.0
 10
12.1423607767
 20
8.1191630248
 30
0.0
 10
12.1395149366
 20
8.123192643
 30
0.0
 10
12.1362459691
 20
8.126697659
 30
0.0
  0
SPLINE
  5
317
100
AcDbEntity
  8
0
100
AcDbSpline
 62
7
  6
CONTINUOUS
 70
0
 71
3
 72
8
 73
4
 74
0
 42
0.0000001
 43
0.0000001
 44
0.0000000001
 40
0.0
 40
0.0
 40
0.0
 40
0.0
 40
1.0
 40
1.0
 40
1.0
 40
1.0
 10
12.1256628901
 20
8.1353484206
 30
0.0
 10
12.1133256878
 20
8.1429198641
 30
0.0
 10
12.1001239801
 20
8.1447495286
 30
0.0
 10
12.0861556185
 20
8.1410067174
 30
0.0
  0
SPLINE
  5
318
100
AcDbEntity
  8
0
100
AcDbSpline
 62
7
  6
CONTINUOUS
 70
0
 71
3
 72
8
 73
4
 74
0
 42
0.0000001
 43
0.0000001
 44
0.0000000001
 40
0.0
 40
0.0
 40
0.0
 40
0.0
 40
1.0
 40
1.0
 40
1.0
 40
1.0
 10
12.0861556185
 20
8.1410067174
 30
0.0
 10
12.0767994488
 20
8.1384997393
 30
0.0
 10
12.0693966199
 20
8.1339738703
 30
0.0
 10
12.0640484202
 20
8.1274896814
 30
0.0
  0
SPLINE
  5
319
100
AcDbEntity
  8
0
100
AcDbSpline
 62
7
  6
CONTINUOUS
 70
0
 71
3
 72
8
 73
4
 74
0
 42
0.0000001
 43
0.0000001
 44
0.0000000001
 40
0.0
 40
0.0
 40
0.0
 40
0.0
 40
1.0
 40
1.0
 40
1.0
 40
1.0
 10
12.0640484202
 20
8.1274896814
 30
0.0
 10
12.0622406966
 20
8.1252979866
 30
0.0
 10
12.0606802112
 20
8.1228776314
 30
0.0
 10
12.0593694063
 20
8.1202227856
 30
0.0
  0
SPLINE
  5
31A
100
AcDbEntity
  8
0
100
AcDbSpline
 62
7
  6
CONTINUOUS
 70
0
 71
3
 72
8
 73
4
 74
0
 42
0.0000001
 43
0.0000001
 44
0.0000000001
 40
0.0
 40
0.0
 40
0.0
 40
0.0
 40
1.0
 40
1.0
 40
1.0
 40
1.0
 10
12.0593694063
 20
8.1202227856
 30
0.0
 10
12.0567508207
 20
8.114919219
 30
0.0
 10
12.0551286541
 20
8.108679853
 30
0.0
 10
12.0545223764
 20
8.1014582074
 30
0.0
  0
SPLINE
  5
31B
100
AcDbEntity
  8
0
100
AcDbSpline
 62
7
  6
CONTINUOUS
 70
0
 71
3
 72
8
 73
4
 74
0
 42
0.0000001
 43
0.0000001
 44
0.0000000001
 40
0.0
 40
0.0
 40
0.0
 40
0.0
 40
1.0
 40
1.0
 40
1.0
 40
1.0
 10
12.0545223764
 20
8.1014582074
 30
0.0
 10
12.0529407879
 20
8.1042051878
 30
0.0
 10
12.0512413496
 20
8.1067360421
 30
0.0
 10
12.0494240615
 20
8.1090507703
 30
0.0
  0
SPLINE
  5
31C
100
AcDbEntity
  8
0
100
AcDbSpline
 62
7
  6
CONTINUOUS
 70
0
 71
3
 72
8
 73
4
 74
0
 42
0.0000001
 43
0.0000001
 44
0.0000000001
 40
0.0
 40
0.0
 40
0.0
 40
0.0
 40
1.0
 40
1.0
 40
1.0
 40
1.0
 10
12.0494240615
 20
8.1090507703
 30
0.0
 10
12.0439559343
 20
8.1160156695
 30
0.0
 10
12.0374208223
 20
8.1210238117
 30
0.0
 10
12.0298187281
 20
8.1240751964
 30
0.0
  0
SPLINE
  5
31D
100
AcDbEntity
  8
0
100
AcDbSpline
 62
7
  6
CONTINUOUS
 70
0
 71
3
 72
8
 73
4
 74
0
 42
0.0000001
 43
0.0000001
 44
0.0000000001
 40
0.0
 40
0.0
 40
0.0
 40
0.0
 40
1.0
 40
1.0
 40
1.0
 40
1.0
 10
12.0298187281
 20
8.1240751964
 30
0.0
 10
12.0196901391
 20
8.1281406844
 30
0.0
 10
12.0083005456
 20
8.1284785688
 30
0.0
 10
11.995781722
 20
8.1251241601
 30
0.0
  0
SPLINE
  5
31E
100
AcDbEntity
  8
0
100
AcDbSpline
 62
7
  6
CONTINUOUS
 70
0
 71
3
 72
8
 73
4
 74
0
 42
0.0000001
 43
0.0000001
 44
0.0000000001
 40
0.0
 40
0.0
 40
0.0
 40
0.0
 40
1.0
 40
1.0
 40
1.0
 40
1.0
 10
11.995781722
 20
8.1251241601
 30
0.0
 10
11.9789142615
 20
8.1206045377
 30
0.0
 10
11.966367737
 20
8.1110282254
 30
0.0
 10
11.9581359878
 20
8.0962866799
 30
0.0
  0
SPLINE
  5
31F
100
AcDbEntity
  8
0
100
AcDbSpline
 62
7
  6
CONTINUOUS
 70
0
 71
3
 72
8
 73
4
 74
0
 42
0.0000001
 43
0.0000001
 44
0.0000000001
 40
0.0
 40
0.0
 40
0.0
 40
0.0
 40
1.0
 40
1.0
 40
1.0
 40
1.0
 10
11.9581359878
 20
8.0962866799
 30
0.0
 10
11.9499518746
 20
8.0816304417
 30
0.0
 10
11.9485484558
 20
8.0647295265
 30
0.0
 10
11.9536683419
 20
8.0456218516
 30
0.0
  0
SPLINE
  5
320
100
AcDbEntity
  8
0
100
AcDbSpline
 62
7
  6
CONTINUOUS
 70
0
 71
3
 72
8
 73
4
 74
0
 42
0.0000001
 43
0.0000001
 44
0.0000000001
 40
0.0
 40
0.0
 40
0.0
 40
0.0
 40
1.0
 40
1.0
 40
1.0
 40
1.0
 10
11.9536683419
 20
8.0456218516
 30
0.0
 10
11.9554213854
 20
8.039079404
 30
0.0
 10
11.9577190103
 20
8.0331361828
 30
0.0
 10
11.9605705357
 20
8.0278004245
 30
0.0
  0
SPLINE
  5
321
100
AcDbEntity
  8
0
100
AcDbSpline
 62
7
  6
CONTINUOUS
 70
0
 71
3
 72
8
 73
4
 74
0
 42
0.0000001
 43
0.0000001
 44
0.0000000001
 40
0.0
 40
0.0
 40
0.0
 40
0.0
 40
1.0
 40
1.0
 40
1.0
 40
1.0
 10
11.9605705357
 20
8.0278004245
 30
0.0
 10
11.9633358772
 20
8.022625933
 30
0.0
 10
11.9666221433
 20
8.0180227398
 30
0.0
 10
11.9704378335
 20
8.013998357
 30
0.0
  0
SPLINE
  5
322
100
AcDbEntity
  8
0
100
AcDbSpline
 62
7
  6
CONTINUOUS
 70
0
 71
3
 72
8
 73
4
 74
0
 42
0.0000001
 43
0.0000001
 44
0.0000000001
 40
0.0
 40
0.0
 40
0.0
 40
0.0
 40
1.0
 40
1.0
 40
1.0
 40
1.0
 10
11.9704378335
 20
8.013998357
 30
0.0
 10
11.9740995821
 20
8.0101363354
 30
0.0
 10
11.9782488979
 20
8.0068073628
 30
0.0
 10
11.9828932926
 20
8.0040180786
 30
0.0
  0
SPLINE
  5
323
100
AcDbEntity
  8
0
100
AcDbSpline
 62
7
  6
CONTINUOUS
 70
0
 71
3
 72
8
 73
4
 74
0
 42
0.0000001
 43
0.0000001
 44
0.0000000001
 40
0.0
 40
0.0
 40
0.0
 40
0.0
 40
1.0
 40
1.0
 40
1.0
 40
1.0
 10
12.0307988416
 20
7.9733541621
 30
0.0
 10
12.0148822042
 20
7.9673944478
 30
0.0
 10
12.0035311344
 20
7.9575735057
 30
0.0
 10
11.9967000297
 20
7.9439142268
 30
0.0
  0
SPLINE
  5
324
100
AcDbEntity
  8
0
100
AcDbSpline
 62
7
  6
CONTINUOUS
 70
0
 71
3
 72
8
 73
4
 74
0
 42
0.0000001
 43
0.0000001
 44
0.0000000001
 40
0.0
 40
0.0
 40
0.0
 40
0.0
 40
1.0
 40
1.0
 40
1.0
 40
1.0
 10
11.9967000297
 20
7.9439142268
 30
0.0
 10
11.9898283592
 20
7.9301738335
 30
0.0
 10
11.9888013493
 20
7.9145036831
 30
0.0
 10
11.9935328282
 20
7.8968455635
 30
0.0
  0
SPLINE
  5
325
100
AcDbEntity
  8
0
100
AcDbSpline
 62
7
  6
CONTINUOUS
 70
0
 71
3
 72
8
 73
4
 74
0
 42
0.0000001
 43
0.0000001
 44
0.0000000001
 40
0.0
 40
0.0
 40
0.0
 40
0.0
 40
1.0
 40
1.0
 40
1.0
 40
1.0
 10
11.9935328282
 20
7.8968455635
 30
0.0
 10
11.9992529809
 20
7.8754976627
 30
0.0
 10
12.0115827556
 20
7.860581703
 30
0.0
 10
12.0305556673
 20
7.8523332403
 30
0.0
  0
SPLINE
  5
326
100
AcDbEntity
  8
0
100
AcDbSpline
 62
7
  6
CONTINUOUS
 70
0
 71
3
 72
8
 73
4
 74
0
 42
0.0000001
 43
0.0000001
 44
0.0000000001
 40
0.0
 40
0.0
 40
0.0
 40
0.0
 40
1.0
 40
1.0
 40
1.0
 40
1.0
 10
12.0305556673
 20
7.8523332403
 30
0.0
 10
12.0459527617
 20
7.8456393623
 30
0.0
 10
12.0624841953
 20
7.8445606595
 30
0.0
 10
12.0800105461
 20
7.849256831
 30
0.0
  0
SPLINE
  5
327
100
AcDbEntity
  8
0
100
AcDbSpline
 62
7
  6
CONTINUOUS
 70
0
 71
3
 72
8
 73
4
 74
0
 42
0.0000001
 43
0.0000001
 44
0.0000000001
 40
0.0
 40
0.0
 40
0.0
 40
0.0
 40
1.0
 40
1.0
 40
1.0
 40
1.0
 10
12.0800105461
 20
7.849256831
 30
0.0
 10
12.098327556
 20
7.8541648591
 30
0.0
 10
12.1117965208
 20
7.863988347
 30
0.0
 10
12.1203758116
 20
7.8787513836
 30
0.0
  0
SPLINE
  5
328
100
AcDbEntity
  8
0
100
AcDbSpline
 62
7
  6
CONTINUOUS
 70
0
 71
3
 72
8
 73
4
 74
0
 42
0.0000001
 43
0.0000001
 44
0.0000000001
 40
0.0
 40
0.0
 40
0.0
 40
0.0
 40
1.0
 40
1.0
 40
1.0
 40
1.0
 10
12.1203758116
 20
7.8787513836
 30
0.0
 10
12.1289065686
 20
7.8934309046
 30
0.0
 10
12.1310231121
 20
7.9092517467
 30
0.0
 10
12.1265034866
 20
7.9261192187
 30
0.0
  0
SPLINE
  5
329
100
AcDbEntity
  8
0
100
AcDbSpline
 62
7
  6
CONTINUOUS
 70
0
 71
3
 72
8
 73
4
 74
0
 42
0.0000001
 43
0.0000001
 44
0.0000000001
 40
0.0
 40
0.0
 40
0.0
 40
0.0
 40
1.0
 40
1.0
 40
1.0
 40
1.0
 10
12.1265034866
 20
7.9261192187
 30
0.0
 10
12.1230784616
 20
7.9389015858
 30
0.0
 10
12.1157448878
 20
7.9499304824
 30
0.0
 10
12.1045992454
 20
7.9593729835
 30
0.0
  0
SPLINE
  5
32A
100
AcDbEntity
  8
0
100
AcDbSpline
 62
7
  6
CONTINUOUS
 70
0
 71
3
 72
8
 73
4
 74
0
 42
0.0000001
 43
0.0000001
 44
0.0000000001
 40
0.0
 40
0.0
 40
0.0
 40
0.0
 40
1.0
 40
1.0
 40
1.0
 40
1.0
 10
12.0757160832
 20
7.957000815
 30
0.0
 10
12.0821687644
 20
7.9550576061
 30
0.0
 10
12.0879556382
 20
7.9513823908
 30
0.0
 10
12.0930651998
 20
7.9461301834
 30
0.0
  0
SPLINE
  5
32B
100
AcDbEntity
  8
0
100
AcDbSpline
 62
7
  6
CONTINUOUS
 70
0
 71
3
 72
8
 73
4
 74
0
 42
0.0000001
 43
0.0000001
 44
0.0000000001
 40
0.0
 40
0.0
 40
0.0
 40
0.0
 40
1.0
 40
1.0
 40
1.0
 40
1.0
 10
12.0930651998
 20
7.9461301834
 30
0.0
 10
12.0980918338
 20
7.9409632188
 30
0.0
 10
12.1018081215
 20
7.9344733604
 30
0.0
 10
12.1038560747
 20
7.9268302951
 30
0.0
  0
SPLINE
  5
32C
100
AcDbEntity
  8
0
100
AcDbSpline
 62
7
  6
CONTINUOUS
 70
0
 71
3
 72
8
 73
4
 74
0
 42
0.0000001
 43
0.0000001
 44
0.0000000001
 40
0.0
 40
0.0
 40
0.0
 40
0.0
 40
1.0
 40
1.0
 40
1.0
 40
1.0
 10
12.1038560747
 20
7.9268302951
 30
0.0
 10
12.107139864
 20
7.9145750264
 30
0.0
 10
12.1058347735
 20
7.9036324612
 30
0.0
 10
12.1000670009
 20
7.8939305462
 30
0.0
  0
SPLINE
  5
32D
100
AcDbEntity
  8
0
100
AcDbSpline
 62
7
  6
CONTINUOUS
 70
0
 71
3
 72
8
 73
4
 74
0
 42
0.0000001
 43
0.0000001
 44
0.0000000001
 40
0.0
 40
0.0
 40
0.0
 40
0.0
 40
1.0
 40
1.0
 40
1.0
 40
1.0
 10
12.1000670009
 20
7.8939305462
 30
0.0
 10
12.0942492081
 20
7.8841444928
 30
0.0
 10
12.0845992401
 20
7.8774628853
 30
0.0
 10
12.0711579827
 20
7.8738613113
 30
0.0
  0
SPLINE
  5
32E
100
AcDbEntity
  8
0
100
AcDbSpline
 62
7
  6
CONTINUOUS
 70
0
 71
3
 72
8
 73
4
 74
0
 42
0.0000001
 43
0.0000001
 44
0.0000000001
 40
0.0
 40
0.0
 40
0.0
 40
0.0
 40
1.0
 40
1.0
 40
1.0
 40
1.0
 10
12.0711579827
 20
7.8738613113
 30
0.0
 10
12.0569260604
 20
7.8700478792
 30
0.0
 10
12.0444021683
 20
7.8709292544
 30
0.0
 10
12.0336969022
 20
7.8764998423
 30
0.0
  0
SPLINE
  5
32F
100
AcDbEntity
  8
0
100
AcDbSpline
 62
7
  6
CONTINUOUS
 70
0
 71
3
 72
8
 73
4
 74
0
 42
0.0000001
 43
0.0000001
 44
0.0000000001
 40
0.0
 40
0.0
 40
0.0
 40
0.0
 40
1.0
 40
1.0
 40
1.0
 40
1.0
 10
12.0336969022
 20
7.8764998423
 30
0.0
 10
12.0229022272
 20
7.882116955
 30
0.0
 10
12.0160724589
 20
7.8907385311
 30
0.0
 10
12.0130358319
 20
7.9020713775
 30
0.0
  0
SPLINE
  5
330
100
AcDbEntity
  8
0
100
AcDbSpline
 62
7
  6
CONTINUOUS
 70
0
 71
3
 72
8
 73
4
 74
0
 42
0.0000001
 43
0.0000001
 44
0.0000000001
 40
0.0
 40
0.0
 40
0.0
 40
0.0
 40
1.0
 40
1.0
 40
1.0
 40
1.0
 10
12.0130358319
 20
7.9020713775
 30
0.0
 10
12.0104935479
 20
7.9115593104
 30
0.0
 10
12.0113352265
 20
7.9205416173
 30
0.0
 10
12.0155961824
 20
7.9288864775
 30
0.0
  0
SPLINE
  5
331
100
AcDbEntity
  8
0
100
AcDbSpline
 62
7
  6
CONTINUOUS
 70
0
 71
3
 72
8
 73
4
 74
0
 42
0.0000001
 43
0.0000001
 44
0.0000000001
 40
0.0
 40
0.0
 40
0.0
 40
0.0
 40
1.0
 40
1.0
 40
1.0
 40
1.0
 10
12.0155961824
 20
7.9288864775
 30
0.0
 10
12.0198571437
 20
7.9372313482
 30
0.0
 10
12.0279516296
 20
7.9439198847
 30
0.0
 10
12.0395807841
 20
7.9490132426
 30
0.0
  0
SPLINE
  5
332
100
AcDbEntity
  8
0
100
AcDbSpline
 62
7
  6
CONTINUOUS
 70
0
 71
3
 72
8
 73
4
 74
0
 42
0.0000001
 43
0.0000001
 44
0.0000000001
 40
0.0
 40
0.0
 40
0.0
 40
0.0
 40
1.0
 40
1.0
 40
1.0
 40
1.0
 10
11.9226698509
 20
7.10862181
 30
0.0
 10
11.9077482856
 20
7.1263409196
 30
0.0
 10
11.8939360833
 20
7.1396763181
 30
0.0
 10
11.8812409496
 20
7.1488986374
 30
0.0
  0
SPLINE
  5
333
100
AcDbEntity
  8
0
100
AcDbSpline
 62
7
  6
CONTINUOUS
 70
0
 71
3
 72
8
 73
4
 74
0
 42
0.0000001
 43
0.0000001
 44
0.0000000001
 40
0.0
 40
0.0
 40
0.0
 40
0.0
 40
1.0
 40
1.0
 40
1.0
 40
1.0
 10
11.866764601
 20
7.1282242691
 30
0.0
 10
11.8822980825
 20
7.1156821533
 30
0.0
 10
11.8954732702
 20
7.1026262591
 30
0.0
 10
11.9064410551
 20
7.0890099108
 30
0.0
  0
SPLINE
  5
334
100
AcDbEntity
  8
0
100
AcDbSpline
 62
7
  6
CONTINUOUS
 70
0
 71
3
 72
8
 73
4
 74
0
 42
0.0000001
 43
0.0000001
 44
0.0000000001
 40
0.0
 40
0.0
 40
0.0
 40
0.0
 40
1.0
 40
1.0
 40
1.0
 40
1.0
 10
11.946553509
 20
7.0255208761
 30
0.0
 10
11.9577120016
 20
7.0024209403
 30
0.0
 10
11.9652643904
 20
6.9818105578
 30
0.0
 10
11.9690841721
 20
6.9634806914
 30
0.0
  0
SPLINE
  5
335
100
AcDbEntity
  8
0
100
AcDbSpline
 62
7
  6
CONTINUOUS
 70
0
 71
3
 72
8
 73
4
 74
0
 42
0.0000001
 43
0.0000001
 44
0.0000000001
 40
0.0
 40
0.0
 40
0.0
 40
0.0
 40
1.0
 40
1.0
 40
1.0
 40
1.0
 10
11.9834721916
 20
6.9918779906
 30
0.0
 10
11.9790488901
 20
7.0102973479
 30
0.0
 10
11.9714740114
 20
7.0299242049
 30
0.0
 10
11.9608257928
 20
7.0508703124
 30
0.0
  0
SPLINE
  5
336
100
AcDbEntity
  8
0
100
AcDbSpline
 62
7
  6
CONTINUOUS
 70
0
 71
3
 72
8
 73
4
 74
0
 42
0.0000001
 43
0.0000001
 44
0.0000000001
 40
0.0
 40
0.0
 40
0.0
 40
0.0
 40
1.0
 40
1.0
 40
1.0
 40
1.0
 10
11.9608257928
 20
7.0508703124
 30
0.0
 10
11.9501775777
 20
7.0718164129
 30
0.0
 10
11.9374838331
 20
7.0910304535
 30
0.0
 10
11.9226698509
 20
7.10862181
 30
0.0
  0
SPLINE
  5
337
100
AcDbEntity
  8
0
100
AcDbSpline
 62
7
  6
CONTINUOUS
 70
0
 71
3
 72
8
 73
4
 74
0
 42
0.0000001
 43
0.0000001
 44
0.0000000001
 40
0.0
 40
0.0
 40
0.0
 40
0.0
 40
1.0
 40
1.0
 40
1.0
 40
1.0
 10
11.8017336516
 20
6.9209441825
 30
0.0
 10
11.7896642898
 20
6.9293952406
 30
0.0
 10
11.7822892597
 20
6.9395556356
 30
0.0
 10
11.7796753653
 20
6.9513370501
 30
0.0
  0
SPLINE
  5
338
100
AcDbEntity
  8
0
100
AcDbSpline
 62
7
  6
CONTINUOUS
 70
0
 71
3
 72
8
 73
4
 74
0
 42
0.0000001
 43
0.0000001
 44
0.0000000001
 40
0.0
 40
0.0
 40
0.0
 40
0.0
 40
1.0
 40
1.0
 40
1.0
 40
1.0
 10
11.7796753653
 20
6.9513370501
 30
0.0
 10
11.7770396399
 20
6.9632168614
 30
0.0
 10
11.7792540599
 20
6.9739906097
 30
0.0
 10
11.7859836177
 20
6.9836014143
 30
0.0
  0
SPLINE
  5
339
100
AcDbEntity
  8
0
100
AcDbSpline
 62
7
  6
CONTINUOUS
 70
0
 71
3
 72
8
 73
4
 74
0
 42
0.0000001
 43
0.0000001
 44
0.0000000001
 40
0.0
 40
0.0
 40
0.0
 40
0.0
 40
1.0
 40
1.0
 40
1.0
 40
1.0
 10
11.7859836177
 20
6.9836014143
 30
0.0
 10
11.7916176473
 20
6.9916476424
 30
0.0
 10
11.7990395142
 20
6.9967765948
 30
0.0
 10
11.8081709376
 20
6.998876486
 30
0.0
  0
SPLINE
  5
33A
100
AcDbEntity
  8
0
100
AcDbSpline
 62
7
  6
CONTINUOUS
 70
0
 71
3
 72
8
 73
4
 74
0
 42
0.0000001
 43
0.0000001
 44
0.0000000001
 40
0.0
 40
0.0
 40
0.0
 40
0.0
 40
1.0
 40
1.0
 40
1.0
 40
1.0
 10
11.8081709376
 20
6.998876486
 30
0.0
 10
11.8173023726
 20
7.0009763797
 30
0.0
 10
11.827629124
 20
6.9990749522
 30
0.0
 10
11.839005939
 20
6.9934404504
 30
0.0
  0
SPLINE
  5
33B
100
AcDbEntity
  8
0
100
AcDbSpline
 62
7
  6
CONTINUOUS
 70
0
 71
3
 72
8
 73
4
 74
0
 42
0.0000001
 43
0.0000001
 44
0.0000000001
 40
0.0
 40
0.0
 40
0.0
 40
0.0
 40
1.0
 40
1.0
 40
1.0
 40
1.0
 10
11.8520072413
 20
7.0158138501
 30
0.0
 10
11.8372108179
 20
7.0241758712
 30
0.0
 10
11.8223912128
 20
7.0265585152
 30
0.0
 10
11.8075366487
 20
7.0230114298
 30
0.0
  0
SPLINE
  5
33C
100
AcDbEntity
  8
0
100
AcDbSpline
 62
7
  6
CONTINUOUS
 70
0
 71
3
 72
8
 73
4
 74
0
 42
0.0000001
 43
0.0000001
 44
0.0000000001
 40
0.0
 40
0.0
 40
0.0
 40
0.0
 40
1.0
 40
1.0
 40
1.0
 40
1.0
 10
11.8075366487
 20
7.0230114298
 30
0.0
 10
11.7925938721
 20
7.0194432802
 30
0.0
 10
11.7799296912
 20
7.010157437
 30
0.0
 10
11.7694441227
 20
6.9951824933
 30
0.0
  0
SPLINE
  5
33D
100
AcDbEntity
  8
0
100
AcDbSpline
 62
7
  6
CONTINUOUS
 70
0
 71
3
 72
8
 73
4
 74
0
 42
0.0000001
 43
0.0000001
 44
0.0000000001
 40
0.0
 40
0.0
 40
0.0
 40
0.0
 40
1.0
 40
1.0
 40
1.0
 40
1.0
 10
11.7694441227
 20
6.9951824933
 30
0.0
 10
11.7567675253
 20
6.977078436
 30
0.0
 10
11.7532666636
 20
6.9580454865
 30
0.0
 10
11.7591435272
 20
6.9382093834
 30
0.0
  0
SPLINE
  5
33E
100
AcDbEntity
  8
0
100
AcDbSpline
 62
7
  6
CONTINUOUS
 70
0
 71
3
 72
8
 73
4
 74
0
 42
0.0000001
 43
0.0000001
 44
0.0000000001
 40
0.0
 40
0.0
 40
0.0
 40
0.0
 40
1.0
 40
1.0
 40
1.0
 40
1.0
 10
11.7591435272
 20
6.9382093834
 30
0.0
 10
11.7639127806
 20
6.9221117828
 30
0.0
 10
11.7737126471
 20
6.9087545932
 30
0.0
 10
11.7885758443
 20
6.8983472705
 30
0.0
  0
SPLINE
  5
33F
100
AcDbEntity
  8
0
100
AcDbSpline
 62
7
  6
CONTINUOUS
 70
0
 71
3
 72
8
 73
4
 74
0
 42
0.0000001
 43
0.0000001
 44
0.0000000001
 40
0.0
 40
0.0
 40
0.0
 40
0.0
 40
1.0
 40
1.0
 40
1.0
 40
1.0
 10
11.7885758443
 20
6.8983472705
 30
0.0
 10
11.804109559
 20
6.8874704464
 30
0.0
 10
11.820292471
 20
6.8834670371
 30
0.0
 10
11.8371162749
 20
6.8863844161
 30
0.0
  0
SPLINE
  5
340
100
AcDbEntity
  8
0
100
AcDbSpline
 62
7
  6
CONTINUOUS
 70
0
 71
3
 72
8
 73
4
 74
0
 42
0.0000001
 43
0.0000001
 44
0.0000000001
 40
0.0
 40
0.0
 40
0.0
 40
0.0
 40
1.0
 40
1.0
 40
1.0
 40
1.0
 10
11.8371162749
 20
6.8863844161
 30
0.0
 10
11.8538449053
 20
6.8892852913
 30
0.0
 10
11.8673248614
 20
6.8978333662
 30
0.0
 10
11.8773409353
 20
6.9121378022
 30
0.0
  0
SPLINE
  5
341
100
AcDbEntity
  8
0
100
AcDbSpline
 62
7
  6
CONTINUOUS
 70
0
 71
3
 72
8
 73
4
 74
0
 42
0.0000001
 43
0.0000001
 44
0.0000000001
 40
0.0
 40
0.0
 40
0.0
 40
0.0
 40
1.0
 40
1.0
 40
1.0
 40
1.0
 10
11.8773409353
 20
6.9121378022
 30
0.0
 10
11.884931233
 20
6.9229778708
 30
0.0
 10
11.8886659276
 20
6.9356849523
 30
0.0
 10
11.8887350223
 20
6.9502925325
 30
0.0
  0
SPLINE
  5
342
100
AcDbEntity
  8
0
100
AcDbSpline
 62
7
  6
CONTINUOUS
 70
0
 71
3
 72
8
 73
4
 74
0
 42
0.0000001
 43
0.0000001
 44
0.0000000001
 40
0.0
 40
0.0
 40
0.0
 40
0.0
 40
1.0
 40
1.0
 40
1.0
 40
1.0
 10
11.8683520969
 20
6.9708935179
 30
0.0
 10
11.8710112161
 20
6.9647014067
 30
0.0
 10
11.8719155687
 20
6.9579060213
 30
0.0
 10
11.8711765073
 20
6.9506158162
 30
0.0
  0
SPLINE
  5
343
100
AcDbEntity
  8
0
100
AcDbSpline
 62
7
  6
CONTINUOUS
 70
0
 71
3
 72
8
 73
4
 74
0
 42
0.0000001
 43
0.0000001
 44
0.0000000001
 40
0.0
 40
0.0
 40
0.0
 40
0.0
 40
1.0
 40
1.0
 40
1.0
 40
1.0
 10
11.8711765073
 20
6.9506158162
 30
0.0
 10
11.8704494408
 20
6.9434439304
 30
0.0
 10
11.8678667045
 20
6.9364254882
 30
0.0
 10
11.8633281757
 20
6.9299437973
 30
0.0
  0
SPLINE
  5
344
100
AcDbEntity
  8
0
100
AcDbSpline
 62
7
  6
CONTINUOUS
 70
0
 71
3
 72
8
 73
4
 74
0
 42
0.0000001
 43
0.0000001
 44
0.0000000001
 40
0.0
 40
0.0
 40
0.0
 40
0.0
 40
1.0
 40
1.0
 40
1.0
 40
1.0
 10
11.8633281757
 20
6.9299437973
 30
0.0
 10
11.8560508743
 20
6.9195507339
 30
0.0
 10
11.8468294871
 20
6.9135167459
 30
0.0
 10
11.8356899363
 20
6.9116988453
 30
0.0
  0
SPLINE
  5
345
100
AcDbEntity
  8
0
100
AcDbSpline
 62
7
  6
CONTINUOUS
 70
0
 71
3
 72
8
 73
4
 74
0
 42
0.0000001
 43
0.0000001
 44
0.0000000001
 40
0.0
 40
0.0
 40
0.0
 40
0.0
 40
1.0
 40
1.0
 40
1.0
 40
1.0
 10
11.8356899363
 20
6.9116988453
 30
0.0
 10
11.8244537793
 20
6.9098651793
 30
0.0
 10
11.8131324911
 20
6.9129626291
 30
0.0
 10
11.8017336516
 20
6.9209441825
 30
0.0
  0
SPLINE
  5
346
100
AcDbEntity
  8
0
100
AcDbSpline
 62
7
  6
CONTINUOUS
 70
0
 71
3
 72
8
 73
4
 74
0
 42
0.0000001
 43
0.0000001
 44
0.0000000001
 40
0.0
 40
0.0
 40
0.0
 40
0.0
 40
1.0
 40
1.0
 40
1.0
 40
1.0
 10
9.8605442626
 20
6.9104684748
 30
0.0
 10
9.870288552
 20
6.9110533625
 30
0.0
 10
9.8815834597
 20
6.9092253467
 30
0.0
 10
9.8946170237
 20
6.9049396214
 30
0.0
  0
SPLINE
  5
347
100
AcDbEntity
  8
0
100
AcDbSpline
 62
7
  6
CONTINUOUS
 70
0
 71
3
 72
8
 73
4
 74
0
 42
0.0000001
 43
0.0000001
 44
0.0000000001
 40
0.0
 40
0.0
 40
0.0
 40
0.0
 40
1.0
 40
1.0
 40
1.0
 40
1.0
 10
9.8946170237
 20
6.9049396214
 30
0.0
 10
9.9078335885
 20
6.9005937214
 30
0.0
 10
9.9205707561
 20
6.8940848206
 30
0.0
 10
9.9329449979
 20
6.8854760159
 30
0.0
  0
SPLINE
  5
348
100
AcDbEntity
  8
0
100
AcDbSpline
 62
7
  6
CONTINUOUS
 70
0
 71
3
 72
8
 73
4
 74
0
 42
0.0000001
 43
0.0000001
 44
0.0000000001
 40
0.0
 40
0.0
 40
0.0
 40
0.0
 40
1.0
 40
1.0
 40
1.0
 40
1.0
 10
9.953502763
 20
6.8973450471
 30
0.0
 10
9.9473198855
 20
6.9025970853
 30
0.0
 10
9.939359884
 20
6.9079258126
 30
0.0
 10
9.9296516544
 20
6.9133823159
 30
0.0
  0
SPLINE
  5
349
100
AcDbEntity
  8
0
100
AcDbSpline
 62
7
  6
CONTINUOUS
 70
0
 71
3
 72
8
 73
4
 74
0
 42
0.0000001
 43
0.0000001
 44
0.0000000001
 40
0.0
 40
0.0
 40
0.0
 40
0.0
 40
1.0
 40
1.0
 40
1.0
 40
1.0
 10
9.9296516544
 20
6.9133823159
 30
0.0
 10
9.9200038053
 20
6.9188048825
 30
0.0
 10
9.9112716012
 20
6.9227425941
 30
0.0
 10
9.9033080162
 20
6.9250761719
 30
0.0
  0
SPLINE
  5
34A
100
AcDbEntity
  8
0
100
AcDbSpline
 62
7
  6
CONTINUOUS
 70
0
 71
3
 72
8
 73
4
 74
0
 42
0.0000001
 43
0.0000001
 44
0.0000000001
 40
0.0
 40
0.0
 40
0.0
 40
0.0
 40
1.0
 40
1.0
 40
1.0
 40
1.0
 10
9.8010113528
 20
7.0744283693
 30
0.0
 10
9.8033217534
 20
7.0837963472
 30
0.0
 10
9.8086370938
 20
7.0909609669
 30
0.0
 10
9.8170256062
 20
7.0958040767
 30
0.0
  0
SPLINE
  5
34B
100
AcDbEntity
  8
0
100
AcDbSpline
 62
7
  6
CONTINUOUS
 70
0
 71
3
 72
8
 73
4
 74
0
 42
0.0000001
 43
0.0000001
 44
0.0000000001
 40
0.0
 40
0.0
 40
0.0
 40
0.0
 40
1.0
 40
1.0
 40
1.0
 40
1.0
 10
9.8170256062
 20
7.0958040767
 30
0.0
 10
9.8250596808
 20
7.1004425519
 30
0.0
 10
9.8355944442
 20
7.1021139383
 30
0.0
 10
9.8483936248
 20
7.1006818212
 30
0.0
  0
SPLINE
  5
34C
100
AcDbEntity
  8
0
100
AcDbSpline
 62
7
  6
CONTINUOUS
 70
0
 71
3
 72
8
 73
4
 74
0
 42
0.0000001
 43
0.0000001
 44
0.0000000001
 40
0.0
 40
0.0
 40
0.0
 40
0.0
 40
1.0
 40
1.0
 40
1.0
 40
1.0
 10
9.8483936248
 20
7.1006818212
 30
0.0
 10
9.8611927959
 20
7.0992497051
 30
0.0
 10
9.8808471736
 20
7.0935838559
 30
0.0
 10
9.9070473978
 20
7.0836531578
 30
0.0
  0
SPLINE
  5
34D
100
AcDbEntity
  8
0
100
AcDbSpline
 62
7
  6
CONTINUOUS
 70
0
 71
3
 72
8
 73
4
 74
0
 42
0.0000001
 43
0.0000001
 44
0.0000000001
 40
0.0
 40
0.0
 40
0.0
 40
0.0
 40
1.0
 40
1.0
 40
1.0
 40
1.0
 10
9.9070473978
 20
7.0836531578
 30
0.0
 10
9.924002623
 20
7.0772266013
 30
0.0
 10
9.9381343975
 20
7.0729406518
 30
0.0
 10
9.9493793695
 20
7.0709262749
 30
0.0
  0
SPLINE
  5
34E
100
AcDbEntity
  8
0
100
AcDbSpline
 62
7
  6
CONTINUOUS
 70
0
 71
3
 72
8
 73
4
 74
0
 42
0.0000001
 43
0.0000001
 44
0.0000000001
 40
0.0
 40
0.0
 40
0.0
 40
0.0
 40
1.0
 40
1.0
 40
1.0
 40
1.0
 10
9.9493793695
 20
7.0709262749
 30
0.0
 10
9.9606243339
 20
7.0689118994
 30
0.0
 10
9.9710324739
 20
7.0686198043
 30
0.0
 10
9.9804849648
 20
7.0701720458
 30
0.0
  0
SPLINE
  5
34F
100
AcDbEntity
  8
0
100
AcDbSpline
 62
7
  6
CONTINUOUS
 70
0
 71
3
 72
8
 73
4
 74
0
 42
0.0000001
 43
0.0000001
 44
0.0000000001
 40
0.0
 40
0.0
 40
0.0
 40
0.0
 40
1.0
 40
1.0
 40
1.0
 40
1.0
 10
9.9804849648
 20
7.0701720458
 30
0.0
 10
9.9862846813
 20
7.0711244466
 30
0.0
 10
9.991724393
 20
7.0731623433
 30
0.0
 10
9.9966683313
 20
7.0763317968
 30
0.0
  0
SPLINE
  5
350
100
AcDbEntity
  8
0
100
AcDbSpline
 62
7
  6
CONTINUOUS
 70
0
 71
3
 72
8
 73
4
 74
0
 42
0.0000001
 43
0.0000001
 44
0.0000000001
 40
0.0
 40
0.0
 40
0.0
 40
0.0
 40
1.0
 40
1.0
 40
1.0
 40
1.0
 10
9.9591755086
 20
7.094067995
 30
0.0
 10
9.9540305086
 20
7.0942481535
 30
0.0
 10
9.9484263095
 20
7.0949508187
 30
0.0
 10
9.9425195461
 20
7.0963825667
 30
0.0
  0
SPLINE
  5
351
100
AcDbEntity
  8
0
100
AcDbSpline
 62
7
  6
CONTINUOUS
 70
0
 71
3
 72
8
 73
4
 74
0
 42
0.0000001
 43
0.0000001
 44
0.0000000001
 40
0.0
 40
0.0
 40
0.0
 40
0.0
 40
1.0
 40
1.0
 40
1.0
 40
1.0
 10
9.9425195461
 20
7.0963825667
 30
0.0
 10
9.9367038455
 20
7.0977922419
 30
0.0
 10
9.9246037719
 20
7.1018334026
 30
0.0
 10
9.906480379
 20
7.1083723728
 30
0.0
  0
SPLINE
  5
352
100
AcDbEntity
  8
0
100
AcDbSpline
 62
7
  6
CONTINUOUS
 70
0
 71
3
 72
8
 73
4
 74
0
 42
0.0000001
 43
0.0000001
 44
0.0000000001
 40
0.0
 40
0.0
 40
0.0
 40
0.0
 40
1.0
 40
1.0
 40
1.0
 40
1.0
 10
9.906480379
 20
7.1083723728
 30
0.0
 10
9.8848077205
 20
7.1161919279
 30
0.0
 10
9.8683714015
 20
7.1211952512
 30
0.0
 10
9.8571176021
 20
7.1235586653
 30
0.0
  0
SPLINE
  5
353
100
AcDbEntity
  8
0
100
AcDbSpline
 62
7
  6
CONTINUOUS
 70
0
 71
3
 72
8
 73
4
 74
0
 42
0.0000001
 43
0.0000001
 44
0.0000000001
 40
0.0
 40
0.0
 40
0.0
 40
0.0
 40
1.0
 40
1.0
 40
1.0
 40
1.0
 10
9.8571176021
 20
7.1235586653
 30
0.0
 10
9.8459630557
 20
7.1259012352
 30
0.0
 10
9.8361456588
 20
7.1265343821
 30
0.0
 10
9.8277709072
 20
7.1255082799
 30
0.0
  0
SPLINE
  5
354
100
AcDbEntity
  8
0
100
AcDbSpline
 62
7
  6
CONTINUOUS
 70
0
 71
3
 72
8
 73
4
 74
0
 42
0.0000001
 43
0.0000001
 44
0.0000000001
 40
0.0
 40
0.0
 40
0.0
 40
0.0
 40
1.0
 40
1.0
 40
1.0
 40
1.0
 10
9.8277709072
 20
7.1255082799
 30
0.0
 10
9.8195207123
 20
7.1244974388
 30
0.0
 10
9.8118495649
 20
7.1219588889
 30
0.0
 10
9.8048788238
 20
7.1179343296
 30
0.0
  0
SPLINE
  5
355
100
AcDbEntity
  8
0
100
AcDbSpline
 62
7
  6
CONTINUOUS
 70
0
 71
3
 72
8
 73
4
 74
0
 42
0.0000001
 43
0.0000001
 44
0.0000000001
 40
0.0
 40
0.0
 40
0.0
 40
0.0
 40
1.0
 40
1.0
 40
1.0
 40
1.0
 10
9.8048788238
 20
7.1179343296
 30
0.0
 10
9.7912917999
 20
7.1100898577
 30
0.0
 10
9.7826281661
 20
7.0986291273
 30
0.0
 10
9.779006069
 20
7.0836204024
 30
0.0
  0
SPLINE
  5
356
100
AcDbEntity
  8
0
100
AcDbSpline
 62
7
  6
CONTINUOUS
 70
0
 71
3
 72
8
 73
4
 74
0
 42
0.0000001
 43
0.0000001
 44
0.0000000001
 40
0.0
 40
0.0
 40
0.0
 40
0.0
 40
1.0
 40
1.0
 40
1.0
 40
1.0
 10
9.779006069
 20
7.0836204024
 30
0.0
 10
9.7753839659
 20
7.0686116527
 30
0.0
 10
9.778416021
 20
7.0527187621
 30
0.0
 10
9.7879658176
 20
7.0361780292
 30
0.0
  0
SPLINE
  5
357
100
AcDbEntity
  8
0
100
AcDbSpline
 62
7
  6
CONTINUOUS
 70
0
 71
3
 72
8
 73
4
 74
0
 42
0.0000001
 43
0.0000001
 44
0.0000000001
 40
0.0
 40
0.0
 40
0.0
 40
0.0
 40
1.0
 40
1.0
 40
1.0
 40
1.0
 10
9.7879658176
 20
7.0361780292
 30
0.0
 10
9.7975156141
 20
7.0196372963
 30
0.0
 10
9.8094587244
 20
7.0090467474
 30
0.0
 10
9.823544256
 20
7.0042275099
 30
0.0
  0
SPLINE
  5
358
100
AcDbEntity
  8
0
100
AcDbSpline
 62
7
  6
CONTINUOUS
 70
0
 71
3
 72
8
 73
4
 74
0
 42
0.0000001
 43
0.0000001
 44
0.0000000001
 40
0.0
 40
0.0
 40
0.0
 40
0.0
 40
1.0
 40
1.0
 40
1.0
 40
1.0
 10
9.823544256
 20
7.0042275099
 30
0.0
 10
9.837727156
 20
6.9993749587
 30
0.0
 10
9.8534069311
 20
7.0008661933
 30
0.0
 10
9.8705299125
 20
7.0088617897
 30
0.0
  0
SPLINE
  5
359
100
AcDbEntity
  8
0
100
AcDbSpline
 62
7
  6
CONTINUOUS
 70
0
 71
3
 72
8
 73
4
 74
0
 42
0.0000001
 43
0.0000001
 44
0.0000000001
 40
0.0
 40
0.0
 40
0.0
 40
0.0
 40
1.0
 40
1.0
 40
1.0
 40
1.0
 10
9.8601553552
 20
7.0320152234
 30
0.0
 10
9.8492857278
 20
7.0257396411
 30
0.0
 10
9.8389373219
 20
7.0240183204
 30
0.0
 10
9.829246548
 20
7.0266149555
 30
0.0
  0
SPLINE
  5
35A
100
AcDbEntity
  8
0
100
AcDbSpline
 62
7
  6
CONTINUOUS
 70
0
 71
3
 72
8
 73
4
 74
0
 42
0.0000001
 43
0.0000001
 44
0.0000000001
 40
0.0
 40
0.0
 40
0.0
 40
0.0
 40
1.0
 40
1.0
 40
1.0
 40
1.0
 10
9.829246548
 20
7.0266149555
 30
0.0
 10
9.8195557904
 20
7.0292115861
 30
0.0
 10
9.8117772548
 20
7.0355902602
 30
0.0
 10
9.8058427302
 20
7.0458691582
 30
0.0
  0
SPLINE
  5
35B
100
AcDbEntity
  8
0
100
AcDbSpline
 62
7
  6
CONTINUOUS
 70
0
 71
3
 72
8
 73
4
 74
0
 42
0.0000001
 43
0.0000001
 44
0.0000000001
 40
0.0
 40
0.0
 40
0.0
 40
0.0
 40
1.0
 40
1.0
 40
1.0
 40
1.0
 10
9.8058427302
 20
7.0458691582
 30
0.0
 10
9.8002492873
 20
7.0555572855
 30
0.0
 10
9.7987009501
 20
7.0650603827
 30
0.0
 10
9.8010113528
 20
7.0744283693
 30
0.0
  0
SPLINE
  5
35C
100
AcDbEntity
  8
0
100
AcDbSpline
 62
7
  6
CONTINUOUS
 70
0
 71
3
 72
8
 73
4
 74
0
 42
0.0000001
 43
0.0000001
 44
0.0000000001
 40
0.0
 40
0.0
 40
0.0
 40
0.0
 40
1.0
 40
1.0
 40
1.0
 40
1.0
 10
9.8925688271
 20
7.2220645339
 30
0.0
 10
9.8991034496
 20
7.2384978467
 30
0.0
 10
9.8974392276
 20
7.2550229282
 30
0.0
 10
9.8877530079
 20
7.2717999528
 30
0.0
  0
SPLINE
  5
35D
100
AcDbEntity
  8
0
100
AcDbSpline
 62
7
  6
CONTINUOUS
 70
0
 71
3
 72
8
 73
4
 74
0
 42
0.0000001
 43
0.0000001
 44
0.0000000001
 40
0.0
 40
0.0
 40
0.0
 40
0.0
 40
1.0
 40
1.0
 40
1.0
 40
1.0
 10
9.8877530079
 20
7.2717999528
 30
0.0
 10
9.8804542284
 20
7.2844418098
 30
0.0
 10
9.8710751347
 20
7.2930470405
 30
0.0
 10
9.8594476709
 20
7.2973610463
 30
0.0
  0
SPLINE
  5
35E
100
AcDbEntity
  8
0
100
AcDbSpline
 62
7
  6
CONTINUOUS
 70
0
 71
3
 72
8
 73
4
 74
0
 42
0.0000001
 43
0.0000001
 44
0.0000000001
 40
0.0
 40
0.0
 40
0.0
 40
0.0
 40
1.0
 40
1.0
 40
1.0
 40
1.0
 10
9.8594476709
 20
7.2973610463
 30
0.0
 10
9.8478201726
 20
7.3016750649
 30
0.0
 10
9.8346348956
 20
7.3024116823
 30
0.0
 10
9.8196685485
 20
7.2993710992
 30
0.0
  0
SPLINE
  5
35F
100
AcDbEntity
  8
0
100
AcDbSpline
 62
7
  6
CONTINUOUS
 70
0
 71
3
 72
8
 73
4
 74
0
 42
0.0000001
 43
0.0000001
 44
0.0000000001
 40
0.0
 40
0.0
 40
0.0
 40
0.0
 40
1.0
 40
1.0
 40
1.0
 40
1.0
 10
9.8196685485
 20
7.2993710992
 30
0.0
 10
9.8047443887
 20
7.296339087
 30
0.0
 10
9.7870939698
 20
7.2889841691
 30
0.0
 10
9.7667725017
 20
7.277251564
 30
0.0
  0
SPLINE
  5
360
100
AcDbEntity
  8
0
100
AcDbSpline
 62
7
  6
CONTINUOUS
 70
0
 71
3
 72
8
 73
4
 74
0
 42
0.0000001
 43
0.0000001
 44
0.0000000001
 40
0.0
 40
0.0
 40
0.0
 40
0.0
 40
1.0
 40
1.0
 40
1.0
 40
1.0
 10
9.7667725017
 20
7.277251564
 30
0.0
 10
9.7496410291
 20
7.2673607037
 30
0.0
 10
9.7368043561
 20
7.2582165857
 30
0.0
 10
9.7281442934
 20
7.249751027
 30
0.0
  0
SPLINE
  5
361
100
AcDbEntity
  8
0
100
AcDbSpline
 62
7
  6
CONTINUOUS
 70
0
 71
3
 72
8
 73
4
 74
0
 42
0.0000001
 43
0.0000001
 44
0.0000000001
 40
0.0
 40
0.0
 40
0.0
 40
0.0
 40
1.0
 40
1.0
 40
1.0
 40
1.0
 10
9.7281442934
 20
7.249751027
 30
0.0
 10
9.7194842389
 20
7.2412854764
 30
0.0
 10
9.7130921866
 20
7.2327115501
 30
0.0
 10
9.7086464726
 20
7.2241029609
 30
0.0
  0
SPLINE
  5
362
100
AcDbEntity
  8
0
100
AcDbSpline
 62
7
  6
CONTINUOUS
 70
0
 71
3
 72
8
 73
4
 74
0
 42
0.0000001
 43
0.0000001
 44
0.0000000001
 40
0.0
 40
0.0
 40
0.0
 40
0.0
 40
1.0
 40
1.0
 40
1.0
 40
1.0
 10
9.7086464726
 20
7.2241029609
 30
0.0
 10
9.7041667978
 20
7.2154286106
 30
0.0
 10
9.702192578
 20
7.2065697649
 30
0.0
 10
9.7024686835
 20
7.1974172531
 30
0.0
  0
SPLINE
  5
363
100
AcDbEntity
  8
0
100
AcDbSpline
 62
7
  6
CONTINUOUS
 70
0
 71
3
 72
8
 73
4
 74
0
 42
0.0000001
 43
0.0000001
 44
0.0000000001
 40
0.0
 40
0.0
 40
0.0
 40
0.0
 40
1.0
 40
1.0
 40
1.0
 40
1.0
 10
9.7024686835
 20
7.1974172531
 30
0.0
 10
9.7027484153
 20
7.1881445345
 30
0.0
 10
9.7055647207
 20
7.1789009155
 30
0.0
 10
9.7108853294
 20
7.169685351
 30
0.0
  0
SPLINE
  5
364
100
AcDbEntity
  8
0
100
AcDbSpline
 62
7
  6
CONTINUOUS
 70
0
 71
3
 72
8
 73
4
 74
0
 42
0.0000001
 43
0.0000001
 44
0.0000000001
 40
0.0
 40
0.0
 40
0.0
 40
0.0
 40
1.0
 40
1.0
 40
1.0
 40
1.0
 10
9.7108853294
 20
7.169685351
 30
0.0
 10
9.713398645
 20
7.1653321606
 30
0.0
 10
9.7161726469
 20
7.1614657017
 30
0.0
 10
9.7192004769
 20
7.1580900306
 30
0.0
  0
SPLINE
  5
365
100
AcDbEntity
  8
0
100
AcDbSpline
 62
7
  6
CONTINUOUS
 70
0
 71
3
 72
8
 73
4
 74
0
 42
0.0000001
 43
0.0000001
 44
0.0000000001
 40
0.0
 40
0.0
 40
0.0
 40
0.0
 40
1.0
 40
1.0
 40
1.0
 40
1.0
 10
9.7192004769
 20
7.1580900306
 30
0.0
 10
9.7249655844
 20
7.15166262
 30
0.0
 10
9.7316509117
 20
7.1470144946
 30
0.0
 10
9.7392091184
 20
7.1441736542
 30
0.0
  0
SPLINE
  5
366
100
AcDbEntity
  8
0
100
AcDbSpline
 62
7
  6
CONTINUOUS
 70
0
 71
3
 72
8
 73
4
 74
0
 42
0.0000001
 43
0.0000001
 44
0.0000000001
 40
0.0
 40
0.0
 40
0.0
 40
0.0
 40
1.0
 40
1.0
 40
1.0
 40
1.0
 10
9.7392091184
 20
7.1441736542
 30
0.0
 10
9.750818156
 20
7.1398102615
 30
0.0
 10
9.764003442
 20
7.1390736493
 30
0.0
 10
9.7789827957
 20
7.1420508729
 30
0.0
  0
SPLINE
  5
367
100
AcDbEntity
  8
0
100
AcDbSpline
 62
7
  6
CONTINUOUS
 70
0
 71
3
 72
8
 73
4
 74
0
 42
0.0000001
 43
0.0000001
 44
0.0000000001
 40
0.0
 40
0.0
 40
0.0
 40
0.0
 40
1.0
 40
1.0
 40
1.0
 40
1.0
 10
9.7789827957
 20
7.1420508729
 30
0.0
 10
9.7939621605
 20
7.1450280988
 30
0.0
 10
9.8115443574
 20
7.1525011566
 30
0.0
 10
9.8319839766
 20
7.1643019762
 30
0.0
  0
SPLINE
  5
368
100
AcDbEntity
  8
0
100
AcDbSpline
 62
7
  6
CONTINUOUS
 70
0
 71
3
 72
8
 73
4
 74
0
 42
0.0000001
 43
0.0000001
 44
0.0000000001
 40
0.0
 40
0.0
 40
0.0
 40
0.0
 40
1.0
 40
1.0
 40
1.0
 40
1.0
 10
9.8319839766
 20
7.1643019762
 30
0.0
 10
9.8645928485
 20
7.1831287172
 30
0.0
 10
9.8847119401
 20
7.2023059816
 30
0.0
 10
9.8925688271
 20
7.2220645339
 30
0.0
  0
SPLINE
  5
369
100
AcDbEntity
  8
0
100
AcDbSpline
 62
7
  6
CONTINUOUS
 70
0
 71
3
 72
8
 73
4
 74
0
 42
0.0000001
 43
0.0000001
 44
0.0000000001
 40
0.0
 40
0.0
 40
0.0
 40
0.0
 40
1.0
 40
1.0
 40
1.0
 40
1.0
 10
9.6327739011
 20
7.9505387535
 30
0.0
 10
9.6397287596
 20
7.9436887015
 30
0.0
 10
9.6459280476
 20
7.934071768
 30
0.0
 10
9.6514642896
 20
7.9215182324
 30
0.0
  0
SPLINE
  5
36A
100
AcDbEntity
  8
0
100
AcDbSpline
 62
7
  6
CONTINUOUS
 70
0
 71
3
 72
8
 73
4
 74
0
 42
0.0000001
 43
0.0000001
 44
0.0000000001
 40
0.0
 40
0.0
 40
0.0
 40
0.0
 40
1.0
 40
1.0
 40
1.0
 40
1.0
 10
9.6514642896
 20
7.9215182324
 30
0.0
 10
9.6570782644
 20
7.9087884359
 30
0.0
 10
9.6607640372
 20
7.8949675709
 30
0.0
 10
9.6626464325
 20
7.8800113025
 30
0.0
  0
SPLINE
  5
36B
100
AcDbEntity
  8
0
100
AcDbSpline
 62
7
  6
CONTINUOUS
 70
0
 71
3
 72
8
 73
4
 74
0
 42
0.0000001
 43
0.0000001
 44
0.0000000001
 40
0.0
 40
0.0
 40
0.0
 40
0.0
 40
1.0
 40
1.0
 40
1.0
 40
1.0
 10
9.6852226714
 20
7.8726758378
 30
0.0
 10
9.6849885438
 20
7.8807849108
 30
0.0
 10
9.6836222793
 20
7.8902659592
 30
0.0
 10
9.681181178
 20
7.9011316932
 30
0.0
  0
SPLINE
  5
36C
100
AcDbEntity
  8
0
100
AcDbSpline
 62
7
  6
CONTINUOUS
 70
0
 71
3
 72
8
 73
4
 74
0
 42
0.0000001
 43
0.0000001
 44
0.0000000001
 40
0.0
 40
0.0
 40
0.0
 40
0.0
 40
1.0
 40
1.0
 40
1.0
 40
1.0
 10
9.681181178
 20
7.9011316932
 30
0.0
 10
9.6787552591
 20
7.9119298475
 30
0.0
 10
9.6758385641
 20
7.9210539832
 30
0.0
 10
9.6722440719
 20
7.9285335485
 30
0.0
  0
SPLINE
  5
36D
100
AcDbEntity
  8
0
100
AcDbSpline
 62
7
  6
CONTINUOUS
 70
0
 71
3
 72
8
 73
4
 74
0
 42
0.0000001
 43
0.0000001
 44
0.0000000001
 40
0.0
 40
0.0
 40
0.0
 40
0.0
 40
1.0
 40
1.0
 40
1.0
 40
1.0
 10
9.6807916854
 20
8.0983222978
 30
0.0
 10
9.6877465458
 20
8.0914722515
 30
0.0
 10
9.6939458319
 20
8.0818553123
 30
0.0
 10
9.6994820739
 20
8.0693017767
 30
0.0
  0
SPLINE
  5
36E
100
AcDbEntity
  8
0
100
AcDbSpline
 62
7
  6
CONTINUOUS
 70
0
 71
3
 72
8
 73
4
 74
0
 42
0.0000001
 43
0.0000001
 44
0.0000000001
 40
0.0
 40
0.0
 40
0.0
 40
0.0
 40
1.0
 40
1.0
 40
1.0
 40
1.0
 10
9.6994820739
 20
8.0693017767
 30
0.0
 10
9.7050960487
 20
8.0565719802
 30
0.0
 10
9.7087818206
 20
8.0427511124
 30
0.0
 10
9.7106642168
 20
8.0277948468
 30
0.0
  0
SPLINE
  5
36F
100
AcDbEntity
  8
0
100
AcDbSpline
 62
7
  6
CONTINUOUS
 70
0
 71
3
 72
8
 73
4
 74
0
 42
0.0000001
 43
0.0000001
 44
0.0000000001
 40
0.0
 40
0.0
 40
0.0
 40
0.0
 40
1.0
 40
1.0
 40
1.0
 40
1.0
 10
9.7332404557
 20
8.0204593821
 30
0.0
 10
9.7330063282
 20
8.0285684551
 30
0.0
 10
9.7316400664
 20
8.038049512
 30
0.0
 10
9.7291989615
 20
8.0489152374
 30
0.0
  0
SPLINE
  5
370
100
AcDbEntity
  8
0
100
AcDbSpline
 62
7
  6
CONTINUOUS
 70
0
 71
3
 72
8
 73
4
 74
0
 42
0.0000001
 43
0.0000001
 44
0.0000000001
 40
0.0
 40
0.0
 40
0.0
 40
0.0
 40
1.0
 40
1.0
 40
1.0
 40
1.0
 10
9.7291989615
 20
8.0489152374
 30
0.0
 10
9.7268324158
 20
8.0594490889
 30
0.0
 10
9.7239988337
 20
8.0683898967
 30
0.0
 10
9.720524572
 20
8.0757649307
 30
0.0
  0
SPLINE
  5
371
100
AcDbEntity
  8
0
100
AcDbSpline
 62
7
  6
CONTINUOUS
 70
0
 71
3
 72
8
 73
4
 74
0
 42
0.0000001
 43
0.0000001
 44
0.0000000001
 40
0.0
 40
0.0
 40
0.0
 40
0.0
 40
1.0
 40
1.0
 40
1.0
 40
1.0
 10
9.8175190451
 20
8.165498202
 30
0.0
 10
9.8131657186
 20
8.1706422962
 30
0.0
 10
9.8103141073
 20
8.1768763598
 30
0.0
 10
9.8088894198
 20
8.1840640971
 30
0.0
  0
SPLINE
  5
372
100
AcDbEntity
  8
0
100
AcDbSpline
 62
7
  6
CONTINUOUS
 70
0
 71
3
 72
8
 73
4
 74
0
 42
0.0000001
 43
0.0000001
 44
0.0000000001
 40
0.0
 40
0.0
 40
0.0
 40
0.0
 40
1.0
 40
1.0
 40
1.0
 40
1.0
 10
9.8088894198
 20
8.1840640971
 30
0.0
 10
9.8074878588
 20
8.1911351577
 30
0.0
 10
9.8079057479
 20
8.1986020464
 30
0.0
 10
9.8103509016
 20
8.2061274556
 30
0.0
  0
SPLINE
  5
373
100
AcDbEntity
  8
0
100
AcDbSpline
 62
7
  6
CONTINUOUS
 70
0
 71
3
 72
8
 73
4
 74
0
 42
0.0000001
 43
0.0000001
 44
0.0000000001
 40
0.0
 40
0.0
 40
0.0
 40
0.0
 40
1.0
 40
1.0
 40
1.0
 40
1.0
 10
9.8103509016
 20
8.2061274556
 30
0.0
 10
9.8142715818
 20
8.2181940686
 30
0.0
 10
9.8213258783
 20
8.2266604954
 30
0.0
 10
9.831447181
 20
8.2316558518
 30
0.0
  0
SPLINE
  5
374
100
AcDbEntity
  8
0
100
AcDbSpline
 62
7
  6
CONTINUOUS
 70
0
 71
3
 72
8
 73
4
 74
0
 42
0.0000001
 43
0.0000001
 44
0.0000000001
 40
0.0
 40
0.0
 40
0.0
 40
0.0
 40
1.0
 40
1.0
 40
1.0
 40
1.0
 10
9.831447181
 20
8.2316558518
 30
0.0
 10
9.8416562593
 20
8.2366945297
 30
0.0
 10
9.8533884603
 20
8.2370424254
 30
0.0
 10
9.8666228051
 20
8.2327423261
 30
0.0
  0
SPLINE
  5
375
100
AcDbEntity
  8
0
100
AcDbSpline
 62
7
  6
CONTINUOUS
 70
0
 71
3
 72
8
 73
4
 74
0
 42
0.0000001
 43
0.0000001
 44
0.0000000001
 40
0.0
 40
0.0
 40
0.0
 40
0.0
 40
1.0
 40
1.0
 40
1.0
 40
1.0
 10
9.8666228051
 20
8.2327423261
 30
0.0
 10
9.8806356435
 20
8.2281892789
 30
0.0
 10
9.8906590392
 20
8.2206291176
 30
0.0
 10
9.8966032794
 20
8.2101266914
 30
0.0
  0
SPLINE
  5
376
100
AcDbEntity
  8
0
100
AcDbSpline
 62
7
  6
CONTINUOUS
 70
0
 71
3
 72
8
 73
4
 74
0
 42
0.0000001
 43
0.0000001
 44
0.0000000001
 40
0.0
 40
0.0
 40
0.0
 40
0.0
 40
1.0
 40
1.0
 40
1.0
 40
1.0
 10
9.8966032794
 20
8.2101266914
 30
0.0
 10
9.9025971412
 20
8.1995365925
 30
0.0
 10
9.9036294199
 20
8.188586172
 30
0.0
 10
9.9000038465
 20
8.1774278043
 30
0.0
  0
SPLINE
  5
377
100
AcDbEntity
  8
0
100
AcDbSpline
 62
7
  6
CONTINUOUS
 70
0
 71
3
 72
8
 73
4
 74
0
 42
0.0000001
 43
0.0000001
 44
0.0000000001
 40
0.0
 40
0.0
 40
0.0
 40
0.0
 40
1.0
 40
1.0
 40
1.0
 40
1.0
 10
9.9000038465
 20
8.1774278043
 30
0.0
 10
9.8969684793
 20
8.1680859045
 30
0.0
 10
9.8913704733
 20
8.161011119
 30
0.0
 10
9.8832520003
 20
8.1563332099
 30
0.0
  0
SPLINE
  5
378
100
AcDbEntity
  8
0
100
AcDbSpline
 62
7
  6
CONTINUOUS
 70
0
 71
3
 72
8
 73
4
 74
0
 42
0.0000001
 43
0.0000001
 44
0.0000000001
 40
0.0
 40
0.0
 40
0.0
 40
0.0
 40
1.0
 40
1.0
 40
1.0
 40
1.0
 10
9.8832520003
 20
8.1563332099
 30
0.0
 10
9.8751335095
 20
8.1516552904
 30
0.0
 10
9.864702068
 20
8.150454396
 30
0.0
 10
9.8521750006
 20
8.1525164494
 30
0.0
  0
SPLINE
  5
379
100
AcDbEntity
  8
0
100
AcDbSpline
 62
7
  6
CONTINUOUS
 70
0
 71
3
 72
8
 73
4
 74
0
 42
0.0000001
 43
0.0000001
 44
0.0000000001
 40
0.0
 40
0.0
 40
0.0
 40
0.0
 40
1.0
 40
1.0
 40
1.0
 40
1.0
 10
9.8462831387
 20
8.1273194367
 30
0.0
 10
9.8628778507
 20
8.123648863
 30
0.0
 10
9.8777465273
 20
8.1257031623
 30
0.0
 10
9.8909149502
 20
8.1334383113
 30
0.0
  0
SPLINE
  5
37A
100
AcDbEntity
  8
0
100
AcDbSpline
 62
7
  6
CONTINUOUS
 70
0
 71
3
 72
8
 73
4
 74
0
 42
0.0000001
 43
0.0000001
 44
0.0000000001
 40
0.0
 40
0.0
 40
0.0
 40
0.0
 40
1.0
 40
1.0
 40
1.0
 40
1.0
 10
9.8909149502
 20
8.1334383113
 30
0.0
 10
9.9041615726
 20
8.1412193947
 30
0.0
 10
9.9135574675
 20
8.1538021276
 30
0.0
 10
9.919206624
 20
8.1711884436
 30
0.0
  0
SPLINE
  5
37B
100
AcDbEntity
  8
0
100
AcDbSpline
 62
7
  6
CONTINUOUS
 70
0
 71
3
 72
8
 73
4
 74
0
 42
0.0000001
 43
0.0000001
 44
0.0000000001
 40
0.0
 40
0.0
 40
0.0
 40
0.0
 40
1.0
 40
1.0
 40
1.0
 40
1.0
 10
9.919206624
 20
8.1711884436
 30
0.0
 10
9.9260361856
 20
8.1922076728
 30
0.0
 10
9.9238193878
 20
8.2114325485
 30
0.0
 10
9.9123997912
 20
8.228683674
 30
0.0
  0
SPLINE
  5
37C
100
AcDbEntity
  8
0
100
AcDbSpline
 62
7
  6
CONTINUOUS
 70
0
 71
3
 72
8
 73
4
 74
0
 42
0.0000001
 43
0.0000001
 44
0.0000000001
 40
0.0
 40
0.0
 40
0.0
 40
0.0
 40
1.0
 40
1.0
 40
1.0
 40
1.0
 10
9.9123997912
 20
8.228683674
 30
0.0
 10
9.9031324499
 20
8.2426834741
 30
0.0
 10
9.8898555267
 20
8.2525918144
 30
0.0
 10
9.8725989738
 20
8.2581988083
 30
0.0
  0
SPLINE
  5
37D
100
AcDbEntity
  8
0
100
AcDbSpline
 62
7
  6
CONTINUOUS
 70
0
 71
3
 72
8
 73
4
 74
0
 42
0.0000001
 43
0.0000001
 44
0.0000000001
 40
0.0
 40
0.0
 40
0.0
 40
0.0
 40
1.0
 40
1.0
 40
1.0
 40
1.0
 10
9.8725989738
 20
8.2581988083
 30
0.0
 10
9.854563933
 20
8.2640587483
 30
0.0
 10
9.837917661
 20
8.2631558248
 30
0.0
 10
9.8226819175
 20
8.2554471171
 30
0.0
  0
SPLINE
  5
37E
100
AcDbEntity
  8
0
100
AcDbSpline
 62
7
  6
CONTINUOUS
 70
0
 71
3
 72
8
 73
4
 74
0
 42
0.0000001
 43
0.0000001
 44
0.0000000001
 40
0.0
 40
0.0
 40
0.0
 40
0.0
 40
1.0
 40
1.0
 40
1.0
 40
1.0
 10
9.8226819175
 20
8.2554471171
 30
0.0
 10
9.8075324087
 20
8.2477820409
 30
0.0
 10
9.7971406705
 20
8.2356662957
 30
0.0
 10
9.7917444637
 20
8.2190584789
 30
0.0
  0
SPLINE
  5
37F
100
AcDbEntity
  8
0
100
AcDbSpline
 62
7
  6
CONTINUOUS
 70
0
 71
3
 72
8
 73
4
 74
0
 42
0.0000001
 43
0.0000001
 44
0.0000000001
 40
0.0
 40
0.0
 40
0.0
 40
0.0
 40
1.0
 40
1.0
 40
1.0
 40
1.0
 10
9.7917444637
 20
8.2190584789
 30
0.0
 10
9.7876551553
 20
8.2064728816
 30
0.0
 10
9.7877988402
 20
8.1932291201
 30
0.0
 10
9.7920036114
 20
8.1792396316
 30
0.0
  0
SPLINE
  5
380
100
AcDbEntity
  8
0
100
AcDbSpline
 62
7
  6
CONTINUOUS
 70
0
 71
3
 72
8
 73
4
 74
0
 42
0.0000001
 43
0.0000001
 44
0.0000000001
 40
0.0
 40
0.0
 40
0.0
 40
0.0
 40
1.0
 40
1.0
 40
1.0
 40
1.0
 10
11.0406639304
 20
8.819308925
 30
0.0
 10
11.0330240932
 20
8.8302229765
 30
0.0
 10
11.0292041745
 20
8.8520510796
 30
0.0
 10
11.0292041745
 20
8.8849296632
 30
0.0
  0
SPLINE
  5
381
100
AcDbEntity
  8
0
100
AcDbSpline
 62
7
  6
CONTINUOUS
 70
0
 71
3
 72
8
 73
4
 74
0
 42
0.0000001
 43
0.0000001
 44
0.0000000001
 40
0.0
 40
0.0
 40
0.0
 40
0.0
 40
1.0
 40
1.0
 40
1.0
 40
1.0
 10
11.0691768851
 20
8.8030742723
 30
0.0
 10
11.0578535524
 20
8.8030742723
 30
0.0
 10
11.0483037677
 20
8.8083948734
 30
0.0
 10
11.0406639304
 20
8.819308925
 30
0.0
  0
SPLINE
  5
382
100
AcDbEntity
  8
0
100
AcDbSpline
 62
7
  6
CONTINUOUS
 70
0
 71
3
 72
8
 73
4
 74
0
 42
0.0000001
 43
0.0000001
 44
0.0000000001
 40
0.0
 40
0.0
 40
0.0
 40
0.0
 40
1.0
 40
1.0
 40
1.0
 40
1.0
 10
11.0975534167
 20
8.819445351
 30
0.0
 10
11.0949621683
 20
8.8157435682
 30
0.0
 10
11.0921511991
 20
8.8126695629
 30
0.0
 10
11.0891311542
 20
8.8102233352
 30
0.0
  0
SPLINE
  5
383
100
AcDbEntity
  8
0
100
AcDbSpline
 62
7
  6
CONTINUOUS
 70
0
 71
3
 72
8
 73
4
 74
0
 42
0.0000001
 43
0.0000001
 44
0.0000000001
 40
0.0
 40
0.0
 40
0.0
 40
0.0
 40
1.0
 40
1.0
 40
1.0
 40
1.0
 10
11.0891311542
 20
8.8102233352
 30
0.0
 10
11.0832471313
 20
8.8054572935
 30
0.0
 10
11.0765694651
 20
8.8030742723
 30
0.0
 10
11.0691768851
 20
8.8030742723
 30
0.0
  0
SPLINE
  5
384
100
AcDbEntity
  8
0
100
AcDbSpline
 62
7
  6
CONTINUOUS
 70
0
 71
3
 72
8
 73
4
 74
0
 42
0.0000001
 43
0.0000001
 44
0.0000000001
 40
0.0
 40
0.0
 40
0.0
 40
0.0
 40
1.0
 40
1.0
 40
1.0
 40
1.0
 10
11.1091496196
 20
8.8849296632
 30
0.0
 10
11.1091496196
 20
8.8521875086
 30
0.0
 10
11.105193254
 20
8.8303594026
 30
0.0
 10
11.0975534167
 20
8.819445351
 30
0.0
  0
SPLINE
  5
385
100
AcDbEntity
  8
0
100
AcDbSpline
 62
7
  6
CONTINUOUS
 70
0
 71
3
 72
8
 73
4
 74
0
 42
0.0000001
 43
0.0000001
 44
0.0000000001
 40
0.0
 40
0.0
 40
0.0
 40
0.0
 40
1.0
 40
1.0
 40
1.0
 40
1.0
 10
11.0975212694
 20
8.9505278217
 30
0.0
 10
11.105193254
 20
8.939636344
 30
0.0
 10
11.1091496196
 20
8.9178082409
 30
0.0
 10
11.1091496196
 20
8.8849296632
 30
0.0
  0
SPLINE
  5
386
100
AcDbEntity
  8
0
100
AcDbSpline
 62
7
  6
CONTINUOUS
 70
0
 71
3
 72
8
 73
4
 74
0
 42
0.0000001
 43
0.0000001
 44
0.0000000001
 40
0.0
 40
0.0
 40
0.0
 40
0.0
 40
1.0
 40
1.0
 40
1.0
 40
1.0
 10
11.0689040389
 20
8.9667850557
 30
0.0
 10
11.0803637948
 20
8.9667850557
 30
0.0
 10
11.0899135795
 20
8.961328024
 30
0.0
 10
11.0975212694
 20
8.9505278217
 30
0.0
  0
SPLINE
  5
387
100
AcDbEntity
  8
0
100
AcDbSpline
 62
7
  6
CONTINUOUS
 70
0
 71
3
 72
8
 73
4
 74
0
 42
0.0000001
 43
0.0000001
 44
0.0000000001
 40
0.0
 40
0.0
 40
0.0
 40
0.0
 40
1.0
 40
1.0
 40
1.0
 40
1.0
 10
10.8865431832
 20
8.9524323203
 30
0.0
 10
10.8886988691
 20
8.9555396143
 30
0.0
 10
10.8911028939
 20
8.9581413907
 30
0.0
 10
10.893753884
 20
8.9602386063
 30
0.0
  0
SPLINE
  5
388
100
AcDbEntity
  8
0
100
AcDbSpline
 62
7
  6
CONTINUOUS
 70
0
 71
3
 72
8
 73
4
 74
0
 42
0.0000001
 43
0.0000001
 44
0.0000000001
 40
0.0
 40
0.0
 40
0.0
 40
0.0
 40
1.0
 40
1.0
 40
1.0
 40
1.0
 10
10.893753884
 20
8.9602386063
 30
0.0
 10
10.8992742272
 20
8.964605786
 30
0.0
 10
10.9058654774
 20
8.9667850557
 30
0.0
 10
10.9135152307
 20
8.9667850557
 30
0.0
  0
SPLINE
  5
389
100
AcDbEntity
  8
0
100
AcDbSpline
 62
7
  6
CONTINUOUS
 70
0
 71
3
 72
8
 73
4
 74
0
 42
0.0000001
 43
0.0000001
 44
0.0000000001
 40
0.0
 40
0.0
 40
0.0
 40
0.0
 40
1.0
 40
1.0
 40
1.0
 40
1.0
 10
10.8738153663
 20
8.8849296632
 30
0.0
 10
10.8738153663
 20
8.9176718178
 30
0.0
 10
10.8780445542
 20
8.9401820484
 30
0.0
 10
10.8865431832
 20
8.9524323203
 30
0.0
  0
SPLINE
  5
38A
100
AcDbEntity
  8
0
100
AcDbSpline
 62
7
  6
CONTINUOUS
 70
0
 71
3
 72
8
 73
4
 74
0
 42
0.0000001
 43
0.0000001
 44
0.0000000001
 40
0.0
 40
0.0
 40
0.0
 40
0.0
 40
1.0
 40
1.0
 40
1.0
 40
1.0
 10
10.8852751222
 20
8.819308925
 30
0.0
 10
10.8776352849
 20
8.8302229765
 30
0.0
 10
10.8738153663
 20
8.8520510796
 30
0.0
 10
10.8738153663
 20
8.8849296632
 30
0.0
  0
SPLINE
  5
38B
100
AcDbEntity
  8
0
100
AcDbSpline
 62
7
  6
CONTINUOUS
 70
0
 71
3
 72
8
 73
4
 74
0
 42
0.0000001
 43
0.0000001
 44
0.0000000001
 40
0.0
 40
0.0
 40
0.0
 40
0.0
 40
1.0
 40
1.0
 40
1.0
 40
1.0
 10
10.9137880769
 20
8.8030742723
 30
0.0
 10
10.9024647441
 20
8.8030742723
 30
0.0
 10
10.8929149594
 20
8.8083948734
 30
0.0
 10
10.8852751222
 20
8.819308925
 30
0.0
  0
SPLINE
  5
38C
100
AcDbEntity
  8
0
100
AcDbSpline
 62
7
  6
CONTINUOUS
 70
0
 71
3
 72
8
 73
4
 74
0
 42
0.0000001
 43
0.0000001
 44
0.0000000001
 40
0.0
 40
0.0
 40
0.0
 40
0.0
 40
1.0
 40
1.0
 40
1.0
 40
1.0
 10
10.9421646085
 20
8.819445351
 30
0.0
 10
10.9395733601
 20
8.8157435682
 30
0.0
 10
10.9367623908
 20
8.8126695629
 30
0.0
 10
10.9337423459
 20
8.8102233352
 30
0.0
  0
SPLINE
  5
38D
100
AcDbEntity
  8
0
100
AcDbSpline
 62
7
  6
CONTINUOUS
 70
0
 71
3
 72
8
 73
4
 74
0
 42
0.0000001
 43
0.0000001
 44
0.0000000001
 40
0.0
 40
0.0
 40
0.0
 40
0.0
 40
1.0
 40
1.0
 40
1.0
 40
1.0
 10
10.9337423459
 20
8.8102233352
 30
0.0
 10
10.927858323
 20
8.8054572935
 30
0.0
 10
10.9211806568
 20
8.8030742723
 30
0.0
 10
10.9137880769
 20
8.8030742723
 30
0.0
  0
SPLINE
  5
38E
100
AcDbEntity
  8
0
100
AcDbSpline
 62
7
  6
CONTINUOUS
 70
0
 71
3
 72
8
 73
4
 74
0
 42
0.0000001
 43
0.0000001
 44
0.0000000001
 40
0.0
 40
0.0
 40
0.0
 40
0.0
 40
1.0
 40
1.0
 40
1.0
 40
1.0
 10
10.9537607875
 20
8.8849296632
 30
0.0
 10
10.9537607875
 20
8.8521875086
 30
0.0
 10
10.9498044458
 20
8.8303594026
 30
0.0
 10
10.9421646085
 20
8.819445351
 30
0.0
  0
SPLINE
  5
38F
100
AcDbEntity
  8
0
100
AcDbSpline
 62
7
  6
CONTINUOUS
 70
0
 71
3
 72
8
 73
4
 74
0
 42
0.0000001
 43
0.0000001
 44
0.0000000001
 40
0.0
 40
0.0
 40
0.0
 40
0.0
 40
1.0
 40
1.0
 40
1.0
 40
1.0
 10
10.9421324612
 20
8.9505278217
 30
0.0
 10
10.9498044458
 20
8.939636344
 30
0.0
 10
10.9537607875
 20
8.9178082409
 30
0.0
 10
10.9537607875
 20
8.8849296632
 30
0.0
  0
SPLINE
  5
390
100
AcDbEntity
  8
0
100
AcDbSpline
 62
7
  6
CONTINUOUS
 70
0
 71
3
 72
8
 73
4
 74
0
 42
0.0000001
 43
0.0000001
 44
0.0000000001
 40
0.0
 40
0.0
 40
0.0
 40
0.0
 40
1.0
 40
1.0
 40
1.0
 40
1.0
 10
10.9135152307
 20
8.9667850557
 30
0.0
 10
10.9249749866
 20
8.9667850557
 30
0.0
 10
10.9345247712
 20
8.961328024
 30
0.0
 10
10.9421324612
 20
8.9505278217
 30
0.0
  0
ENDSEC
  0
SECTION
  2
OBJECTS
  0
DICTIONARY
  5
C
100
AcDbDictionary
280
0
281
1
  3
ACAD_GROUP
350
D
  3
ACAD_MLINESTYLE
350
17
  3
ACAD_LAYOUT
350
1A
  3
ACAD_PLOTSETTINGS
350
19
  3
ACAD_PLOTSTYLENAME
350
E
  0
DICTIONARY
  5
D
102
{ACAD_REACTORS
330
C
102
}
100
AcDbDictionary
280
0
281
1
  0
ACDBDICTIONARYWDFLT
  5
E
102
{ACAD_REACTORS
330
C
102
}
100
AcDbDictionary
281
1
  3
Normal
350
F
100
AcDbDictionaryWithDefault
340
F
  0
DICTIONARY
  5
17
102
{ACAD_REACTORS
330
C
102
}
100
AcDbDictionary
280
0
281
1
  3
Standard
350
18
  0
DICTIONARY
  5
19
102
{ACAD_REACTORS
330
C
102
}
100
AcDbDictionary
281
1
  0
DICTIONARY
  5
1A
102
{ACAD_REACTORS
330
C
102
}
100
AcDbDictionary
281
1
  3
Model
350
391
  3
Layout1
350
392
  0
ACDBPLACEHOLDER
  5
F
102
{ACAD_REACTORS
330
E
102
}
  0
MLINESTYLE
  5
18
102
{ACAD_REACTORS
330
17
102
}
100
AcDbMlineStyle
  2
STANDARD
 70
0
  3

 62
256
 51
90.0
 52
90.0
 71
2
 49
0.5
 62
256
  6
BYLAYER
 49
-0.5
 62
256
  6
BYLAYER
  0
LAYOUT
  5
391
102
{ACAD_REACTORS
330
1A
102
}
100
AcDbPlotSettings
  1

  2
none_device
  4
ANSI_C_(22.00_x_17.00_Inches)
  6

 40
0.0
 41
0.0
 42
0.0
 43
0.0
 44
558.8
 45
431.8
 46
0.0
 47
0.0
 48
0.0
 49
0.0
140
0.0
141
0.0
142
1.0
143
1.0
 70
1024
 72
0
 73
0
 74
0
  7

 75
0
147
1.0
148
0.0
149
0.0
100
AcDbLayout
  1
Model
 70
0
 71
0
 10
0.0
 20
0.0
 11
22.0
 21
17.0
 12
0.0
 22
0.0
 32
0.0
 14
0.0
 24
0.0
 34
0.0
 15
0.0
 25
0.0
 35
0.0
146
0.0
 13
0.0
 23
0.0
 33
0.0
 16
1.0
 26
0.0
 36
0.0
 17
0.0
 27
1.0
 37
0.0
 76
0
330
202
345
0
346
0
  0
LAYOUT
  5
392
102
{ACAD_REACTORS
330
1A
102
}
100
AcDbPlotSettings
  1

  2
none_device
  4
ANSI_C_(22.00_x_17.00_Inches)
  6

 40
0.0
 41
0.0
 42
0.0
 43
0.0
 44
558.8
 45
431.8
 46
0.0
 47
0.0
 48
0.0
 49
0.0
140
0.0
141
0.0
142
1.0
143
1.0
 70
0
 72
0
 73
0
 74
0
  7

 75
0
147
1.0
148
0.0
149
0.0
100
AcDbLayout
  1
Layout1
 70
0
 71
1
 10
0.0
 20
0.0
 11
22.0
 21
17.0
 12
0.0
 22
0.0
 32
0.0
 14
0.0
 24
0.0
 34
0.0
 15
0.0
 25
0.0
 35
0.0
146
0.0
 13
0.0
 23
0.0
 33
0.0
 16
1.0
 26
0.0
 36
0.0
 17
0.0
 27
1.0
 37
0.0
 76
0
330
203
345
0
346
0
  0
ENDSEC
  0
EOF
