999
DXF file: E:\BRASSTECH\JOE\EN-3XXX\EN-3934\Webdata\1\CAD\3-3324tr_RIGHT.dxf
999
Pro/ENGINEER 2018400 by Parametric Technology Corporation
  0
SECTION
  2
HEADER
  9
$ACADVER
  1
AC1018
  9
$DWGCODEPAGE
  3
ANSI_1252
  9
$EXTMAX
 10
22.0
 20
17.0
 30
0.0
  9
$EXTMIN
 10
0.0
 20
0.0
 30
0.0
  9
$LIMMIN
 10
0.0
 20
0.0
  9
$LIMMAX
 10
22.0
 20
17.0
  9
$VIEWCTR
 10
11.0
 20
8.5
  9
$VIEWSIZE
 40
17.0
  9
$CLAYER
  8
0
  9
$LTSCALE
 40
1.21
  9
$CELTYPE
  6
BYLAYER
  9
$DIMSCALE
 40
1.0
  9
$DIMASZ
 40
0.1
  9
$DIMEXO
 40
0.0625
  9
$DIMDLI
 40
0.836
  9
$DIMEXE
 40
0.125
  9
$DIMCEN
 40
0.198
  9
$DIMLFAC
 40
1.0
  9
$DIMBLK
  1
_FILLED
  9
$DIMALT
 70
1
  9
$DIMALTD
 70
2
  9
$DIMALTTD
 70
2
  9
$DIMALTF
 40
25.4
  9
$DIMTXT
 40
0.08
  9
$DIMTOL
 70
1
  9
$DIMLIM
 70
0
  9
$DIMTFAC
 40
1.0
  9
$DIMTP
 40
0.001
  9
$DIMTM
 40
0.001
  9
$DIMGAP
 40
0.09
  9
$DIMDSEP
 70
46
  9
$AUNITS
 70
0
  9
$PDMODE
 70
3
  9
$PDSIZE
 40
0.06
  9
$HANDSEED
  5
279
  9
$TILEMODE
 70
1
  9
$MEASUREMENT
 70
0
  9
$INSUNITS
 70
1
  0
ENDSEC
  0
SECTION
  2
CLASSES
  0
CLASS
  1
ACDBDICTIONARYWDFLT
  2
AcDbDictionaryWithDefault
  3
AutoCAD 2000
 90
0
 91
1
280
0
281
0
  0
CLASS
  1
ACDBPLACEHOLDER
  2
AcDbPlaceHolder
  3
AutoCAD 2000
 90
0
 91
1
280
0
281
0
  0
CLASS
  1
LAYOUT
  2
AcDbLayout
  3
AutoCAD 2000
 90
0
 91
0
280
0
281
0
  0
ENDSEC
  0
SECTION
  2
TABLES
  0
TABLE
  2
VPORT
  5
8
100
AcDbSymbolTable
 70
2
  0
VPORT
  5
1F4
100
AcDbSymbolTableRecord
100
AcDbViewportTableRecord
  2
*ACTIVE
 70
0
 10
0.0
 20
0.0
 11
1.0
 21
1.0
 12
11.0
 22
8.5
 13
0.0
 23
0.0
 14
1.0
 24
1.0
 15
0.0
 25
0.0
 16
0.0
 26
0.0
 36
1.0
 17
0.0
 27
0.0
 37
0.0
 40
17.0
 41
1.2941176471
 42
50.0
 43
0.0
 44
0.0
 50
0.0
 51
0.0
 71
0
 72
100
 73
1
 74
1
 75
0
 76
0
 77
0
 78
0
  0
ENDTAB
  0
TABLE
  2
LTYPE
  5
5
100
AcDbSymbolTable
 70
6
  0
LTYPE
  5
14
100
AcDbSymbolTableRecord
100
AcDbLinetypeTableRecord
  2
BYBLOCK
 70
0
  3

 72
65
 73
0
 40
0.0
  0
LTYPE
  5
15
100
AcDbSymbolTableRecord
100
AcDbLinetypeTableRecord
  2
BYLAYER
 70
0
  3

 72
65
 73
0
 40
0.0
  0
LTYPE
  5
16
100
AcDbSymbolTableRecord
100
AcDbLinetypeTableRecord
  2
CONTINUOUS
 70
64
  3
Solid line
 72
65
 73
0
 40
0.0
  0
LTYPE
  5
1F5
100
AcDbSymbolTableRecord
100
AcDbLinetypeTableRecord
  2
CENTER
 70
64
  3
____ _ ____ _ ____ _ ____ _ ____ _ ____ _ ____
 72
65
 73
4
 40
0.6
 49
0.375
 74
0
 49
-0.075
 74
0
 49
0.075
 74
0
 49
-0.075
 74
0
  0
LTYPE
  5
1F6
100
AcDbSymbolTableRecord
100
AcDbLinetypeTableRecord
  2
HIDDEN
 70
64
  3
- - - - - - - - - - - - - - - - - - - -
 72
65
 73
2
 40
0.2
 49
0.1
 74
0
 49
-0.1
 74
0
  0
LTYPE
  5
1F7
100
AcDbSymbolTableRecord
100
AcDbLinetypeTableRecord
  2
PHANTOM
 70
64
  3
_____ _ _ _____ _ _ _____ _ _ _____
 72
65
 73
6
 40
0.8
 49
0.45
 74
0
 49
-0.05
 74
0
 49
0.1
 74
0
 49
-0.05
 74
0
 49
0.1
 74
0
 49
-0.05
 74
0
  0
LTYPE
  5
1F8
100
AcDbSymbolTableRecord
100
AcDbLinetypeTableRecord
  2
DOT
 70
64
  3
. . . . . . . . . . . . . . . . . . . .
 72
65
 73
2
 40
0.2
 49
0.1
 74
0
 49
-0.1
 74
0
  0
LTYPE
  5
1F9
100
AcDbSymbolTableRecord
100
AcDbLinetypeTableRecord
  2
DASHED
 70
64
  3
- - - - - - - - - - - - - - - - - - - -
 72
65
 73
2
 40
0.2
 49
0.1
 74
0
 49
-0.1
 74
0
  0
ENDTAB
  0
TABLE
  2
LAYER
  5
2
100
AcDbSymbolTable
 70
36
  0
LAYER
  5
10
100
AcDbSymbolTableRecord
100
AcDbLayerTableRecord
  2
0
 70
0
 62
7
  6
CONTINUOUS
370
-3
390
F
  0
LAYER
  5
1FA
100
AcDbSymbolTableRecord
100
AcDbLayerTableRecord
  2
DEFAULT_1
 70
0
 62
7
  6
CENTER
370
-3
390
F
  0
LAYER
  5
1FB
100
AcDbSymbolTableRecord
100
AcDbLayerTableRecord
  2
DEFAULT_2
 70
0
 62
8
  6
HIDDEN
370
-3
390
F
  0
LAYER
  5
1FC
100
AcDbSymbolTableRecord
100
AcDbLayerTableRecord
  2
DEFAULT_3
 70
0
 62
7
  6
PHANTOM
370
-3
390
F
  0
LAYER
  5
1FD
100
AcDbSymbolTableRecord
100
AcDbLayerTableRecord
  2
ALL_FEATURES
 70
0
 62
7
  6
CONTINUOUS
370
-3
390
F
  0
LAYER
  5
1FE
100
AcDbSymbolTableRecord
100
AcDbLayerTableRecord
  2
AXES_FEATURES
 70
0
 62
7
  6
CONTINUOUS
370
-3
390
F
  0
LAYER
  5
1FF
100
AcDbSymbolTableRecord
100
AcDbLayerTableRecord
  2
DIMENSIONS
 70
0
 62
7
  6
CONTINUOUS
370
-3
390
F
  0
ENDTAB
  0
TABLE
  2
STYLE
  5
3
100
AcDbSymbolTable
 70
1
  0
STYLE
  5
11
100
AcDbSymbolTableRecord
100
AcDbTextStyleTableRecord
  2
STANDARD
 70
0
 40
0.0
 41
0.8
 50
0.0
 71
0
 42
0.2
  3
txt
  4

  0
STYLE
  5
200
100
AcDbSymbolTableRecord
100
AcDbTextStyleTableRecord
  2
TEXTSTYLE_1
 70
0
 40
0.0
 41
0.8
 50
0.0
 71
0
 42
0.2
  3
gdt
  4

  0
ENDTAB
  0
TABLE
  2
VIEW
  5
6
100
AcDbSymbolTable
 70
0
  0
ENDTAB
  0
TABLE
  2
UCS
  5
7
100
AcDbSymbolTable
 70
0
  0
ENDTAB
  0
TABLE
  2
APPID
  5
9
100
AcDbSymbolTable
 70
1
  0
APPID
  5
201
100
AcDbSymbolTableRecord
100
AcDbRegAppTableRecord
  2
ACAD
 70
0
  0
ENDTAB
  0
TABLE
  2
BLOCK_RECORD
  5
1
100
AcDbSymbolTable
 70
0
  0
BLOCK_RECORD
  5
202
100
AcDbSymbolTableRecord
100
AcDbBlockTableRecord
  2
*Model_Space
  0
BLOCK_RECORD
  5
203
100
AcDbSymbolTableRecord
100
AcDbBlockTableRecord
  2
*Paper_Space
  0
BLOCK_RECORD
  5
204
100
AcDbSymbolTableRecord
100
AcDbBlockTableRecord
  2
_FILLED
  0
ENDTAB
  0
TABLE
  2
DIMSTYLE
  5
A
100
AcDbSymbolTable
 70
1
100
AcDbDimStyleTable
 71
0
  0
DIMSTYLE
105
205
100
AcDbSymbolTableRecord
100
AcDbDimStyleTableRecord
  2
STANDARD
 70
0
  3

  4

 40
1.0
 41
0.1
 42
0.0625
 43
0.38
 44
0.125
 45
0.0
 46
0.0
 47
0.001
 48
0.001
140
0.08
141
0.09
142
0.0
143
25.4
144
1.0
145
0.0
146
1.0
147
0.09
 71
1.0
 72
0.0
 73
1
 74
1
 75
0
 76
0
 77
0
 78
4
 79
1
170
1
171
2
172
0
173
0
174
0
175
0
176
0
177
0
178
0
270
2
179
3
271
3
272
3
273
2
274
2
275
0
280
0
281
0
282
0
283
1
284
4
285
0
286
0
287
3
288
0
340
11
278
46
341
204
342
204
343
204
344
204
  0
ENDTAB
  0
ENDSEC
  0
SECTION
  2
BLOCKS
  0
BLOCK
  5
20
100
AcDbEntity
  8
0
100
AcDbBlockBegin
  2
*Model_Space
 70
0
 10
0.0
 20
0.0
 30
0.0
  3
*Model_Space
  1

  0
ENDBLK
  5
21
100
AcDbEntity
  8
0
100
AcDbBlockEnd
  0
BLOCK
  5
1C
100
AcDbEntity
  8
0
100
AcDbBlockBegin
  2
*Paper_Space
 70
0
 10
0.0
 20
0.0
 30
0.0
  3
*Paper_Space
  1

  0
ENDBLK
  5
1D
100
AcDbEntity
  8
0
100
AcDbBlockEnd
  0
BLOCK
  5
206
100
AcDbEntity
  8
0
100
AcDbBlockBegin
  2
_FILLED
 70
64
 10
0.0
 20
0.0
  3
_FILLED
  1

  0
SOLID
  5
207
100
AcDbEntity
  8
0
  6
BYBLOCK
 62
0
100
AcDbTrace
 10
0.0
 20
0.0
 11
-1.0
 21
0.2
 12
-1.0
 22
-0.2
 13
-1.0
 23
-0.2
  0
ENDBLK
  5
208
100
AcDbEntity
  8
0
  6
BYBLOCK
 62
0
100
AcDbBlockEnd
  0
ENDSEC
  0
SECTION
  2
ENTITIES
  0
LINE
  5
209
100
AcDbEntity
  8
0
100
AcDbLine
 62
7
  6
CONTINUOUS
 10
12.2047403912
 20
6.0415580674
 11
12.461483506
 21
6.0190959554
  0
LINE
  5
20A
100
AcDbEntity
  8
0
100
AcDbLine
 62
7
  6
CONTINUOUS
 10
12.461483506
 20
6.0251363185
 11
12.561483506
 21
6.0163698012
  0
LINE
  5
20B
100
AcDbEntity
  8
0
100
AcDbLine
 62
7
  6
CONTINUOUS
 10
8.733483506
 20
8.140347089
 11
8.733483506
 21
9.8803464344
  0
LINE
  5
20C
100
AcDbEntity
  8
0
100
AcDbLine
 62
9
  6
CONTINUOUS
 10
8.763483506
 20
8.110347089
 11
8.763483506
 21
9.910347089
  0
LINE
  5
20D
100
AcDbEntity
  8
0
100
AcDbLine
 62
9
  6
CONTINUOUS
 10
9.141483506
 20
8.110347089
 11
9.141483506
 21
8.7102903836
  0
LINE
  5
20E
100
AcDbEntity
  8
0
100
AcDbLine
 62
9
  6
CONTINUOUS
 10
9.141483506
 20
9.3104037567
 11
9.141483506
 21
9.910347089
  0
LINE
  5
20F
100
AcDbEntity
  8
0
100
AcDbLine
 62
7
  6
CONTINUOUS
 10
9.171483506
 20
8.140347089
 11
9.171483506
 21
8.668294481
  0
LINE
  5
210
100
AcDbEntity
  8
0
100
AcDbLine
 62
7
  6
CONTINUOUS
 10
9.171483506
 20
9.3523997242
 11
9.171483506
 21
9.8803460506
  0
LINE
  5
211
100
AcDbEntity
  8
0
100
AcDbLine
 62
9
  6
CONTINUOUS
 10
9.201483506
 20
9.325347089
 11
9.201483506
 21
9.3226560098
  0
LINE
  5
212
100
AcDbEntity
  8
0
100
AcDbLine
 62
9
  6
CONTINUOUS
 10
9.201483506
 20
8.6980381682
 11
9.201483506
 21
8.695347089
  0
LINE
  5
213
100
AcDbEntity
  8
0
100
AcDbLine
 62
7
  6
CONTINUOUS
 10
9.423483506
 20
8.7437556022
 11
9.423483506
 21
8.766849613
  0
LINE
  5
214
100
AcDbEntity
  8
0
100
AcDbLine
 62
7
  6
CONTINUOUS
 10
9.463483506
 20
8.7783966184
 11
9.463483506
 21
8.7322085968
  0
LINE
  5
215
100
AcDbEntity
  8
0
100
AcDbLine
 62
7
  6
CONTINUOUS
 10
9.503483506
 20
8.766849613
 11
9.503483506
 21
8.7437556022
  0
LINE
  5
216
100
AcDbEntity
  8
0
100
AcDbLine
 62
7
  6
CONTINUOUS
 10
12.561483506
 20
7.760347089
 11
12.686483506
 21
7.760347089
  0
LINE
  5
217
100
AcDbEntity
  8
0
100
AcDbLine
 62
7
  6
CONTINUOUS
 10
9.613483506
 20
8.695347089
 11
9.613483506
 21
9.325347089
  0
LINE
  5
218
100
AcDbEntity
  8
0
100
AcDbLine
 62
7
  6
CONTINUOUS
 10
9.663483506
 20
9.965347089
 11
9.663483506
 21
8.055347089
  0
LINE
  5
219
100
AcDbEntity
  8
0
100
AcDbLine
 62
9
  6
CONTINUOUS
 10
9.693483506
 20
9.995347089
 11
9.693483506
 21
8.025347089
  0
LINE
  5
21A
100
AcDbEntity
  8
0
100
AcDbLine
 62
7
  6
CONTINUOUS
 10
9.693483506
 20
8.025347089
 11
12.186483506
 21
8.025347089
  0
LINE
  5
21B
100
AcDbEntity
  8
0
100
AcDbLine
 62
7
  6
CONTINUOUS
 10
9.412860718
 20
8.7374047493
 11
9.4097212945
 21
8.7396246569
  0
LINE
  5
21C
100
AcDbEntity
  8
0
100
AcDbLine
 62
7
  6
CONTINUOUS
 10
8.763483506
 20
8.110347089
 11
9.141483506
 21
8.110347089
  0
LINE
  5
21D
100
AcDbEntity
  8
0
100
AcDbLine
 62
9
  6
CONTINUOUS
 10
8.733483506
 20
8.185347089
 11
9.171483506
 21
8.185347089
  0
LINE
  5
21E
100
AcDbEntity
  8
0
100
AcDbLine
 62
7
  6
CONTINUOUS
 10
10.183483506
 20
10.1944136252
 11
10.183483506
 21
9.989467172
  0
LINE
  5
21F
100
AcDbEntity
  8
0
100
AcDbLine
 62
7
  6
CONTINUOUS
 10
9.514106294
 20
8.7374047493
 11
9.5285043732
 21
8.7475857286
  0
LINE
  5
220
100
AcDbEntity
  8
0
100
AcDbLine
 62
7
  6
CONTINUOUS
 10
9.423483506
 20
8.7437556022
 11
9.463483506
 21
8.7322085968
  0
LINE
  5
221
100
AcDbEntity
  8
0
100
AcDbLine
 62
7
  6
CONTINUOUS
 10
9.503483506
 20
8.766849613
 11
9.463483506
 21
8.7783966184
  0
LINE
  5
222
100
AcDbEntity
  8
0
100
AcDbLine
 62
7
  6
CONTINUOUS
 10
10.443483506
 20
10.1944136252
 11
10.443483506
 21
9.9894674558
  0
LINE
  5
223
100
AcDbEntity
  8
0
100
AcDbLine
 62
9
  6
CONTINUOUS
 10
9.141483506
 20
8.6817135545
 11
8.733483506
 21
8.6817135545
  0
LINE
  5
224
100
AcDbEntity
  8
0
100
AcDbLine
 62
7
  6
CONTINUOUS
 10
9.201483506
 20
8.695347089
 11
9.613483506
 21
8.695347089
  0
LINE
  5
225
100
AcDbEntity
  8
0
100
AcDbLine
 62
9
  6
CONTINUOUS
 10
8.763483506
 20
8.7102903836
 11
9.141483506
 21
8.7102903836
  0
LINE
  5
226
100
AcDbEntity
  8
0
100
AcDbLine
 62
7
  6
CONTINUOUS
 10
9.463483506
 20
8.7167930232
 11
9.4804321994
 21
8.7167800287
  0
LINE
  5
227
100
AcDbEntity
  8
0
100
AcDbLine
 62
7
  6
CONTINUOUS
 10
9.463483506
 20
8.7167930232
 11
9.4634734019
 21
8.7167935957
  0
LINE
  5
228
100
AcDbEntity
  8
0
100
AcDbLine
 62
7
  6
CONTINUOUS
 10
9.463483506
 20
8.7783966184
 11
9.423483506
 21
8.766849613
  0
LINE
  5
229
100
AcDbEntity
  8
0
100
AcDbLine
 62
7
  6
CONTINUOUS
 10
9.463483506
 20
8.7322085968
 11
9.503483506
 21
8.7437556022
  0
LINE
  5
22A
100
AcDbEntity
  8
0
100
AcDbLine
 62
7
  6
CONTINUOUS
 10
9.663483506
 20
8.825347089
 11
9.613483506
 21
8.825347089
  0
LINE
  5
22B
100
AcDbEntity
  8
0
100
AcDbLine
 62
7
  6
CONTINUOUS
 10
9.663483506
 20
9.195347089
 11
9.613483506
 21
9.195347089
  0
LINE
  5
22C
100
AcDbEntity
  8
0
100
AcDbLine
 62
9
  6
CONTINUOUS
 10
8.763483506
 20
9.3104037567
 11
9.1414824371
 21
9.3104037567
  0
LINE
  5
22D
100
AcDbEntity
  8
0
100
AcDbLine
 62
7
  6
CONTINUOUS
 10
9.201483506
 20
9.325347089
 11
9.613483506
 21
9.325347089
  0
LINE
  5
22E
100
AcDbEntity
  8
0
100
AcDbLine
 62
9
  6
CONTINUOUS
 10
8.733483506
 20
9.3389806235
 11
9.141483506
 21
9.3389806235
  0
LINE
  5
22F
100
AcDbEntity
  8
0
100
AcDbLine
 62
7
  6
CONTINUOUS
 10
11.363483506
 20
9.9953385618
 11
11.363483506
 21
8.0253556163
  0
LINE
  5
230
100
AcDbEntity
  8
0
100
AcDbLine
 62
9
  6
CONTINUOUS
 10
9.171483506
 20
9.835347089
 11
8.733483506
 21
9.835347089
  0
LINE
  5
231
100
AcDbEntity
  8
0
100
AcDbLine
 62
7
  6
CONTINUOUS
 10
9.141483506
 20
9.910347089
 11
8.763483506
 21
9.910347089
  0
LINE
  5
232
100
AcDbEntity
  8
0
100
AcDbLine
 62
7
  6
CONTINUOUS
 10
9.693483506
 20
9.995347089
 11
10.138483506
 21
9.995347089
  0
LINE
  5
233
100
AcDbEntity
  8
0
100
AcDbLine
 62
7
  6
CONTINUOUS
 10
10.488483506
 20
9.995347089
 11
12.186483506
 21
9.995347089
  0
LINE
  5
234
100
AcDbEntity
  8
0
100
AcDbLine
 62
9
  6
CONTINUOUS
 10
10.443483506
 20
10.1944136252
 11
10.183483506
 21
10.1944136252
  0
LINE
  5
235
100
AcDbEntity
  8
0
100
AcDbLine
 62
9
  6
CONTINUOUS
 10
10.2243925969
 20
10.2512954077
 11
10.4025744151
 21
10.2512954077
  0
LINE
  5
236
100
AcDbEntity
  8
0
100
AcDbLine
 62
7
  6
CONTINUOUS
 10
12.561483506
 20
10.260347089
 11
12.686483506
 21
10.260347089
  0
LINE
  5
237
100
AcDbEntity
  8
0
100
AcDbLine
 62
7
  6
CONTINUOUS
 10
12.186483506
 20
6.0614819613
 11
12.186483506
 21
11.9592122167
  0
LINE
  5
238
100
AcDbEntity
  8
0
100
AcDbLine
 62
9
  6
CONTINUOUS
 10
12.2047403912
 20
11.9791361107
 11
12.2047403912
 21
6.0415580674
  0
LINE
  5
239
100
AcDbEntity
  8
0
100
AcDbLine
 62
7
  6
CONTINUOUS
 10
12.461483506
 20
6.0190961934
 11
12.461483506
 21
6.0251363185
  0
LINE
  5
23A
100
AcDbEntity
  8
0
100
AcDbLine
 62
7
  6
CONTINUOUS
 10
12.561483506
 20
6.0163698012
 11
12.561483506
 21
12.0103223011
  0
LINE
  5
23B
100
AcDbEntity
  8
0
100
AcDbLine
 62
7
  6
CONTINUOUS
 10
12.686483506
 20
7.7603672583
 11
12.686483506
 21
10.2603269197
  0
LINE
  5
23C
100
AcDbEntity
  8
0
100
AcDbLine
 62
7
  6
CONTINUOUS
 10
12.2047403912
 20
11.9791361107
 11
12.561483506
 21
12.010347089
  0
ARC
  5
23D
100
AcDbEntity
  8
0
100
AcDbCircle
 62
7
  6
CONTINUOUS
 10
10.313483506
 20
9.985847089
 40
0.28
100
AcDbArc
 50
71.446995465
 51
108.553004535
  0
ARC
  5
23E
100
AcDbEntity
  8
0
100
AcDbCircle
 62
7
  6
CONTINUOUS
 10
9.4634124873
 20
8.6429858817
 40
0.1491082281
100
AcDbArc
 50
89.9727107651
 51
103.3646659634
  0
ARC
  5
23F
100
AcDbEntity
  8
0
100
AcDbCircle
 62
7
  6
CONTINUOUS
 10
9.4689569581
 20
8.8724279517
 40
0.1488527237
100
AcDbArc
 50
256.9212222209
 51
258.1698375237
  0
ARC
  5
240
100
AcDbEntity
  8
0
100
AcDbCircle
 62
7
  6
CONTINUOUS
 10
9.454197988
 20
8.8301393252
 40
0.1039812498
100
AcDbArc
 50
243.6518427004
 51
245.9775890591
  0
ARC
  5
241
100
AcDbEntity
  8
0
100
AcDbCircle
 62
7
  6
CONTINUOUS
 10
9.4830136294
 20
8.6867887487
 40
0.1008799281
100
AcDbArc
 50
54.7823329821
 51
58.1080354117
  0
ARC
  5
242
100
AcDbEntity
  8
0
100
AcDbCircle
 62
7
  6
CONTINUOUS
 10
9.4867886432
 20
8.6922683277
 40
0.0942263317
100
AcDbArc
 50
54.5694297234
 51
54.7361657536
  0
ARC
  5
243
100
AcDbEntity
  8
0
100
AcDbCircle
 62
7
  6
CONTINUOUS
 10
9.4887960954
 20
8.6950677957
 40
0.0907815219
100
AcDbArc
 50
52.2067653951
 51
54.5775165003
  0
ARC
  5
244
100
AcDbEntity
  8
0
100
AcDbCircle
 62
7
  6
CONTINUOUS
 10
10.243483506
 20
10.1944136252
 40
0.06
100
AcDbArc
 50
108.553004535
 51
180.0
  0
ARC
  5
245
100
AcDbEntity
  8
0
100
AcDbCircle
 62
7
  6
CONTINUOUS
 10
10.383483506
 20
10.1944136252
 40
0.06
100
AcDbArc
 50
0.0
 51
71.446995465
  0
ARC
  5
246
100
AcDbEntity
  8
0
100
AcDbCircle
 62
7
  6
CONTINUOUS
 10
9.4863796605
 20
8.7767787252
 40
0.0481579889
100
AcDbArc
 50
302.1422645465
 51
303.157129373
  0
ARC
  5
247
100
AcDbEntity
  8
0
100
AcDbCircle
 62
7
  6
CONTINUOUS
 10
9.4879387052
 20
8.7744194237
 40
0.0453301466
100
AcDbArc
 50
303.1384200582
 51
305.2584020337
  0
ARC
  5
248
100
AcDbEntity
  8
0
100
AcDbCircle
 62
9
  6
CONTINUOUS
 10
8.7775251762
 20
9.2753014939
 40
0.0440416292
100
AcDbArc
 50
175.1619906101
 51
180.002112672
  0
ARC
  5
249
100
AcDbEntity
  8
0
100
AcDbCircle
 62
9
  6
CONTINUOUS
 10
8.7768444277
 20
8.7453618127
 40
0.0433609069
100
AcDbArc
 50
179.957058753
 51
187.6179838047
  0
ARC
  5
24A
100
AcDbEntity
  8
0
100
AcDbCircle
 62
7
  6
CONTINUOUS
 10
9.5120474498
 20
8.7421214509
 40
0.0387926133
100
AcDbArc
 50
42.2213233769
 51
42.7047598801
  0
ARC
  5
24B
100
AcDbEntity
  8
0
100
AcDbCircle
 62
9
  6
CONTINUOUS
 10
8.7635104918
 20
8.7417840488
 40
0.0314936771
100
AcDbArc
 50
269.0004405103
 51
269.950905349
  0
ARC
  5
24C
100
AcDbEntity
  8
0
100
AcDbCircle
 62
7
  6
CONTINUOUS
 10
9.141483506
 20
9.880347089
 40
0.03
100
AcDbArc
 50
0.0
 51
90.0
  0
ARC
  5
24D
100
AcDbEntity
  8
0
100
AcDbCircle
 62
7
  6
CONTINUOUS
 10
8.763483506
 20
9.880347089
 40
0.03
100
AcDbArc
 50
90.0
 51
180.0
  0
ARC
  5
24E
100
AcDbEntity
  8
0
100
AcDbCircle
 62
7
  6
CONTINUOUS
 10
9.141483506
 20
8.140347089
 40
0.03
100
AcDbArc
 50
270.0
 51
360.0
  0
ARC
  5
24F
100
AcDbEntity
  8
0
100
AcDbCircle
 62
7
  6
CONTINUOUS
 10
8.763483506
 20
8.140347089
 40
0.03
100
AcDbArc
 50
180.0
 51
270.0
  0
ARC
  5
250
100
AcDbEntity
  8
0
100
AcDbCircle
 62
7
  6
CONTINUOUS
 10
9.201483506
 20
8.665347089
 40
0.03
100
AcDbArc
 50
90.0
 51
174.403083781
  0
ARC
  5
251
100
AcDbEntity
  8
0
100
AcDbCircle
 62
7
  6
CONTINUOUS
 10
9.201483506
 20
9.355347089
 40
0.03
100
AcDbArc
 50
185.5968644753
 51
270.0
  0
ARC
  5
252
100
AcDbEntity
  8
0
100
AcDbCircle
 62
7
  6
CONTINUOUS
 10
9.693483506
 20
9.965347089
 40
0.03
100
AcDbArc
 50
90.0
 51
180.0
  0
ARC
  5
253
100
AcDbEntity
  8
0
100
AcDbCircle
 62
7
  6
CONTINUOUS
 10
9.693483506
 20
8.055347089
 40
0.03
100
AcDbArc
 50
180.0
 51
270.0
  0
ARC
  5
254
100
AcDbEntity
  8
0
100
AcDbCircle
 62
7
  6
CONTINUOUS
 10
9.5265554933
 20
8.7527828061
 40
0.0205981227
100
AcDbArc
 50
17.0049332107
 51
20.0858533776
  0
ARC
  5
255
100
AcDbEntity
  8
0
100
AcDbCircle
 62
7
  6
CONTINUOUS
 10
12.206483506
 20
11.9592122167
 40
0.02
100
AcDbArc
 50
95.0
 51
180.0
  0
ARC
  5
256
100
AcDbEntity
  8
0
100
AcDbCircle
 62
7
  6
CONTINUOUS
 10
12.206483506
 20
6.0614819613
 40
0.02
100
AcDbArc
 50
180.0
 51
265.0
  0
SPLINE
  5
257
100
AcDbEntity
  8
0
100
AcDbSpline
 62
7
  6
CONTINUOUS
 70
0
 71
3
 72
21
 73
17
 74
0
 42
0.0000001
 43
0.0000001
 44
0.0000000001
 40
0.0
 40
0.0
 40
0.0
 40
0.0
 40
0.0697353255
 40
0.1393288736
 40
0.277185434
 40
0.4120863991
 40
0.4780199687
 40
0.5427150829
 40
0.6060183994
 40
0.6677895399
 40
0.727897119
 40
0.786226367
 40
0.8426742195
 40
0.8971571774
 40
0.9496133315
 40
1.0
 40
1.0
 40
1.0
 40
1.0
 10
9.463483506
 20
8.7243026076
 30
0.0
 10
9.4622506408
 20
8.7243026076
 30
0.0
 10
9.4597872376
 20
8.7243394459
 30
0.0
 10
9.4548911672
 20
8.7245588762
 30
0.0
 10
9.4488591052
 20
8.7251019662
 30
0.0
 10
9.4429358666
 20
8.7260082452
 30
0.0
 10
9.4383355828
 20
8.7269471047
 30
0.0
 10
9.4350008435
 20
8.7277467567
 30
0.0
 10
9.4317674325
 20
8.7286444143
 30
0.0
 10
9.4286467141
 20
8.7296366513
 30
0.0
 10
9.4256498307
 20
8.730720312
 30
0.0
 10
9.4227872879
 20
8.7318912121
 30
0.0
 10
9.4200692916
 20
8.7331454119
 30
0.0
 10
9.4175054669
 20
8.7344785642
 30
0.0
 10
9.4151048475
 20
8.7358856488
 30
0.0
 10
9.4135881263
 20
8.7368904659
 30
0.0
 10
9.4128608023
 20
8.737404779
 30
0.0
  0
SPLINE
  5
258
100
AcDbEntity
  8
0
100
AcDbSpline
 62
7
  6
CONTINUOUS
 70
0
 71
3
 72
21
 73
17
 74
0
 42
0.0000001
 43
0.0000001
 44
0.0000000001
 40
0.0
 40
0.0
 40
0.0
 40
0.0
 40
0.0516547352
 40
0.105198628
 40
0.1605797133
 40
0.217729446
 40
0.276560738
 40
0.3369771596
 40
0.3988689408
 40
0.4621160972
 40
0.5265915614
 40
0.5921548612
 40
0.725945408
 40
0.8623348106
 40
0.9311079891
 40
1.0
 40
1.0
 40
1.0
 40
1.0
 10
9.5120008336
 20
8.7360019257
 30
0.0
 10
9.5112645001
 20
8.735539183
 30
0.0
 10
9.5097397447
 20
8.7346363153
 30
0.0
 10
9.5073491198
 20
8.7333718186
 30
0.0
 10
9.5048205103
 20
8.7321763801
 30
0.0
 10
9.5021618918
 20
8.7310538931
 30
0.0
 10
9.4993816875
 20
8.7300075548
 30
0.0
 10
9.4964885247
 20
8.7290409458
 30
0.0
 10
9.4934915131
 20
8.7281569575
 30
0.0
 10
9.4904000598
 20
8.7273582748
 30
0.0
 10
9.4872238125
 20
8.7266476915
 30
0.0
 10
9.4828601212
 20
8.7258147476
 30
0.0
 10
9.4772612753
 20
8.7250111952
 30
0.0
 10
9.4715716692
 20
8.7245295991
 30
0.0
 10
9.4669612767
 20
8.7243352236
 30
0.0
 10
9.4646433801
 20
8.7243026076
 30
0.0
 10
9.463483506
 20
8.7243026076
 30
0.0
  0
SPLINE
  5
259
100
AcDbEntity
  8
0
100
AcDbSpline
 62
7
  6
CONTINUOUS
 70
0
 71
3
 72
31
 73
27
 74
0
 42
0.0000001
 43
0.0000001
 44
0.0000000001
 40
0.0
 40
0.0
 40
0.0
 40
0.0
 40
0.0760241397
 40
0.1485342526
 40
0.2176198102
 40
0.250938938
 40
0.2834791229
 40
0.3463612736
 40
0.4066729477
 40
0.4360283044
 40
0.4649330873
 40
0.4934634719
 40
0.5217001741
 40
0.5497269241
 40
0.5776299897
 40
0.6054976302
 40
0.6334179536
 40
0.6614776245
 40
0.6897611693
 40
0.7183496822
 40
0.7473194282
 40
0.8066575973
 40
0.868301281
 40
0.9001241887
 40
0.9326630539
 40
1.0
 40
1.0
 40
1.0
 40
1.0
 10
9.4097198889
 20
8.7396256539
 30
0.0
 10
9.4087519019
 20
8.740310115
 30
0.0
 10
9.4069045473
 20
8.74171128
 30
0.0
 10
9.4043597326
 20
8.7439612475
 30
0.0
 10
9.4024695441
 20
8.7459330842
 30
0.0
 10
9.4011214015
 20
8.7475498144
 30
0.0
 10
9.3999102861
 20
8.7491517759
 30
0.0
 10
9.3985907298
 20
8.7511959942
 30
0.0
 10
9.3975239257
 20
8.7533284996
 30
0.0
 10
9.3968466509
 20
8.7550500617
 30
0.0
 10
9.3964284108
 20
8.7563381743
 30
0.0
 10
9.3960958209
 20
8.7576330052
 30
0.0
 10
9.3958490751
 20
8.7589329995
 30
0.0
 10
9.3956884029
 20
8.7602365759
 30
0.0
 10
9.395614071
 20
8.7615421593
 30
0.0
 10
9.3956259622
 20
8.7628481405
 30
0.0
 10
9.3957237963
 20
8.7641529445
 30
0.0
 10
9.3959073082
 20
8.7654550162
 30
0.0
 10
9.3961762582
 20
8.7667527678
 30
0.0
 10
9.3965300926
 20
8.7680447077
 30
0.0
 10
9.3971185726
 20
8.769771028
 30
0.0
 10
9.3980709874
 20
8.7719127907
 30
0.0
 10
9.3992758172
 20
8.7739739165
 30
0.0
 10
9.4003920371
 20
8.775591841
 30
0.0
 10
9.4016390085
 20
8.7772244575
 30
0.0
 10
9.4026702134
 20
8.7783951975
 30
0.0
 10
9.4033957508
 20
8.7791542935
 30
0.0
  0
SPLINE
  5
25A
100
AcDbEntity
  8
0
100
AcDbSpline
 62
7
  6
CONTINUOUS
 70
0
 71
3
 72
9
 73
5
 74
0
 42
0.0000001
 43
0.0000001
 44
0.0000000001
 40
0.0
 40
0.0
 40
0.0
 40
0.0
 40
0.5064327515
 40
1.0
 40
1.0
 40
1.0
 40
1.0
 10
9.4006072281
 20
8.7779598866
 30
0.0
 10
9.4002396714
 20
8.7771758581
 30
0.0
 10
9.3995913774
 20
8.7755899307
 30
0.0
 10
9.3991179967
 20
8.7739428082
 30
0.0
 10
9.3989314631
 20
8.7731197702
 30
0.0
  0
LINE
  5
25B
100
AcDbEntity
  8
0
100
AcDbLine
 62
7
  6
CONTINUOUS
 10
9.4128608023
 20
8.737404779
 11
9.4098290947
 21
8.739768773
  0
SPLINE
  5
25C
100
AcDbEntity
  8
0
100
AcDbSpline
 62
7
  6
CONTINUOUS
 70
0
 71
3
 72
8
 73
4
 74
0
 42
0.0000001
 43
0.0000001
 44
0.0000000001
 40
0.0
 40
0.0
 40
0.0
 40
0.0
 40
1.0
 40
1.0
 40
1.0
 40
1.0
 10
9.4098290947
 20
8.739768773
 30
0.0
 10
9.4098152049
 20
8.7397807856
 30
0.0
 10
9.409801315
 20
8.7397927982
 30
0.0
 10
9.4097874251
 20
8.7398048108
 30
0.0
  0
SPLINE
  5
25D
100
AcDbEntity
  8
0
100
AcDbSpline
 62
7
  6
CONTINUOUS
 70
0
 71
3
 72
39
 73
35
 74
0
 42
0.0000001
 43
0.0000001
 44
0.0000000001
 40
0.0
 40
0.0
 40
0.0
 40
0.0
 40
0.028094673
 40
0.0548459563
 40
0.0803390446
 40
0.1046978591
 40
0.1280835921
 40
0.1506963583
 40
0.1727712952
 40
0.1945699039
 40
0.2163687672
 40
0.2384444655
 40
0.2610584433
 40
0.284445816
 40
0.3088065863
 40
0.3343019232
 40
0.3610556299
 40
0.3891528526
 40
0.4186484148
 40
0.4495645216
 40
0.4819003638
 40
0.5156306439
 40
0.5507115026
 40
0.5870822541
 40
0.6246660314
 40
0.6633756119
 40
0.7031110446
 40
0.7437650158
 40
0.7852182765
 40
0.8273455107
 40
0.8700218133
 40
0.9131223128
 40
0.956505152
 40
1.0
 40
1.0
 40
1.0
 40
1.0
 10
9.4097874251
 20
8.7398048108
 30
0.0
 10
9.4091276626
 20
8.7403762902
 30
0.0
 10
9.4078797245
 20
8.7415395254
 30
0.0
 10
9.4061978356
 20
8.7433878246
 30
0.0
 10
9.4047603365
 20
8.745289131
 30
0.0
 10
9.4035737082
 20
8.7472354126
 30
0.0
 10
9.4026438134
 20
8.749218837
 30
0.0
 10
9.4019757946
 20
8.751230979
 30
0.0
 10
9.4015731263
 20
8.7532627099
 30
0.0
 10
9.4014390391
 20
8.7553044938
 30
0.0
 10
9.4015736209
 20
8.7573462691
 30
0.0
 10
9.4019767876
 20
8.7593779707
 30
0.0
 10
9.402645287
 20
8.761390071
 30
0.0
 10
9.4035756676
 20
8.7633734296
 30
0.0
 10
9.4047627637
 20
8.7653196452
 30
0.0
 10
9.406200706
 20
8.7672208389
 30
0.0
 10
9.4078831211
 20
8.7690691136
 30
0.0
 10
9.409802222
 20
8.7708574446
 30
0.0
 10
9.411950135
 20
8.7725781215
 30
0.0
 10
9.4143173397
 20
8.7742246307
 30
0.0
 10
9.4168940861
 20
8.7757897491
 30
0.0
 10
9.419669282
 20
8.7772672767
 30
0.0
 10
9.4226312576
 20
8.7786508895
 30
0.0
 10
9.4257674416
 20
8.7799347022
 30
0.0
 10
9.4290644439
 20
8.7811135207
 30
0.0
 10
9.4325083551
 20
8.7821819743
 30
0.0
 10
9.4360844521
 20
8.7831359498
 30
0.0
 10
9.4397775761
 20
8.7839709127
 30
0.0
 10
9.4435717917
 20
8.7846837134
 30
0.0
 10
9.4474509603
 20
8.7852710825
 30
0.0
 10
9.4513988377
 20
8.7857305759
 30
0.0
 10
9.4553988091
 20
8.7860601962
 30
0.0
 10
9.4594328422
 20
8.7862583674
 30
0.0
 10
9.4621321936
 20
8.7863026076
 30
0.0
 10
9.463483506
 20
8.7863026076
 30
0.0
  0
SPLINE
  5
25E
100
AcDbEntity
  8
0
100
AcDbSpline
 62
7
  6
CONTINUOUS
 70
0
 71
3
 72
44
 73
40
 74
0
 42
0.0000001
 43
0.0000001
 44
0.0000000001
 40
0.0
 40
0.0
 40
0.0
 40
0.0
 40
0.043578031
 40
0.087030794
 40
0.1301738196
 40
0.1728558273
 40
0.2149407897
 40
0.2562919117
 40
0.2967731401
 40
0.3362582353
 40
0.3746326709
 40
0.4117920425
 40
0.4476461474
 40
0.4821178592
 40
0.5151511
 40
0.5467075376
 40
0.5767760037
 40
0.6053705629
 40
0.6325395696
 40
0.6583665713
 40
0.6829764526
 40
0.7065377992
 40
0.7292627028
 40
0.7403953607
 40
0.7514166433
 40
0.7623629661
 40
0.7732719448
 40
0.7841815798
 40
0.7951298677
 40
0.8061544024
 40
0.817291535
 40
0.8400288264
 40
0.8636066336
 40
0.8882362197
 40
0.9010034564
 40
0.914093165
 40
0.9412861839
 40
0.9699059164
 40
1.0
 40
1.0
 40
1.0
 40
1.0
 10
9.463483506
 20
8.7863026076
 30
0.0
 10
9.4648941086
 20
8.7863026076
 30
0.0
 10
9.4677114937
 20
8.7862544138
 30
0.0
 10
9.4719204227
 20
8.7860385577
 30
0.0
 10
9.4760905261
 20
8.7856795504
 30
0.0
 10
9.4802014752
 20
8.7851793759
 30
0.0
 10
9.484234446
 20
8.7845402275
 30
0.0
 10
9.4881709982
 20
8.7837652476
 30
0.0
 10
9.4919928029
 20
8.7828579666
 30
0.0
 10
9.4956819804
 20
8.7818224834
 30
0.0
 10
9.4992214867
 20
8.7806638499
 30
0.0
 10
9.5025948594
 20
8.7793870994
 30
0.0
 10
9.5057866272
 20
8.7779985543
 30
0.0
 10
9.5087818359
 20
8.7765040861
 30
0.0
 10
9.5115668826
 20
8.7749110663
 30
0.0
 10
9.5141286839
 20
8.7732262025
 30
0.0
 10
9.5164556774
 20
8.7714575281
 30
0.0
 10
9.5185368682
 20
8.7696125349
 30
0.0
 10
9.5203626898
 20
8.7676995675
 30
0.0
 10
9.5219243435
 20
8.7657268574
 30
0.0
 10
9.5232139877
 20
8.7637028955
 30
0.0
 10
9.5242249643
 20
8.7616370309
 30
0.0
 10
9.5248342314
 20
8.7598753518
 30
0.0
 10
9.5251728036
 20
8.7584617294
 30
0.0
 10
9.5253528938
 20
8.7574046875
 30
0.0
 10
9.52546043
 20
8.7563451177
 30
0.0
 10
9.5254954489
 20
8.7552842825
 30
0.0
 10
9.5254579265
 20
8.7542234693
 30
0.0
 10
9.5253478836
 20
8.7531639661
 30
0.0
 10
9.5251652878
 20
8.7521070362
 30
0.0
 10
9.5248233661
 20
8.7506935537
 30
0.0
 10
9.5242099002
 20
8.74893218
 30
0.0
 10
9.5231940955
 20
8.746867033
 30
0.0
 10
9.5221281883
 20
8.7452010619
 30
0.0
 10
9.5211456209
 20
8.743894558
 30
0.0
 10
9.5200475241
 20
8.7425735434
 30
0.0
 10
9.5185029962
 20
8.7409601273
 30
0.0
 10
9.5164176255
 20
8.7391165383
 30
0.0
 10
9.5149015764
 20
8.7379672081
 30
0.0
 10
9.5141062095
 20
8.7374047791
 30
0.0
  0
SPLINE
  5
25F
100
AcDbEntity
  8
0
100
AcDbSpline
 62
7
  6
CONTINUOUS
 70
0
 71
3
 72
13
 73
9
 74
0
 42
0.0000001
 43
0.0000001
 44
0.0000000001
 40
0.0
 40
0.0
 40
0.0
 40
0.0
 40
0.2554736451
 40
0.3826933727
 40
0.5090544751
 40
0.6342596119
 40
0.758030361
 40
1.0
 40
1.0
 40
1.0
 40
1.0
 10
9.463483506
 20
8.7920950814
 30
0.0
 10
9.4682838188
 20
8.7920950814
 30
0.0
 10
9.4754807596
 20
8.7917485076
 30
0.0
 10
9.4849799054
 20
8.7906066779
 30
0.0
 10
9.4919999586
 20
8.7894161662
 30
0.0
 10
9.4988910917
 20
8.7879022001
 30
0.0
 10
9.5077969729
 20
8.7854888408
 30
0.0
 10
9.5142955185
 20
8.7832079455
 30
0.0
 10
9.5185022693
 20
8.7814832464
 30
0.0
  0
SPLINE
  5
260
100
AcDbEntity
  8
0
100
AcDbSpline
 62
7
  6
CONTINUOUS
 70
0
 71
3
 72
9
 73
5
 74
0
 42
0.0000001
 43
0.0000001
 44
0.0000000001
 40
0.0
 40
0.0
 40
0.0
 40
0.0
 40
0.510308357
 40
1.0
 40
1.0
 40
1.0
 40
1.0
 10
9.5185022693
 20
8.7814832464
 30
0.0
 10
9.5216484759
 20
8.7801933531
 30
0.0
 10
9.5277189902
 20
8.7774266716
 30
0.0
 10
9.5335404497
 20
8.7741650184
 30
0.0
 10
9.5363104389
 20
8.7724404269
 30
0.0
  0
SPLINE
  5
261
100
AcDbEntity
  8
0
100
AcDbSpline
 62
7
  6
CONTINUOUS
 70
0
 71
3
 72
11
 73
7
 74
0
 42
0.0000001
 43
0.0000001
 44
0.0000000001
 40
0.0
 40
0.0
 40
0.0
 40
0.0
 40
0.23334644
 40
0.4796592105
 40
0.7360640124
 40
1.0
 40
1.0
 40
1.0
 40
1.0
 10
9.3857769607
 20
8.7692048015
 30
0.0
 10
9.3887849798
 20
8.7713320686
 30
0.0
 10
9.3952251202
 20
8.7753486984
 30
0.0
 10
9.4056622287
 20
8.7804971937
 30
0.0
 10
9.4169799038
 20
8.7848348385
 30
0.0
 10
9.4248934213
 20
8.7870872509
 30
0.0
 10
9.428946733
 20
8.7880547577
 30
0.0
  0
SPLINE
  5
262
100
AcDbEntity
  8
0
100
AcDbSpline
 62
7
  6
CONTINUOUS
 70
0
 71
3
 72
23
 73
19
 74
0
 42
0.0000001
 43
0.0000001
 44
0.0000000001
 40
0.0
 40
0.0
 40
0.0
 40
0.0
 40
0.0874992374
 40
0.173031667
 40
0.256047165
 40
0.3360242962
 40
0.412472858
 40
0.484979067
 40
0.5532465492
 40
0.6170661955
 40
0.6763777203
 40
0.7312530767
 40
0.7819810597
 40
0.8290769175
 40
0.873316393
 40
0.9157302976
 40
0.9575272653
 40
1.0
 40
1.0
 40
1.0
 40
1.0
 10
9.4804321891
 20
8.7167799567
 30
0.0
 10
9.4829843605
 20
8.7169172943
 30
0.0
 10
9.4880255328
 20
8.7173151196
 30
0.0
 10
9.4954446671
 20
8.7182864785
 30
0.0
 10
9.5025851976
 20
8.7196156824
 30
0.0
 10
9.5093811436
 20
8.7212856529
 30
0.0
 10
9.5157698495
 20
8.723276443
 30
0.0
 10
9.5216922808
 20
8.7255679534
 30
0.0
 10
9.5270968165
 20
8.7281329949
 30
0.0
 10
9.5319356234
 20
8.7309481423
 30
0.0
 10
9.5361690645
 20
8.7339825237
 30
0.0
 10
9.5397601718
 20
8.7372102412
 30
0.0
 10
9.5426784888
 20
8.740602063
 30
0.0
 10
9.5448965196
 20
8.7441303836
 30
0.0
 10
9.5463867196
 20
8.747764983
 30
0.0
 10
9.5471326824
 20
8.751467314
 30
0.0
 10
9.5471193085
 20
8.7551922528
 30
0.0
 10
9.546615785
 20
8.7576203865
 30
0.0
 10
9.5462530574
 20
8.7588068104
 30
0.0
  0
SPLINE
  5
263
100
AcDbEntity
  8
0
100
AcDbSpline
 62
7
  6
CONTINUOUS
 70
0
 71
3
 72
9
 73
5
 74
0
 42
0.0000001
 43
0.0000001
 44
0.0000000001
 40
0.0
 40
0.0
 40
0.0
 40
0.0
 40
0.4802230867
 40
1.0
 40
1.0
 40
1.0
 40
1.0
 10
9.5459008191
 20
8.7598567744
 30
0.0
 10
9.5453610545
 20
8.7613340803
 30
0.0
 10
9.543889187
 20
8.7642888815
 30
0.0
 10
9.5419016252
 20
8.7669132649
 30
0.0
 10
9.5407754963
 20
8.7681899413
 30
0.0
  0
SPLINE
  5
264
100
AcDbEntity
  8
0
100
AcDbSpline
 62
7
  6
CONTINUOUS
 70
0
 71
3
 72
26
 73
22
 74
0
 42
0.0000001
 43
0.0000001
 44
0.0000000001
 40
0.0
 40
0.0
 40
0.0
 40
0.0
 40
0.084315873
 40
0.1677109139
 40
0.2491326919
 40
0.3277642752
 40
0.4028852519
 40
0.4738338467
 40
0.5401201857
 40
0.6014991646
 40
0.6579674007
 40
0.709922273
 40
0.7582469221
 40
0.7814875428
 40
0.8043565624
 40
0.8270776672
 40
0.8498784875
 40
0.8729833638
 40
0.8966100249
 40
0.9461710988
 40
1.0
 40
1.0
 40
1.0
 40
1.0
 10
9.4634734012
 20
8.7167935836
 30
0.0
 10
9.4603365099
 20
8.7169676697
 30
0.0
 10
9.4541060514
 20
8.7175074542
 30
0.0
 10
9.4449186076
 20
8.7188750102
 30
0.0
 10
9.4360427635
 20
8.7207792352
 30
0.0
 10
9.4276141455
 20
8.723204324
 30
0.0
 10
9.4197600819
 20
8.7261313615
 30
0.0
 10
9.4126008063
 20
8.7295277179
 30
0.0
 10
9.4062524665
 20
8.7333583959
 30
0.0
 10
9.4008030427
 20
8.7375547492
 30
0.0
 10
9.3963326959
 20
8.7420646174
 30
0.0
 10
9.3929309372
 20
8.7468495381
 30
0.0
 10
9.3910343758
 20
8.7510845822
 30
0.0
 10
9.3901551037
 20
8.7544987611
 30
0.0
 10
9.3898078697
 20
8.7570460487
 30
0.0
 10
9.3897656664
 20
8.759600035
 30
0.0
 10
9.3900277413
 20
8.7621496719
 30
0.0
 10
9.3905936405
 20
8.764684015
 30
0.0
 10
9.3917695037
 20
8.7680809989
 30
0.0
 10
9.3940448242
 20
8.7722710649
 30
0.0
 10
9.3964988736
 20
8.7752681002
 30
0.0
 10
9.3978815945
 20
8.7767210465
 30
0.0
  0
LINE
  5
265
100
AcDbEntity
  8
0
100
AcDbLine
 62
7
  6
CONTINUOUS
 10
9.5363722523
 20
8.7723926166
 11
9.5405545219
 21
8.7684314051
  0
SPLINE
  5
266
100
AcDbEntity
  8
0
100
AcDbSpline
 62
9
  6
CONTINUOUS
 70
0
 71
3
 72
22
 73
18
 74
0
 42
0.0000001
 43
0.0000001
 44
0.0000000001
 40
0.0
 40
0.0
 40
0.0
 40
0.0
 40
0.0244793404
 40
0.0385050108
 40
0.0539111582
 40
0.0891581126
 40
0.1305308728
 40
0.1779144478
 40
0.2310472783
 40
0.2896179739
 40
0.3533160813
 40
0.4947194131
 40
0.6523725414
 40
0.7362258097
 40
0.8227187629
 40
0.9110221754
 40
1.0
 40
1.0
 40
1.0
 40
1.0
 10
9.171483506
 20
9.3523985872
 30
0.0
 10
9.1714834685
 20
9.3521171292
 30
0.0
 10
9.1713929007
 20
9.351673723
 30
0.0
 10
9.1711572387
 20
9.3511003534
 30
0.0
 10
9.1708018872
 20
9.3504453183
 30
0.0
 10
9.170173004
 20
9.3495891147
 30
0.0
 10
9.1691947104
 20
9.3485487905
 30
0.0
 10
9.1679692856
 20
9.3474688071
 30
0.0
 10
9.1665078722
 20
9.3463663594
 30
0.0
 10
9.1648195228
 20
9.3452607494
 30
0.0
 10
9.1621842646
 20
9.3437587634
 30
0.0
 10
9.1583805167
 20
9.3420234877
 30
0.0
 10
9.1541815041
 20
9.340664899
 30
0.0
 10
9.1505030325
 20
9.3398244873
 30
0.0
 10
9.1475656798
 20
9.339346198
 30
0.0
 10
9.1445454649
 20
9.3390498929
 30
0.0
 10
9.1425065534
 20
9.3389807048
 30
0.0
 10
9.141483506
 20
9.3389806235
 30
0.0
  0
SPLINE
  5
267
100
AcDbEntity
  8
0
100
AcDbSpline
 62
9
  6
CONTINUOUS
 70
0
 71
3
 72
17
 73
13
 74
0
 42
0.0000001
 43
0.0000001
 44
0.0000000001
 40
0.0
 40
0.0
 40
0.0
 40
0.0
 40
0.117090601
 40
0.2408786117
 40
0.3049451156
 40
0.3700130364
 40
0.501359453
 40
0.6324739223
 40
0.6972709724
 40
0.760982479
 40
0.8838821617
 40
1.0
 40
1.0
 40
1.0
 40
1.0
 10
9.201483506
 20
8.6980381682
 30
0.0
 10
9.1996546337
 20
8.6980381682
 30
0.0
 10
9.1958851212
 20
8.6976912348
 30
0.0
 10
9.1912722497
 20
8.6963845063
 30
0.0
 10
9.1876703155
 20
8.6947468916
 30
0.0
 10
9.1841461932
 20
8.6927033784
 30
0.0
 10
9.180117942
 20
8.6894862985
 30
0.0
 10
9.1768680235
 20
8.6854895384
 30
0.0
 10
9.1748046203
 20
8.6819924393
 30
0.0
 10
9.1731531215
 20
8.6784228066
 30
0.0
 10
9.171833935
 20
8.6738487838
 30
0.0
 10
9.1714835121
 20
8.67010814
 30
0.0
 10
9.171483506
 20
8.6682944615
 30
0.0
  0
SPLINE
  5
268
100
AcDbEntity
  8
0
100
AcDbSpline
 62
7
  6
CONTINUOUS
 70
0
 71
3
 72
36
 73
32
 74
0
 42
0.0000001
 43
0.0000001
 44
0.0000000001
 40
0.0
 40
0.0
 40
0.0
 40
0.0
 40
0.0850358279
 40
0.1690041527
 40
0.2506434521
 40
0.2902623034
 40
0.3289130944
 40
0.3664664844
 40
0.4027980355
 40
0.4377940973
 40
0.4713467258
 40
0.503354336
 40
0.53374079
 40
0.5624609066
 40
0.5894899508
 40
0.6148561847
 40
0.6386722286
 40
0.6611487393
 40
0.6825998252
 40
0.7034579876
 40
0.7242324116
 40
0.7454352802
 40
0.7675493498
 40
0.7909480292
 40
0.8158737626
 40
0.8424710734
 40
0.8707830196
 40
0.9007792635
 40
0.9323859849
 40
0.9655018788
 40
1.0
 40
1.0
 40
1.0
 40
1.0
 10
9.463483506
 20
8.7045149697
 30
0.0
 10
9.4591438265
 20
8.7045149697
 30
0.0
 10
9.4505183603
 20
8.7046373713
 30
0.0
 10
9.4377377103
 20
8.7052012029
 30
0.0
 10
9.4272931087
 20
8.7060142435
 30
0.0
 10
9.4191801971
 20
8.7069017034
 30
0.0
 10
9.4133201328
 20
8.7076795172
 30
0.0
 10
9.4076479927
 20
8.7085842789
 30
0.0
 10
9.4021886563
 20
8.7096244481
 30
0.0
 10
9.3969675117
 20
8.7108081528
 30
0.0
 10
9.3920109398
 20
8.71214374
 30
0.0
 10
9.3873465913
 20
8.7136405841
 30
0.0
 10
9.3830028195
 20
8.7153078362
 30
0.0
 10
9.3790094285
 20
8.7171543752
 30
0.0
 10
9.3753966805
 20
8.7191857839
 30
0.0
 10
9.3721958942
 20
8.7214074893
 30
0.0
 10
9.3694413437
 20
8.7238271672
 30
0.0
 10
9.3671652149
 20
8.7264451399
 30
0.0
 10
9.3653962299
 20
8.7292559363
 30
0.0
 10
9.3641714289
 20
8.7322519783
 30
0.0
 10
9.3635121293
 20
8.7354081672
 30
0.0
 10
9.3634232745
 20
8.7386945571
 30
0.0
 10
9.3639105974
 20
8.7420791681
 30
0.0
 10
9.3649553128
 20
8.7455310352
 30
0.0
 10
9.3665353888
 20
8.7490232554
 30
0.0
 10
9.3686314405
 20
8.7525258563
 30
0.0
 10
9.3712131833
 20
8.7560131997
 30
0.0
 10
9.3742516554
 20
8.7594583233
 30
0.0
 10
9.3777172927
 20
8.7628340185
 30
0.0
 10
9.3815770364
 20
8.7661167008
 30
0.0
 10
9.3843395306
 20
8.7681882529
 30
0.0
 10
9.3857769607
 20
8.7692048015
 30
0.0
  0
SPLINE
  5
269
100
AcDbEntity
  8
0
100
AcDbSpline
 62
9
  6
CONTINUOUS
 70
0
 71
3
 72
21
 73
17
 74
0
 42
0.0000001
 43
0.0000001
 44
0.0000000001
 40
0.0
 40
0.0
 40
0.0
 40
0.0
 40
0.0889553972
 40
0.1771949942
 40
0.3473893122
 40
0.5050565494
 40
0.6464791505
 40
0.7101927754
 40
0.7687799226
 40
0.8219126084
 40
0.8692892482
 40
0.910686907
 40
0.946029076
 40
0.9614937632
 40
0.9755626515
 40
1.0
 40
1.0
 40
1.0
 40
1.0
 10
9.141483506
 20
8.6817135545
 30
0.0
 10
9.1425063515
 20
8.6817134966
 30
0.0
 10
9.1445444566
 20
8.6816448467
 30
0.0
 10
9.1485219977
 20
8.6812558213
 30
0.0
 10
9.1532316269
 20
8.6803373554
 30
0.0
 10
9.1583766024
 20
8.6786723799
 30
0.0
 10
9.1621809537
 20
8.6769358108
 30
0.0
 10
9.164816991
 20
8.6754337642
 30
0.0
 10
9.1665061301
 20
8.674328522
 30
0.0
 10
9.1679687549
 20
8.6732273516
 30
0.0
 10
9.1691951584
 20
8.6721480104
 30
0.0
 10
9.1701741961
 20
8.6711063487
 30
0.0
 10
9.1708023149
 20
8.6702468866
 30
0.0
 10
9.1711572625
 20
8.6695890102
 30
0.0
 10
9.1713923052
 20
8.6690146687
 30
0.0
 10
9.1714834645
 20
8.6685713932
 30
0.0
 10
9.171483506
 20
8.6682904026
 30
0.0
  0
SPLINE
  5
26A
100
AcDbEntity
  8
0
100
AcDbSpline
 62
9
  6
CONTINUOUS
 70
0
 71
3
 72
28
 73
24
 74
0
 42
0.0000001
 43
0.0000001
 44
0.0000000001
 40
0.0
 40
0.0
 40
0.0
 40
0.0
 40
0.0062599242
 40
0.0098513669
 40
0.0138524358
 40
0.0232601807
 40
0.0347173202
 40
0.0482969409
 40
0.0640088011
 40
0.0818332994
 40
0.1017336379
 40
0.1475589629
 40
0.2009608282
 40
0.261275499
 40
0.3278065622
 40
0.3998409348
 40
0.4766708378
 40
0.5576006677
 40
0.6419433295
 40
0.7290424768
 40
0.8182561409
 40
0.9088537057
 40
1.0
 40
1.0
 40
1.0
 40
1.0
 10
9.201483506
 20
9.3226560098
 30
0.0
 10
9.2014879669
 20
9.3225259434
 30
0.0
 10
9.2014428098
 20
9.3223186691
 30
0.0
 10
9.2013137793
 20
9.3220610122
 30
0.0
 10
9.2011141927
 20
9.3217679859
 30
0.0
 10
9.2007544088
 20
9.3213927876
 30
0.0
 10
9.2001941376
 20
9.3209450708
 30
0.0
 10
9.1994859673
 20
9.3204784369
 30
0.0
 10
9.1986333811
 20
9.3199951234
 30
0.0
 10
9.1976395147
 20
9.3194978109
 30
0.0
 10
9.1960547258
 20
9.318785804
 30
0.0
 10
9.1937431819
 20
9.3178920523
 30
0.0
 10
9.1905930547
 20
9.3168506902
 30
0.0
 10
9.1869894166
 20
9.3158196224
 30
0.0
 10
9.1829761124
 20
9.3148220248
 30
0.0
 10
9.1785973135
 20
9.3138810606
 30
0.0
 10
9.1738977742
 20
9.3130183754
 30
0.0
 10
9.1689227409
 20
9.3122505719
 30
0.0
 10
9.1637164132
 20
9.3115949797
 30
0.0
 10
9.1583222396
 20
9.3110690709
 30
0.0
 10
9.1527850461
 20
9.3106946469
 30
0.0
 10
9.147155671
 20
9.3104719301
 30
0.0
 10
9.1433773328
 20
9.3104129815
 30
0.0
 10
9.1414824371
 20
9.3104037567
 30
0.0
  0
SPLINE
  5
26B
100
AcDbEntity
  8
0
100
AcDbSpline
 62
9
  6
CONTINUOUS
 70
0
 71
3
 72
15
 73
11
 74
0
 42
0.0000001
 43
0.0000001
 44
0.0000000001
 40
0.0
 40
0.0
 40
0.0
 40
0.0
 40
0.1244357739
 40
0.2490465577
 40
0.3737247177
 40
0.4986254976
 40
0.6237356549
 40
0.7490094837
 40
0.8745125991
 40
1.0
 40
1.0
 40
1.0
 40
1.0
 10
9.171483506
 20
9.3523993203
 30
0.0
 10
9.171483506
 20
9.3504561691
 30
0.0
 10
9.1718715609
 20
9.3465563642
 30
0.0
 10
9.1735892275
 20
9.3409407877
 30
0.0
 10
9.1763818616
 20
9.3357643238
 30
0.0
 10
9.1801368975
 20
9.3312280764
 30
0.0
 10
9.1847128785
 20
9.3275071128
 30
0.0
 10
9.1899328088
 20
9.3247407985
 30
0.0
 10
9.1955940297
 20
9.3230398021
 30
0.0
 10
9.1995239329
 20
9.322655648
 30
0.0
 10
9.201483506
 20
9.322655648
 30
0.0
  0
SPLINE
  5
26C
100
AcDbEntity
  8
0
100
AcDbSpline
 62
7
  6
CONTINUOUS
 70
0
 71
3
 72
20
 73
16
 74
0
 42
0.0000001
 43
0.0000001
 44
0.0000000001
 40
0.0
 40
0.0
 40
0.0
 40
0.0
 40
0.1276904686
 40
0.1916851509
 40
0.2556199131
 40
0.3195256565
 40
0.3834107937
 40
0.5109319652
 40
0.6381387896
 40
0.7643371577
 40
0.8877552846
 40
0.9176516641
 40
0.9467858701
 40
0.9745265204
 40
1.0
 40
1.0
 40
1.0
 40
1.0
 10
8.7629610934
 20
8.7102951641
 30
0.0
 10
8.7609349075
 20
8.710338524
 30
0.0
 10
8.7578875959
 20
8.7107179024
 30
0.0
 10
8.7539834051
 20
8.7118404117
 30
0.0
 10
8.7511574238
 20
8.712989743
 30
0.0
 10
8.7484674522
 20
8.714424031
 30
0.0
 10
8.7451007248
 20
8.7166896706
 30
0.0
 10
8.741351891
 20
8.7201382887
 30
0.0
 10
8.7377722867
 20
8.7250574622
 30
0.0
 10
8.7352248359
 20
8.7305072556
 30
0.0
 10
8.7341128783
 20
8.7348301622
 30
0.0
 10
8.7337063074
 20
8.7376976379
 30
0.0
 10
8.7335737043
 20
8.7390689366
 30
0.0
 10
8.7335001744
 20
8.7403741434
 30
0.0
 10
8.733483506
 20
8.7412188
 30
0.0
 10
8.733483506
 20
8.7416231044
 30
0.0
  0
SPLINE
  5
26D
100
AcDbEntity
  8
0
100
AcDbSpline
 62
9
  6
CONTINUOUS
 70
0
 71
3
 72
18
 73
14
 74
0
 42
0.0000001
 43
0.0000001
 44
0.0000000001
 40
0.0
 40
0.0
 40
0.0
 40
0.0
 40
0.1202500554
 40
0.2410628491
 40
0.3019149263
 40
0.3631162231
 40
0.4247322973
 40
0.4867900887
 40
0.5492904211
 40
0.6122389157
 40
0.739539464
 40
0.8688465467
 40
1.0
 40
1.0
 40
1.0
 40
1.0
 10
8.7629611226
 20
8.7102964048
 30
0.0
 10
8.7611582014
 20
8.7103317834
 30
0.0
 10
8.7575419259
 20
8.7107793523
 30
0.0
 10
8.7532199361
 20
8.7122279254
 30
0.0
 10
8.7499708822
 20
8.7138846245
 30
0.0
 10
8.7476469487
 20
8.7153711352
 30
0.0
 10
8.7454586958
 20
8.7170797487
 30
0.0
 10
8.7434213696
 20
8.718994141
 30
0.0
 10
8.7415501022
 20
8.7210980912
 30
0.0
 10
8.7392888862
 20
8.7241449983
 30
0.0
 10
8.7369336996
 20
8.7283456086
 30
0.0
 10
8.7349169244
 20
8.73382235
 30
0.0
 10
8.7341275631
 20
8.7376642302
 30
0.0
 10
8.7338662251
 20
8.7396135655
 30
0.0
  0
SPLINE
  5
26E
100
AcDbEntity
  8
0
100
AcDbSpline
 62
9
  6
CONTINUOUS
 70
0
 71
3
 72
20
 73
16
 74
0
 42
0.0000001
 43
0.0000001
 44
0.0000000001
 40
0.0
 40
0.0
 40
0.0
 40
0.0
 40
0.1314346021
 40
0.1964861266
 40
0.2610555872
 40
0.3251116309
 40
0.3886247275
 40
0.4515996543
 40
0.5140838553
 40
0.5761065219
 40
0.6376653965
 40
0.6987827942
 40
0.7595234153
 40
0.8800583739
 40
1.0
 40
1.0
 40
1.0
 40
1.0
 10
8.7336404616
 20
9.2790159159
 30
0.0
 10
8.7338169564
 20
9.2810934755
 30
0.0
 10
8.7343063603
 20
9.2841875055
 30
0.0
 10
8.7354248055
 20
9.288178187
 30
0.0
 10
8.7364908007
 20
9.2910636682
 30
0.0
 10
8.7377806462
 20
9.2938291905
 30
0.0
 10
8.7392879988
 20
9.2964536209
 30
0.0
 10
8.7410062503
 20
9.2989150967
 30
0.0
 10
8.7429290591
 20
9.3011898259
 30
0.0
 10
8.7450420956
 20
9.3032572002
 30
0.0
 10
8.747326697
 20
9.3050990033
 30
0.0
 10
8.7497650247
 20
9.3066960326
 30
0.0
 10
8.7531854982
 20
9.3084657786
 30
0.0
 10
8.7577550428
 20
9.309982772
 30
0.0
 10
8.7615807846
 20
9.3104026666
 30
0.0
 10
8.7634835061
 20
9.3104029694
 30
0.0
  0
SPLINE
  5
26F
100
AcDbEntity
  8
0
100
AcDbSpline
 62
7
  6
CONTINUOUS
 70
0
 71
3
 72
20
 73
16
 74
0
 42
0.0000001
 43
0.0000001
 44
0.0000000001
 40
0.0
 40
0.0
 40
0.0
 40
0.0
 40
0.0254784983
 40
0.053236358
 40
0.0823888226
 40
0.1123030984
 40
0.2357665235
 40
0.3619740551
 40
0.4891686968
 40
0.6166673935
 40
0.6805401548
 40
0.7444331624
 40
0.80835625
 40
0.872339745
 40
1.0
 40
1.0
 40
1.0
 40
1.0
 10
8.733483506
 20
9.2790710707
 30
0.0
 10
8.733483506
 20
9.2794798729
 30
0.0
 10
8.7335005504
 20
9.2803341156
 30
0.0
 10
8.7335757239
 20
9.2816541926
 30
0.0
 10
8.7337114212
 20
9.2830411866
 30
0.0
 10
8.7341273591
 20
9.2859406173
 30
0.0
 10
8.735264534
 20
9.290309244
 30
0.0
 10
8.737868323
 20
9.2958068462
 30
0.0
 10
8.7415234527
 20
9.3007536455
 30
0.0
 10
8.7453466362
 20
9.3042035237
 30
0.0
 10
8.7487758403
 20
9.3064541751
 30
0.0
 10
8.7515132827
 20
9.3078687183
 30
0.0
 10
8.7543858036
 20
9.3089901
 30
0.0
 10
8.7583486497
 20
9.3100647975
 30
0.0
 10
8.7614352109
 20
9.3103966587
 30
0.0
 10
8.763483506
 20
9.3104037193
 30
0.0
  0
SPLINE
  5
270
100
AcDbEntity
  8
0
100
AcDbSpline
 62
9
  6
CONTINUOUS
 70
0
 71
3
 72
24
 73
20
 74
0
 42
0.0000001
 43
0.0000001
 44
0.0000000001
 40
0.0
 40
0.0
 40
0.0
 40
0.0
 40
0.0062866465
 40
0.0138723092
 40
0.0232480743
 40
0.0346500902
 40
0.0481840195
 40
0.0638705556
 40
0.0816877689
 40
0.1015952138
 40
0.1474553715
 40
0.2008840839
 40
0.2612089271
 40
0.3277385214
 40
0.3997749005
 40
0.476618566
 40
0.6419207966
 40
0.8182578792
 40
1.0
 40
1.0
 40
1.0
 40
1.0
 10
9.201483506
 20
8.6980381682
 30
0.0
 10
9.2014834397
 20
8.6981688454
 30
0.0
 10
9.2014143706
 20
8.6984575708
 30
0.0
 10
9.2011556305
 20
8.6988710646
 30
0.0
 10
9.2007483496
 20
8.6993008753
 30
0.0
 10
9.2001917332
 20
8.6997490699
 30
0.0
 10
9.1994868839
 20
8.7002156056
 30
0.0
 10
9.198636106
 20
8.7006985889
 30
0.0
 10
9.197642907
 20
8.7011956346
 30
0.0
 10
9.1960575504
 20
8.7019074644
 30
0.0
 10
9.1937448825
 20
8.7028011266
 30
0.0
 10
9.1905938881
 20
8.7038428877
 30
0.0
 10
9.1869901462
 20
8.7048740762
 30
0.0
 10
9.1829773186
 20
8.705871692
 30
0.0
 10
9.178599051
 20
8.7068131514
 30
0.0
 10
9.1721751355
 20
8.7079939839
 30
0.0
 10
9.1635535389
 20
8.7091887296
 30
0.0
 10
9.1527061562
 20
8.7100840845
 30
0.0
 10
9.1452612838
 20
8.710290304
 30
0.0
 10
9.141483506
 20
8.7102903836
 30
0.0
  0
SPLINE
  5
271
100
AcDbEntity
  8
0
100
AcDbSpline
 62
7
  6
CONTINUOUS
 70
0
 71
3
 72
21
 73
17
 74
0
 42
0.0000001
 43
0.0000001
 44
0.0000000001
 40
0.0
 40
0.0
 40
0.0
 40
0.0
 40
0.0387301975
 40
0.0802058242
 40
0.1250012201
 40
0.1734064016
 40
0.2255334416
 40
0.2813731245
 40
0.3408354186
 40
0.4037776348
 40
0.539321533
 40
0.6115226659
 40
0.6861649675
 40
0.7628032748
 40
0.8409755686
 40
1.0
 40
1.0
 40
1.0
 40
1.0
 10
9.5471381413
 20
8.7527611123
 30
0.0
 10
9.5467154924
 20
8.751636393
 30
0.0
 10
9.5456225906
 20
8.7493845219
 30
0.0
 10
9.5433717367
 20
8.7462096522
 30
0.0
 10
9.5405013329
 20
8.7431583401
 30
0.0
 10
9.5370472445
 20
8.7402478397
 30
0.0
 10
9.5330430086
 20
8.7374975369
 30
0.0
 10
9.5285223408
 20
8.7349287656
 30
0.0
 10
9.5235188128
 20
8.7325635512
 30
0.0
 10
9.5160646682
 20
8.7296398621
 30
0.0
 10
9.5079685591
 20
8.7273248407
 30
0.0
 10
9.4993775753
 20
8.7255988956
 30
0.0
 10
9.492517992
 20
8.7245725624
 30
0.0
 10
9.4854343242
 20
8.7238469521
 30
0.0
 10
9.4757125409
 20
8.7232840484
 30
0.0
 10
9.4683423035
 20
8.7233334562
 30
0.0
 10
9.4634149613
 20
8.723576738
 30
0.0
  0
SPLINE
  5
272
100
AcDbEntity
  8
0
100
AcDbSpline
 62
7
  6
CONTINUOUS
 70
0
 71
3
 72
10
 73
6
 74
0
 42
0.0000001
 43
0.0000001
 44
0.0000000001
 40
0.0
 40
0.0
 40
0.0
 40
0.0
 40
0.5034296646
 40
0.7530670067
 40
1.0
 40
1.0
 40
1.0
 40
1.0
 10
9.4634149613
 20
8.723576738
 30
0.0
 10
9.4591920213
 20
8.7237852407
 30
0.0
 10
9.4528826049
 20
8.7243287614
 30
0.0
 10
9.4445704551
 20
8.7255409803
 30
0.0
 10
9.4404702877
 20
8.7263117193
 30
0.0
 10
9.4384404628
 20
8.7267369194
 30
0.0
  0
SPLINE
  5
273
100
AcDbEntity
  8
0
100
AcDbSpline
 62
7
  6
CONTINUOUS
 70
0
 71
3
 72
9
 73
5
 74
0
 42
0.0000001
 43
0.0000001
 44
0.0000000001
 40
0.0
 40
0.0
 40
0.0
 40
0.0
 40
0.5129681917
 40
1.0
 40
1.0
 40
1.0
 40
1.0
 10
9.4352729958
 20
8.7274364897
 30
0.0
 10
9.4311632233
 20
8.7283914709
 30
0.0
 10
9.4232266709
 20
8.7305962936
 30
0.0
 10
9.4155265727
 20
8.7335329343
 30
0.0
 10
9.4118678513
 20
8.7351642767
 30
0.0
  0
SPLINE
  5
274
100
AcDbEntity
  8
0
100
AcDbSpline
 62
7
  6
CONTINUOUS
 70
0
 71
3
 72
9
 73
5
 74
0
 42
0.0000001
 43
0.0000001
 44
0.0000000001
 40
0.0
 40
0.0
 40
0.0
 40
0.0
 40
0.5189656614
 40
1.0
 40
1.0
 40
1.0
 40
1.0
 10
9.4080485583
 20
8.7369603015
 30
0.0
 10
9.4053503556
 20
8.7382982463
 30
0.0
 10
9.400264285
 20
8.7411144133
 30
0.0
 10
9.3955174832
 20
8.7444837585
 30
0.0
 10
9.3933625599
 20
8.7462583684
 30
0.0
  0
SPLINE
  5
275
100
AcDbEntity
  8
0
100
AcDbSpline
 62
7
  6
CONTINUOUS
 70
0
 71
3
 72
34
 73
30
 74
0
 42
0.0000001
 43
0.0000001
 44
0.0000000001
 40
0.0
 40
0.0
 40
0.0
 40
0.0
 40
0.0335864814
 40
0.0657317522
 40
0.0963211996
 40
0.1252719754
 40
0.1525459805
 40
0.1781585268
 40
0.2021979433
 40
0.2248690792
 40
0.2464850889
 40
0.2674477487
 40
0.288251091
 40
0.3093966349
 40
0.3313298675
 40
0.3544185295
 40
0.3789185235
 40
0.4049846624
 40
0.4326968501
 40
0.4620667792
 40
0.4930557809
 40
0.5256075469
 40
0.5596457872
 40
0.5950721143
 40
0.6696520071
 40
0.7484361343
 40
0.8304589055
 40
0.9147210687
 40
1.0
 40
1.0
 40
1.0
 40
1.0
 10
9.5444282602
 20
8.7668058397
 30
0.0
 10
9.5457466352
 20
8.7657825092
 30
0.0
 10
9.548269738
 20
8.7637045305
 30
0.0
 10
9.5517640861
 20
8.7604287247
 30
0.0
 10
9.5548609241
 20
8.7570812626
 30
0.0
 10
9.5575291048
 20
8.7536848238
 30
0.0
 10
9.5597411504
 20
8.750264869
 30
0.0
 10
9.5614736155
 20
8.7468484334
 30
0.0
 10
9.5626994946
 20
8.7434592043
 30
0.0
 10
9.5633989253
 20
8.7401241796
 30
0.0
 10
9.5635627375
 20
8.7368712835
 30
0.0
 10
9.5631759735
 20
8.7337289454
 30
0.0
 10
9.5622435649
 20
8.7307280827
 30
0.0
 10
9.5607876564
 20
8.7278905189
 30
0.0
 10
9.5588276384
 20
8.7252348231
 30
0.0
 10
9.556396088
 20
8.7227669969
 30
0.0
 10
9.5535243379
 20
8.7204857101
 30
0.0
 10
9.5502399666
 20
8.7183910253
 30
0.0
 10
9.5465737956
 20
8.7164765606
 30
0.0
 10
9.5425551978
 20
8.7147356091
 30
0.0
 10
9.5382122674
 20
8.7131620848
 30
0.0
 10
9.5335722743
 20
8.7117483843
 30
0.0
 10
9.5286612903
 20
8.7104859432
 30
0.0
 10
9.5216652548
 20
8.7089670888
 30
0.0
 10
9.51240466
 20
8.7074325149
 30
0.0
 10
9.5007821697
 20
8.7060895905
 30
0.0
 10
9.4886367244
 20
8.7051692799
 30
0.0
 10
9.4761461483
 20
8.7046317113
 30
0.0
 10
9.4677210539
 20
8.7045149697
 30
0.0
 10
9.463483506
 20
8.7045149697
 30
0.0
  0
SPLINE
  5
276
100
AcDbEntity
  8
0
100
AcDbSpline
 62
7
  6
CONTINUOUS
 70
0
 71
3
 72
18
 73
14
 74
0
 42
0.0000001
 43
0.0000001
 44
0.0000000001
 40
0.0
 40
0.0
 40
0.0
 40
0.0
 40
0.0413722845
 40
0.0903126799
 40
0.1544012236
 40
0.315443528
 40
0.4062494398
 40
0.4999823197
 40
0.5937155906
 40
0.684529485
 40
0.8455848819
 40
0.9586261603
 40
1.0
 40
1.0
 40
1.0
 40
1.0
 10
10.138483506
 20
9.995347089
 30
0.0
 10
10.1432742782
 20
9.9946235032
 30
0.0
 10
10.1537416398
 20
9.9931060326
 30
0.0
 10
10.1716692011
 20
9.9907434436
 30
0.0
 10
10.2035553438
 20
9.9870647542
 30
0.0
 10
10.2404493402
 20
9.9840521954
 30
0.0
 10
10.2808869043
 20
9.9823067175
 30
0.0
 10
10.313476701
 20
9.9818337656
 30
0.0
 10
10.34606736
 20
9.9823065101
 30
0.0
 10
10.3865077387
 20
9.9840507639
 30
0.0
 10
10.4291192239
 20
9.9875327924
 30
0.0
 10
10.4657956832
 20
9.9920289863
 30
0.0
 10
10.4836925089
 20
9.9946239182
 30
0.0
 10
10.488483506
 20
9.995347089
 30
0.0
  0
ENDSEC
  0
SECTION
  2
OBJECTS
  0
DICTIONARY
  5
C
100
AcDbDictionary
280
0
281
1
  3
ACAD_GROUP
350
D
  3
ACAD_MLINESTYLE
350
17
  3
ACAD_LAYOUT
350
1A
  3
ACAD_PLOTSETTINGS
350
19
  3
ACAD_PLOTSTYLENAME
350
E
  0
DICTIONARY
  5
D
102
{ACAD_REACTORS
330
C
102
}
100
AcDbDictionary
280
0
281
1
  0
ACDBDICTIONARYWDFLT
  5
E
102
{ACAD_REACTORS
330
C
102
}
100
AcDbDictionary
281
1
  3
Normal
350
F
100
AcDbDictionaryWithDefault
340
F
  0
DICTIONARY
  5
17
102
{ACAD_REACTORS
330
C
102
}
100
AcDbDictionary
280
0
281
1
  3
Standard
350
18
  0
DICTIONARY
  5
19
102
{ACAD_REACTORS
330
C
102
}
100
AcDbDictionary
281
1
  0
DICTIONARY
  5
1A
102
{ACAD_REACTORS
330
C
102
}
100
AcDbDictionary
281
1
  3
Model
350
277
  3
Layout1
350
278
  0
ACDBPLACEHOLDER
  5
F
102
{ACAD_REACTORS
330
E
102
}
  0
MLINESTYLE
  5
18
102
{ACAD_REACTORS
330
17
102
}
100
AcDbMlineStyle
  2
STANDARD
 70
0
  3

 62
256
 51
90.0
 52
90.0
 71
2
 49
0.5
 62
256
  6
BYLAYER
 49
-0.5
 62
256
  6
BYLAYER
  0
LAYOUT
  5
277
102
{ACAD_REACTORS
330
1A
102
}
100
AcDbPlotSettings
  1

  2
none_device
  4
ANSI_C_(22.00_x_17.00_Inches)
  6

 40
0.0
 41
0.0
 42
0.0
 43
0.0
 44
558.8
 45
431.8
 46
0.0
 47
0.0
 48
0.0
 49
0.0
140
0.0
141
0.0
142
1.0
143
1.0
 70
1024
 72
0
 73
0
 74
0
  7

 75
0
147
1.0
148
0.0
149
0.0
100
AcDbLayout
  1
Model
 70
0
 71
0
 10
0.0
 20
0.0
 11
22.0
 21
17.0
 12
0.0
 22
0.0
 32
0.0
 14
0.0
 24
0.0
 34
0.0
 15
0.0
 25
0.0
 35
0.0
146
0.0
 13
0.0
 23
0.0
 33
0.0
 16
1.0
 26
0.0
 36
0.0
 17
0.0
 27
1.0
 37
0.0
 76
0
330
202
345
0
346
0
  0
LAYOUT
  5
278
102
{ACAD_REACTORS
330
1A
102
}
100
AcDbPlotSettings
  1

  2
none_device
  4
ANSI_C_(22.00_x_17.00_Inches)
  6

 40
0.0
 41
0.0
 42
0.0
 43
0.0
 44
558.8
 45
431.8
 46
0.0
 47
0.0
 48
0.0
 49
0.0
140
0.0
141
0.0
142
1.0
143
1.0
 70
0
 72
0
 73
0
 74
0
  7

 75
0
147
1.0
148
0.0
149
0.0
100
AcDbLayout
  1
Layout1
 70
0
 71
1
 10
0.0
 20
0.0
 11
22.0
 21
17.0
 12
0.0
 22
0.0
 32
0.0
 14
0.0
 24
0.0
 34
0.0
 15
0.0
 25
0.0
 35
0.0
146
0.0
 13
0.0
 23
0.0
 33
0.0
 16
1.0
 26
0.0
 36
0.0
 17
0.0
 27
1.0
 37
0.0
 76
0
330
203
345
0
346
0
  0
ENDSEC
  0
EOF
