999
DXF file: 3-3325_front.dxf
999
Pro/ENGINEER 2019352 by Parametric Technology Corporation
  0
SECTION
  2
HEADER
  9
$ACADVER
  1
AC1032
  9
$DWGCODEPAGE
  3
ANSI_1252
  9
$EXTMAX
 10
11.0
 20
8.5
 30
0.0
  9
$EXTMIN
 10
0.0
 20
0.0
 30
0.0
  9
$LIMMIN
 10
0.0
 20
0.0
  9
$LIMMAX
 10
11.0
 20
8.5
  9
$VIEWCTR
 10
5.5
 20
4.25
  9
$VIEWSIZE
 40
8.5
  9
$CLAYER
  8
0
  9
$LTSCALE
 40
0.605
  9
$CELTYPE
  6
BYLAYER
  9
$DIMSCALE
 40
1.0
  9
$DIMASZ
 40
0.1
  9
$DIMEXO
 40
0.0625
  9
$DIMDLI
 40
0.418
  9
$DIMEXE
 40
0.125
  9
$DIMCEN
 40
0.099
  9
$DIMLFAC
 40
1.0
  9
$DIMBLK
  1
_FILLED
  9
$DIMALT
 70
1
  9
$DIMALTD
 70
2
  9
$DIMALTTD
 70
2
  9
$DIMALTF
 40
25.4
  9
$DIMTXT
 40
0.08
  9
$DIMTOL
 70
1
  9
$DIMLIM
 70
0
  9
$DIMTFAC
 40
1.0
  9
$DIMTP
 40
0.001
  9
$DIMTM
 40
0.001
  9
$DIMGAP
 40
0.09
  9
$DIMDSEP
 70
46
  9
$AUNITS
 70
0
  9
$PDMODE
 70
3
  9
$PDSIZE
 40
0.3125
  9
$HANDSEED
  5
25F
  9
$TILEMODE
 70
1
  9
$MEASUREMENT
 70
0
  9
$INSUNITS
 70
1
  0
ENDSEC
  0
SECTION
  2
CLASSES
  0
CLASS
  1
ACDBDICTIONARYWDFLT
  2
AcDbDictionaryWithDefault
  3
AutoCAD 2000
 90
0
 91
1
280
0
281
0
  0
CLASS
  1
ACDBPLACEHOLDER
  2
AcDbPlaceHolder
  3
AutoCAD 2000
 90
0
 91
1
280
0
281
0
  0
CLASS
  1
LAYOUT
  2
AcDbLayout
  3
AutoCAD 2000
 90
0
 91
0
280
0
281
0
  0
ENDSEC
  0
SECTION
  2
TABLES
  0
TABLE
  2
VPORT
  5
8
100
AcDbSymbolTable
 70
2
  0
VPORT
  5
1F4
100
AcDbSymbolTableRecord
100
AcDbViewportTableRecord
  2
*ACTIVE
 70
0
 10
0.0
 20
0.0
 11
1.0
 21
1.0
 12
5.5
 22
4.25
 13
0.0
 23
0.0
 14
1.0
 24
1.0
 15
0.0
 25
0.0
 16
0.0
 26
0.0
 36
1.0
 17
0.0
 27
0.0
 37
0.0
 40
8.5
 41
1.2941176471
 42
50.0
 43
0.0
 44
0.0
 50
0.0
 51
0.0
 71
0
 72
100
 73
1
 74
1
 75
0
 76
0
 77
0
 78
0
  0
ENDTAB
  0
TABLE
  2
LTYPE
  5
5
100
AcDbSymbolTable
 70
6
  0
LTYPE
  5
14
100
AcDbSymbolTableRecord
100
AcDbLinetypeTableRecord
  2
BYBLOCK
 70
0
  3

 72
65
 73
0
 40
0.0
  0
LTYPE
  5
15
100
AcDbSymbolTableRecord
100
AcDbLinetypeTableRecord
  2
BYLAYER
 70
0
  3

 72
65
 73
0
 40
0.0
  0
LTYPE
  5
16
100
AcDbSymbolTableRecord
100
AcDbLinetypeTableRecord
  2
CONTINUOUS
 70
64
  3
Solid line
 72
65
 73
0
 40
0.0
  0
LTYPE
  5
1F5
100
AcDbSymbolTableRecord
100
AcDbLinetypeTableRecord
  2
CENTER
 70
64
  3
____ _ ____ _ ____ _ ____ _ ____ _ ____ _ ____
 72
65
 73
4
 40
0.6
 49
0.375
 74
0
 49
-0.075
 74
0
 49
0.075
 74
0
 49
-0.075
 74
0
  0
LTYPE
  5
1F6
100
AcDbSymbolTableRecord
100
AcDbLinetypeTableRecord
  2
HIDDEN
 70
64
  3
- - - - - - - - - - - - - - - - - - - -
 72
65
 73
2
 40
0.2
 49
0.1
 74
0
 49
-0.1
 74
0
  0
LTYPE
  5
1F7
100
AcDbSymbolTableRecord
100
AcDbLinetypeTableRecord
  2
PHANTOM
 70
64
  3
_____ _ _ _____ _ _ _____ _ _ _____
 72
65
 73
6
 40
0.8
 49
0.45
 74
0
 49
-0.05
 74
0
 49
0.1
 74
0
 49
-0.05
 74
0
 49
0.1
 74
0
 49
-0.05
 74
0
  0
LTYPE
  5
1F8
100
AcDbSymbolTableRecord
100
AcDbLinetypeTableRecord
  2
DOT
 70
64
  3
. . . . . . . . . . . . . . . . . . . .
 72
65
 73
2
 40
0.2
 49
0.1
 74
0
 49
-0.1
 74
0
  0
LTYPE
  5
1F9
100
AcDbSymbolTableRecord
100
AcDbLinetypeTableRecord
  2
DASHED
 70
64
  3
- - - - - - - - - - - - - - - - - - - -
 72
65
 73
2
 40
0.2
 49
0.1
 74
0
 49
-0.1
 74
0
  0
ENDTAB
  0
TABLE
  2
LAYER
  5
2
100
AcDbSymbolTable
 70
36
  0
LAYER
  5
10
100
AcDbSymbolTableRecord
100
AcDbLayerTableRecord
  2
0
 70
0
 62
7
  6
CONTINUOUS
370
-3
390
F
  0
LAYER
  5
1FA
100
AcDbSymbolTableRecord
100
AcDbLayerTableRecord
  2
DEFAULT_1
 70
0
 62
7
  6
CENTER
370
-3
390
F
  0
LAYER
  5
1FB
100
AcDbSymbolTableRecord
100
AcDbLayerTableRecord
  2
DEFAULT_2
 70
0
 62
8
  6
HIDDEN
370
-3
390
F
  0
LAYER
  5
1FC
100
AcDbSymbolTableRecord
100
AcDbLayerTableRecord
  2
DEFAULT_3
 70
0
 62
7
  6
PHANTOM
370
-3
390
F
  0
LAYER
  5
1FD
100
AcDbSymbolTableRecord
100
AcDbLayerTableRecord
  2
DEFAULT_COORDINATE_SYSTEM
 70
0
 62
7
  6
CONTINUOUS
370
-3
390
F
  0
LAYER
  5
1FE
100
AcDbSymbolTableRecord
100
AcDbLayerTableRecord
  2
DEFAULT_DATUM_AXES
 70
0
 62
7
  6
CONTINUOUS
370
-3
390
F
  0
LAYER
  5
1FF
100
AcDbSymbolTableRecord
100
AcDbLayerTableRecord
  2
DEFAULT_DATUM_PLANES
 70
0
 62
7
  6
CONTINUOUS
370
-3
390
F
  0
ENDTAB
  0
TABLE
  2
STYLE
  5
3
100
AcDbSymbolTable
 70
1
  0
STYLE
  5
11
100
AcDbSymbolTableRecord
100
AcDbTextStyleTableRecord
  2
STANDARD
 70
0
 40
0.0
 41
0.8
 50
0.0
 71
0
 42
0.2
  3
txt
  4

  0
STYLE
  5
200
100
AcDbSymbolTableRecord
100
AcDbTextStyleTableRecord
  2
TEXTSTYLE_1
 70
0
 40
0.0
 41
0.8
 50
0.0
 71
0
 42
0.2
  3
gdt
  4

  0
ENDTAB
  0
TABLE
  2
VIEW
  5
6
100
AcDbSymbolTable
 70
0
  0
ENDTAB
  0
TABLE
  2
UCS
  5
7
100
AcDbSymbolTable
 70
0
  0
ENDTAB
  0
TABLE
  2
APPID
  5
9
100
AcDbSymbolTable
 70
1
  0
APPID
  5
201
100
AcDbSymbolTableRecord
100
AcDbRegAppTableRecord
  2
ACAD
 70
0
  0
ENDTAB
  0
TABLE
  2
BLOCK_RECORD
  5
1
100
AcDbSymbolTable
 70
0
  0
BLOCK_RECORD
  5
202
100
AcDbSymbolTableRecord
100
AcDbBlockTableRecord
  2
*Model_Space
  0
BLOCK_RECORD
  5
203
100
AcDbSymbolTableRecord
100
AcDbBlockTableRecord
  2
*Paper_Space
  0
BLOCK_RECORD
  5
204
100
AcDbSymbolTableRecord
100
AcDbBlockTableRecord
  2
_FILLED
  0
ENDTAB
  0
TABLE
  2
DIMSTYLE
  5
A
100
AcDbSymbolTable
 70
1
100
AcDbDimStyleTable
 71
0
  0
DIMSTYLE
105
205
100
AcDbSymbolTableRecord
100
AcDbDimStyleTableRecord
  2
STANDARD
 70
0
  3

  4

 40
1.0
 41
0.1
 42
0.0625
 43
0.38
 44
0.125
 45
0.0
 46
0.0
 47
0.001
 48
0.001
140
0.08
141
0.09
142
0.0
143
25.4
144
1.0
145
0.0
146
1.0
147
0.09
 71
1.0
 72
0.0
 73
1
 74
1
 75
0
 76
0
 77
0
 78
4
 79
1
170
1
171
2
172
0
173
0
174
0
175
0
176
0
177
0
178
0
270
2
179
3
271
3
272
3
273
2
274
2
275
0
280
0
281
0
282
0
283
1
284
4
285
0
286
0
287
3
288
0
340
11
278
46
341
204
342
204
343
204
344
204
  0
ENDTAB
  0
ENDSEC
  0
SECTION
  2
BLOCKS
  0
BLOCK
  5
20
100
AcDbEntity
  8
0
100
AcDbBlockBegin
  2
*Model_Space
 70
0
 10
0.0
 20
0.0
 30
0.0
  3
*Model_Space
  1

  0
ENDBLK
  5
21
100
AcDbEntity
  8
0
100
AcDbBlockEnd
  0
BLOCK
  5
1C
100
AcDbEntity
  8
0
100
AcDbBlockBegin
  2
*Paper_Space
 70
0
 10
0.0
 20
0.0
 30
0.0
  3
*Paper_Space
  1

  0
ENDBLK
  5
1D
100
AcDbEntity
  8
0
100
AcDbBlockEnd
  0
BLOCK
  5
206
100
AcDbEntity
  8
0
100
AcDbBlockBegin
  2
_FILLED
 70
64
 10
0.0
 20
0.0
  3
_FILLED
  1

  0
SOLID
  5
207
100
AcDbEntity
  8
0
  6
BYBLOCK
 62
0
100
AcDbTrace
 10
0.0
 20
0.0
 11
-1.0
 21
0.2
 12
-1.0
 22
-0.2
 13
-1.0
 23
-0.2
  0
ENDBLK
  5
208
100
AcDbEntity
  8
0
  6
BYBLOCK
 62
0
100
AcDbBlockEnd
  0
ENDSEC
  0
SECTION
  2
ENTITIES
  0
MTEXT
  5
209
100
AcDbEntity
  8
0
100
AcDbMText
 62
2
  6
CONTINUOUS
  7
STANDARD
 71
3
 72
1
 10
5.6522440765
 20
1.4290879405
 30
0.0
 11
1.0
 21
0.0
 31
0.0
 73
2
 44
0.9
  1
SCALE 0.500
 40
0.08
 41
0.704
  0
LINE
  5
20A
100
AcDbEntity
  8
0
100
AcDbLine
 62
7
  6
CONTINUOUS
 10
0.0
 20
0.0
 11
0.0
 21
8.5
  0
LINE
  5
20B
100
AcDbEntity
  8
0
100
AcDbLine
 62
7
  6
CONTINUOUS
 10
0.0
 20
0.0
 11
11.0
 21
0.0
  0
LINE
  5
20C
100
AcDbEntity
  8
0
100
AcDbLine
 62
7
  6
CONTINUOUS
 10
0.0
 20
8.5
 11
11.0
 21
8.5
  0
LINE
  5
20D
100
AcDbEntity
  8
0
100
AcDbLine
 62
7
  6
CONTINUOUS
 10
11.0
 20
0.0
 11
11.0
 21
8.5
  0
LINE
  5
20E
100
AcDbEntity
  8
0
100
AcDbLine
 62
7
  6
CONTINUOUS
 10
2.1213695255
 20
6.5747987546
 11
2.1213695255
 21
6.5597987546
  0
LINE
  5
20F
100
AcDbEntity
  8
0
100
AcDbLine
 62
7
  6
CONTINUOUS
 10
2.1213695255
 20
6.4997987546
 11
2.1213695255
 21
6.5147987546
  0
LINE
  5
210
100
AcDbEntity
  8
0
100
AcDbLine
 62
7
  6
CONTINUOUS
 10
3.2014229114
 20
6.5845606791
 11
3.2013916966
 21
6.5844773443
  0
LINE
  5
211
100
AcDbEntity
  8
0
100
AcDbLine
 62
7
  6
CONTINUOUS
 10
5.5201195255
 20
1.8172987546
 11
5.0826195255
 21
1.8172987546
  0
LINE
  5
212
100
AcDbEntity
  8
0
100
AcDbLine
 62
7
  6
CONTINUOUS
 10
3.3188730337
 20
6.4847987546
 11
3.3188695255
 21
6.4997987546
  0
LINE
  5
213
100
AcDbEntity
  8
0
100
AcDbLine
 62
7
  6
CONTINUOUS
 10
3.3188695255
 20
6.5747987546
 11
3.3188660173
 21
6.5897987544
  0
LINE
  5
214
100
AcDbEntity
  8
0
100
AcDbLine
 62
7
  6
CONTINUOUS
 10
3.2197406921
 20
6.5897987546
 11
3.2197406921
 21
6.5747987546
  0
LINE
  5
215
100
AcDbEntity
  8
0
100
AcDbLine
 62
7
  6
CONTINUOUS
 10
3.2197406921
 20
6.4847987546
 11
3.2197406921
 21
6.4997987546
  0
LINE
  5
216
100
AcDbEntity
  8
0
100
AcDbLine
 62
7
  6
CONTINUOUS
 10
3.3038695255
 20
6.4997987546
 11
3.3038695255
 21
6.5747987546
  0
LINE
  5
217
100
AcDbEntity
  8
0
100
AcDbLine
 62
7
  6
CONTINUOUS
 10
3.3338695255
 20
6.5597987546
 11
3.3338695255
 21
6.5147987546
  0
LINE
  5
218
100
AcDbEntity
  8
0
100
AcDbLine
 62
7
  6
CONTINUOUS
 10
3.3488695255
 20
6.5597987546
 11
3.3488695255
 21
6.5147987546
  0
LINE
  5
219
100
AcDbEntity
  8
0
100
AcDbLine
 62
7
  6
CONTINUOUS
 10
5.0826195255
 20
2.5372987546
 11
5.5201195255
 21
2.5372987546
  0
LINE
  5
21A
100
AcDbEntity
  8
0
100
AcDbLine
 62
7
  6
CONTINUOUS
 10
3.2013919349
 20
6.4901195369
 11
3.2014228263
 21
6.4900370587
  0
LINE
  5
21B
100
AcDbEntity
  8
0
100
AcDbLine
 62
7
  6
CONTINUOUS
 10
5.0826195255
 20
1.8172987546
 11
5.0826195255
 21
3.5372987546
  0
LINE
  5
21C
100
AcDbEntity
  8
0
100
AcDbLine
 62
7
  6
CONTINUOUS
 10
5.5201195255
 20
1.8172987546
 11
5.5201195255
 21
3.5372987546
  0
LINE
  5
21D
100
AcDbEntity
  8
0
100
AcDbLine
 62
7
  6
CONTINUOUS
 10
7.4038161398
 20
6.4900368302
 11
7.403847354
 21
6.4901201637
  0
LINE
  5
21E
100
AcDbEntity
  8
0
100
AcDbLine
 62
7
  6
CONTINUOUS
 10
7.2563695255
 20
6.5147987546
 11
7.2563695255
 21
6.5597987546
  0
LINE
  5
21F
100
AcDbEntity
  8
0
100
AcDbLine
 62
7
  6
CONTINUOUS
 10
7.2713695255
 20
6.5147987546
 11
7.2713695255
 21
6.5597987546
  0
LINE
  5
220
100
AcDbEntity
  8
0
100
AcDbLine
 62
7
  6
CONTINUOUS
 10
7.2863695255
 20
6.4997987546
 11
7.2863730337
 21
6.4847987548
  0
LINE
  5
221
100
AcDbEntity
  8
0
100
AcDbLine
 62
7
  6
CONTINUOUS
 10
7.2863660173
 20
6.5897987546
 11
7.2863695255
 21
6.5747987546
  0
LINE
  5
222
100
AcDbEntity
  8
0
100
AcDbLine
 62
7
  6
CONTINUOUS
 10
7.2863695255
 20
6.4894339768
 11
7.286369734
 21
6.4886810089
  0
LINE
  5
223
100
AcDbEntity
  8
0
100
AcDbLine
 62
7
  6
CONTINUOUS
 10
7.2863693171
 20
6.5859165002
 11
7.2863695255
 21
6.5851635324
  0
LINE
  5
224
100
AcDbEntity
  8
0
100
AcDbLine
 62
7
  6
CONTINUOUS
 10
7.2863695255
 20
6.4997987546
 11
7.2863695316
 21
6.4997781975
  0
LINE
  5
225
100
AcDbEntity
  8
0
100
AcDbLine
 62
7
  6
CONTINUOUS
 10
7.2863695194
 20
6.5748193116
 11
7.2863695255
 21
6.5747987546
  0
LINE
  5
226
100
AcDbEntity
  8
0
100
AcDbLine
 62
7
  6
CONTINUOUS
 10
7.3013695255
 20
6.4997987546
 11
7.3013695255
 21
6.5747987546
  0
LINE
  5
227
100
AcDbEntity
  8
0
100
AcDbLine
 62
7
  6
CONTINUOUS
 10
7.385498359
 20
6.5897987546
 11
7.385498359
 21
6.5747987546
  0
LINE
  5
228
100
AcDbEntity
  8
0
100
AcDbLine
 62
7
  6
CONTINUOUS
 10
7.385498359
 20
6.4847987546
 11
7.385498359
 21
6.4997987546
  0
LINE
  5
229
100
AcDbEntity
  8
0
100
AcDbLine
 62
7
  6
CONTINUOUS
 10
3.2197406921
 20
6.4847987546
 11
3.3188730319
 21
6.4847987546
  0
LINE
  5
22A
100
AcDbEntity
  8
0
100
AcDbLine
 62
7
  6
CONTINUOUS
 10
7.2863730337
 20
6.4847987548
 11
7.385498359
 21
6.4847987546
  0
LINE
  5
22B
100
AcDbEntity
  8
0
100
AcDbLine
 62
7
  6
CONTINUOUS
 10
8.4838695255
 20
6.4997987546
 11
7.2863695255
 21
6.4997987546
  0
LINE
  5
22C
100
AcDbEntity
  8
0
100
AcDbLine
 62
7
  6
CONTINUOUS
 10
3.3188695255
 20
6.4997987546
 11
2.1213695255
 21
6.4997987546
  0
LINE
  5
22D
100
AcDbEntity
  8
0
100
AcDbLine
 62
7
  6
CONTINUOUS
 10
8.4838695255
 20
6.5147987546
 11
7.2563695255
 21
6.5147987541
  0
LINE
  5
22E
100
AcDbEntity
  8
0
100
AcDbLine
 62
7
  6
CONTINUOUS
 10
2.1213695255
 20
6.5147987546
 11
3.3488695255
 21
6.5147987546
  0
LINE
  5
22F
100
AcDbEntity
  8
0
100
AcDbLine
 62
7
  6
CONTINUOUS
 10
2.1213695255
 20
6.5597987546
 11
3.3488695255
 21
6.559798755
  0
LINE
  5
230
100
AcDbEntity
  8
0
100
AcDbLine
 62
7
  6
CONTINUOUS
 10
7.2563695255
 20
6.5597987546
 11
8.4838695255
 21
6.5597987546
  0
LINE
  5
231
100
AcDbEntity
  8
0
100
AcDbLine
 62
7
  6
CONTINUOUS
 10
2.1213695255
 20
6.5747987546
 11
3.3188695255
 21
6.5747987546
  0
LINE
  5
232
100
AcDbEntity
  8
0
100
AcDbLine
 62
7
  6
CONTINUOUS
 10
7.2863695255
 20
6.5747987546
 11
8.4838695255
 21
6.5747987546
  0
LINE
  5
233
100
AcDbEntity
  8
0
100
AcDbLine
 62
7
  6
CONTINUOUS
 10
7.385498359
 20
6.5897987546
 11
7.2863660191
 21
6.5897987546
  0
LINE
  5
234
100
AcDbEntity
  8
0
100
AcDbLine
 62
7
  6
CONTINUOUS
 10
3.3188660173
 20
6.5897987544
 11
3.2197406921
 21
6.5897987546
  0
LINE
  5
235
100
AcDbEntity
  8
0
100
AcDbLine
 62
7
  6
CONTINUOUS
 10
7.4038471158
 20
6.5844779732
 11
7.4038162247
 21
6.5845604504
  0
LINE
  5
236
100
AcDbEntity
  8
0
100
AcDbLine
 62
7
  6
CONTINUOUS
 10
8.4838695255
 20
6.5747987546
 11
8.4838695255
 21
6.5597987546
  0
LINE
  5
237
100
AcDbEntity
  8
0
100
AcDbLine
 62
7
  6
CONTINUOUS
 10
8.4838695255
 20
6.4997987546
 11
8.4838695255
 21
6.5147987546
  0
ARC
  5
238
100
AcDbEntity
  8
0
100
AcDbCircle
 62
7
  6
CONTINUOUS
 10
5.3013695255
 20
3.5372987546
 40
0.495
100
AcDbArc
 50
296.2273652784
 51
243.7726347216
  0
ARC
  5
239
100
AcDbEntity
  8
0
100
AcDbCircle
 62
7
  6
CONTINUOUS
 10
5.3013695255
 20
3.5372987546
 40
0.48
100
AcDbArc
 50
297.113277908
 51
242.8867220921
  0
ARC
  5
23A
100
AcDbEntity
  8
0
100
AcDbCircle
 62
7
  6
CONTINUOUS
 10
5.3013695255
 20
3.5372987546
 40
0.328
100
AcDbArc
 50
311.8330113772
 51
228.1669886228
  0
ARC
  5
23B
100
AcDbEntity
  8
0
100
AcDbCircle
 62
7
  6
CONTINUOUS
 10
5.3013695255
 20
3.5372987546
 40
0.313
100
AcDbArc
 50
314.3404254999
 51
225.6595744991
  0
ARC
  5
23C
100
AcDbEntity
  8
0
100
AcDbCircle
 62
7
  6
CONTINUOUS
 10
5.3013695255
 20
3.5372987546
 40
0.21875
100
AcDbArc
 50
0.0
 51
180.0
  0
ARC
  5
23D
100
AcDbEntity
  8
0
100
AcDbCircle
 62
7
  6
CONTINUOUS
 10
3.3338695255
 20
6.5372987546
 40
0.495
100
AcDbArc
 50
184.3452836399
 51
175.6547163601
  0
ARC
  5
23E
100
AcDbEntity
  8
0
100
AcDbCircle
 62
7
  6
CONTINUOUS
 10
3.3338695255
 20
6.5372987546
 40
0.48
100
AcDbArc
 50
184.4811993178
 51
175.5188006836
  0
ARC
  5
23F
100
AcDbEntity
  8
0
100
AcDbCircle
 62
7
  6
CONTINUOUS
 10
3.3338695255
 20
6.5372987546
 40
0.1875
100
AcDbArc
 50
191.5369647769
 51
168.4630352231
  0
ARC
  5
240
100
AcDbEntity
  8
0
100
AcDbCircle
 62
7
  6
CONTINUOUS
 10
3.3338695255
 20
6.5372987546
 40
0.1725
100
AcDbArc
 50
192.5595357922
 51
167.4404642097
  0
ARC
  5
241
100
AcDbEntity
  8
0
100
AcDbCircle
 62
7
  6
CONTINUOUS
 10
3.3338695255
 20
6.5372987546
 40
0.140625
100
AcDbArc
 50
199.7154670857
 51
160.2845329143
  0
ARC
  5
242
100
AcDbEntity
  8
0
100
AcDbCircle
 62
7
  6
CONTINUOUS
 10
3.3338695255
 20
6.5372987546
 40
0.125625
100
AcDbArc
 50
204.7027354428
 51
155.2972645572
  0
ARC
  5
243
100
AcDbEntity
  8
0
100
AcDbCircle
 62
7
  6
CONTINUOUS
 10
2.1213695255
 20
6.5372987546
 40
0.0375
100
AcDbArc
 50
90.0
 51
270.0
  0
ARC
  5
244
100
AcDbEntity
  8
0
100
AcDbCircle
 62
7
  6
CONTINUOUS
 10
3.3188695255
 20
6.5147987546
 40
0.0299999996
100
AcDbArc
 50
270.0066967341
 51
360.0
  0
ARC
  5
245
100
AcDbEntity
  8
0
100
AcDbCircle
 62
7
  6
CONTINUOUS
 10
3.3188695255
 20
6.5597987546
 40
0.0299999996
100
AcDbArc
 50
0.0
 51
90.0067002011
  0
ARC
  5
246
100
AcDbEntity
  8
0
100
AcDbCircle
 62
7
  6
CONTINUOUS
 10
2.1213695255
 20
6.5372987546
 40
0.0225
100
AcDbArc
 50
90.0
 51
270.0
  0
ARC
  5
247
100
AcDbEntity
  8
0
100
AcDbCircle
 62
7
  6
CONTINUOUS
 10
3.1873673391
 20
6.4847987546
 40
0.015
100
AcDbArc
 50
19.7154670857
 51
89.2298631691
  0
ARC
  5
248
100
AcDbEntity
  8
0
100
AcDbCircle
 62
7
  6
CONTINUOUS
 10
3.1873673391
 20
6.5897987546
 40
0.015
100
AcDbArc
 50
270.7597517922
 51
340.2845329143
  0
ARC
  5
249
100
AcDbEntity
  8
0
100
AcDbCircle
 62
7
  6
CONTINUOUS
 10
3.3188695255
 20
6.5147987546
 40
0.015
100
AcDbArc
 50
270.0
 51
360.0
  0
ARC
  5
24A
100
AcDbEntity
  8
0
100
AcDbCircle
 62
7
  6
CONTINUOUS
 10
3.3188695255
 20
6.5597987546
 40
0.015
100
AcDbArc
 50
0.0
 51
90.0
  0
ARC
  5
24B
100
AcDbEntity
  8
0
100
AcDbCircle
 62
7
  6
CONTINUOUS
 10
7.2713695255
 20
6.5372987546
 40
0.495
100
AcDbArc
 50
4.3449892544
 51
355.6550107456
  0
ARC
  5
24C
100
AcDbEntity
  8
0
100
AcDbCircle
 62
7
  6
CONTINUOUS
 10
7.2713695255
 20
6.5372987546
 40
0.48
100
AcDbArc
 50
4.4806908324
 51
355.5193091682
  0
ARC
  5
24D
100
AcDbEntity
  8
0
100
AcDbCircle
 62
7
  6
CONTINUOUS
 10
7.2713695255
 20
6.5372987546
 40
0.1875
100
AcDbArc
 50
11.5372990714
 51
348.4627009286
  0
ARC
  5
24E
100
AcDbEntity
  8
0
100
AcDbCircle
 62
7
  6
CONTINUOUS
 10
7.2713695255
 20
6.5372987546
 40
0.1725
100
AcDbArc
 50
12.5571158728
 51
347.442884128
  0
ARC
  5
24F
100
AcDbEntity
  8
0
100
AcDbCircle
 62
7
  6
CONTINUOUS
 10
7.2713695255
 20
6.5372987546
 40
0.140625
100
AcDbArc
 50
19.7154670857
 51
340.2845329143
  0
ARC
  5
250
100
AcDbEntity
  8
0
100
AcDbCircle
 62
7
  6
CONTINUOUS
 10
7.2713695255
 20
6.5372987546
 40
0.125625
100
AcDbArc
 50
24.7027354428
 51
335.2972645572
  0
ARC
  5
251
100
AcDbEntity
  8
0
100
AcDbCircle
 62
7
  6
CONTINUOUS
 10
8.4838695255
 20
6.5372987546
 40
0.0375
100
AcDbArc
 50
270.0
 51
90.0
  0
ARC
  5
252
100
AcDbEntity
  8
0
100
AcDbCircle
 62
7
  6
CONTINUOUS
 10
7.2863695255
 20
6.5597987546
 40
0.0299999996
100
AcDbArc
 50
90.0066967341
 51
180.0
  0
ARC
  5
253
100
AcDbEntity
  8
0
100
AcDbCircle
 62
7
  6
CONTINUOUS
 10
7.2863695255
 20
6.5147987546
 40
0.0299999996
100
AcDbArc
 50
180.0
 51
270.0067002011
  0
ARC
  5
254
100
AcDbEntity
  8
0
100
AcDbCircle
 62
7
  6
CONTINUOUS
 10
8.4838695255
 20
6.5372987546
 40
0.0225
100
AcDbArc
 50
270.0
 51
90.0
  0
ARC
  5
255
100
AcDbEntity
  8
0
100
AcDbCircle
 62
7
  6
CONTINUOUS
 10
7.4178717119
 20
6.5897987546
 40
0.015
100
AcDbArc
 50
199.7154670857
 51
267.0714777903
  0
ARC
  5
256
100
AcDbEntity
  8
0
100
AcDbCircle
 62
7
  6
CONTINUOUS
 10
7.4178717119
 20
6.4847987546
 40
0.015
100
AcDbArc
 50
92.9285222116
 51
160.2845329143
  0
ARC
  5
257
100
AcDbEntity
  8
0
100
AcDbCircle
 62
7
  6
CONTINUOUS
 10
7.2863695255
 20
6.5597987546
 40
0.015
100
AcDbArc
 50
90.0
 51
180.0
  0
ARC
  5
258
100
AcDbEntity
  8
0
100
AcDbCircle
 62
7
  6
CONTINUOUS
 10
7.2863695255
 20
6.5147987546
 40
0.015
100
AcDbArc
 50
180.0
 51
270.0
  0
SPLINE
  5
259
100
AcDbEntity
  8
0
100
AcDbSpline
 62
7
  6
CONTINUOUS
 70
0
 71
3
 72
36
 73
32
 74
0
 42
0.0000001
 43
0.0000001
 44
0.0000000001
 40
0.0
 40
0.0
 40
0.0
 40
0.0
 40
0.1767495228
 40
0.2642288542
 40
0.3504536342
 40
0.4348606674
 40
0.5168492281
 40
0.5956485498
 40
0.6704169039
 40
0.7401971576
 40
0.8039568568
 40
0.8332338795
 40
0.8605831978
 40
0.8858613791
 40
0.9089319638
 40
0.9296612802
 40
0.9479161181
 40
0.9635800045
 40
0.9704101932
 40
0.9765567052
 40
0.9820076587
 40
0.9867512202
 40
0.9907782991
 40
0.9940839435
 40
0.9966635446
 40
0.9976796386
 40
0.9985124934
 40
0.999161533
 40
0.9996261811
 40
0.9999058619
 40
1.0
 40
1.0
 40
1.0
 40
1.0
 10
3.2197415509
 20
6.5898006215
 30
0.0
 10
3.2186790875
 20
6.5894580118
 30
0.0
 10
3.2170876531
 20
6.588955379
 30
0.0
 10
3.214969294
 20
6.5883135325
 30
0.0
 10
3.2134052101
 20
6.587853867
 30
0.0
 10
3.2118711172
 20
6.5874153191
 30
0.0
 10
3.2103792583
 20
6.5869997962
 30
0.0
 10
3.2089435095
 20
6.5866098268
 30
0.0
 10
3.2075798336
 20
6.586248791
 30
0.0
 10
3.2063060605
 20
6.5859194261
 30
0.0
 10
3.2053092224
 20
6.5856668268
 30
0.0
 10
3.2045715264
 20
6.585482606
 30
0.0
 10
3.2040693574
 20
6.5853583907
 30
0.0
 10
3.203604985
 20
6.5852446281
 30
0.0
 10
3.2031810078
 20
6.5851416983
 30
0.0
 10
3.2027999649
 20
6.5850499469
 30
0.0
 10
3.2024642719
 20
6.584969691
 30
0.0
 10
3.2022138782
 20
6.5849101853
 30
0.0
 10
3.2020378533
 20
6.5848685061
 30
0.0
 10
3.2019245863
 20
6.5848417349
 30
0.0
 10
3.2018241386
 20
6.5848180215
 30
0.0
 10
3.201736719
 20
6.5847973849
 30
0.0
 10
3.2016624885
 20
6.5847798495
 30
0.0
 10
3.2016015665
 20
6.5847654359
 30
0.0
 10
3.2015591424
 20
6.5847554117
 30
0.0
 10
3.2015319374
 20
6.5847489387
 30
0.0
 10
3.2015165611
 20
6.584745349
 30
0.0
 10
3.2015046636
 20
6.5847423785
 30
0.0
 10
3.201495956
 20
6.5847406399
 30
0.0
 10
3.2014910616
 20
6.5847388885
 30
0.0
 10
3.2014884982
 20
6.5847388823
 30
0.0
 10
3.2014880318
 20
6.5847385136
 30
0.0
  0
SPLINE
  5
25A
100
AcDbEntity
  8
0
100
AcDbSpline
 62
7
  6
CONTINUOUS
 70
0
 71
3
 72
36
 73
32
 74
0
 42
0.0000001
 43
0.0000001
 44
0.0000000001
 40
0.0
 40
0.0
 40
0.0
 40
0.0
 40
0.000094098
 40
0.0003737544
 40
0.0008383916
 40
0.0014874316
 40
0.0023202963
 40
0.0033364073
 40
0.0059160559
 40
0.0092217519
 40
0.0132488698
 40
0.0179924418
 40
0.0234433743
 40
0.0295898416
 40
0.0364199702
 40
0.0520837228
 40
0.0703384599
 40
0.0910677342
 40
0.1141383423
 40
0.1394166196
 40
0.1667660924
 40
0.1960432665
 40
0.2598029871
 40
0.3295828084
 40
0.4043507908
 40
0.4831501209
 40
0.5651388063
 40
0.6495459328
 40
0.7357708434
 40
0.8232503302
 40
1.0
 40
1.0
 40
1.0
 40
1.0
 10
3.2014880318
 20
6.4898589955
 30
0.0
 10
3.201488498
 20
6.4898586269
 30
0.0
 10
3.2014910611
 20
6.4898586214
 30
0.0
 10
3.2014959549
 20
6.4898568696
 30
0.0
 10
3.2015046623
 20
6.4898551313
 30
0.0
 10
3.2015165597
 20
6.4898521604
 30
0.0
 10
3.201531936
 20
6.4898485703
 30
0.0
 10
3.2015591412
 20
6.4898420966
 30
0.0
 10
3.2016015657
 20
6.4898320713
 30
0.0
 10
3.2016624881
 20
6.4898176566
 30
0.0
 10
3.2017367189
 20
6.4898001205
 30
0.0
 10
3.2018241385
 20
6.489779484
 30
0.0
 10
3.2019245857
 20
6.4897557714
 30
0.0
 10
3.2020378519
 20
6.4897290015
 30
0.0
 10
3.2022138753
 20
6.4896873249
 30
0.0
 10
3.2024642672
 20
6.4896278228
 30
0.0
 10
3.2027999583
 20
6.4895475705
 30
0.0
 10
3.2031809997
 20
6.489455821
 30
0.0
 10
3.2036049759
 20
6.4893528899
 30
0.0
 10
3.2040693473
 20
6.4892391215
 30
0.0
 10
3.2045715148
 20
6.4891148959
 30
0.0
 10
3.2053092073
 20
6.4889306611
 30
0.0
 10
3.2063060401
 20
6.4886780598
 30
0.0
 10
3.2075798134
 20
6.4883487305
 30
0.0
 10
3.2089434898
 20
6.4879877312
 30
0.0
 10
3.2103792368
 20
6.4875977766
 30
0.0
 10
3.2118710859
 20
6.4871822294
 30
0.0
 10
3.2134051565
 20
6.4867436114
 30
0.0
 10
3.2149692248
 20
6.4862839015
 30
0.0
 10
3.2170876093
 20
6.485642153
 30
0.0
 10
3.2186790823
 20
6.4851396475
 30
0.0
 10
3.219741518
 20
6.4847969592
 30
0.0
  0
SPLINE
  5
25B
100
AcDbEntity
  8
0
100
AcDbSpline
 62
7
  6
CONTINUOUS
 70
0
 71
3
 72
36
 73
32
 74
0
 42
0.0000001
 43
0.0000001
 44
0.0000000001
 40
0.0
 40
0.0
 40
0.0
 40
0.0
 40
0.1767859237
 40
0.2642563483
 40
0.3504692735
 40
0.4348972657
 40
0.5168849247
 40
0.5956930792
 40
0.6704558511
 40
0.7402302297
 40
0.8039874382
 40
0.8332609951
 40
0.8606029753
 40
0.8858737
 40
0.9089391889
 40
0.9296662957
 40
0.9479278758
 40
0.9635997575
 40
0.970427662
 40
0.9765692746
 40
0.9820153609
 40
0.9867566829
 40
0.9907840009
 40
0.9940891263
 40
0.9966673209
 40
0.9976825593
 40
0.9985145531
 40
0.9991627981
 40
0.9996267902
 40
0.9999060254
 40
1.0
 40
1.0
 40
1.0
 40
1.0
 10
7.3854975002
 20
6.4847968877
 30
0.0
 10
7.3865601824
 20
6.4851395678
 30
0.0
 10
7.3881514763
 20
6.4856432385
 30
0.0
 10
7.3902703246
 20
6.4862838225
 30
0.0
 10
7.3918345458
 20
6.4867430149
 30
0.0
 10
7.3933685984
 20
6.4871818877
 30
0.0
 10
7.3948604836
 20
6.4875979967
 30
0.0
 10
7.3962961797
 20
6.4879882176
 30
0.0
 10
7.3976598186
 20
6.4883493335
 30
0.0
 10
7.3989336343
 20
6.488678181
 30
0.0
 10
7.3999303719
 20
6.4889308698
 30
0.0
 10
7.4006679617
 20
6.48911517
 30
0.0
 10
7.4011700583
 20
6.4892391982
 30
0.0
 10
7.4016343785
 20
6.4893526457
 30
0.0
 10
7.4020583089
 20
6.4894553724
 30
0.0
 10
7.4024393103
 20
6.4895472801
 30
0.0
 10
7.4027749976
 20
6.4896278991
 30
0.0
 10
7.4030254126
 20
6.4896876555
 30
0.0
 10
7.4032014359
 20
6.4897293638
 30
0.0
 10
7.4033146365
 20
6.4897560848
 30
0.0
 10
7.4034150267
 20
6.4897797116
 30
0.0
 10
7.4035024256
 20
6.4898002473
 30
0.0
 10
7.4035766618
 20
6.489817689
 30
0.0
 10
7.4036375834
 20
6.4898320581
 30
0.0
 10
7.403679992
 20
6.4898420712
 30
0.0
 10
7.4037071763
 20
6.4898485463
 30
0.0
 10
7.4037225351
 20
6.4898521406
 30
0.0
 10
7.4037344165
 20
6.4898551162
 30
0.0
 10
7.4037431099
 20
6.4898568624
 30
0.0
 10
7.4037479958
 20
6.4898586155
 30
0.0
 10
7.4037505537
 20
6.4898586274
 30
0.0
 10
7.4037510193
 20
6.4898589955
 30
0.0
  0
SPLINE
  5
25C
100
AcDbEntity
  8
0
100
AcDbSpline
 62
7
  6
CONTINUOUS
 70
0
 71
3
 72
36
 73
32
 74
0
 42
0.0000001
 43
0.0000001
 44
0.0000000001
 40
0.0
 40
0.0
 40
0.0
 40
0.0
 40
0.0000939346
 40
0.0003731454
 40
0.0008371266
 40
0.0014853718
 40
0.0023173747
 40
0.0033326287
 40
0.0059108654
 40
0.0092160323
 40
0.0132433757
 40
0.0179847064
 40
0.0234307894
 40
0.0295723918
 40
0.0364002838
 40
0.0520721397
 40
0.0703336622
 40
0.0910606394
 40
0.11412594
 40
0.1393965467
 40
0.1667386196
 40
0.1960124537
 40
0.2597699233
 40
0.3295437556
 40
0.4043063417
 40
0.4831147515
 40
0.5651025154
 40
0.6495304642
 40
0.7357433778
 40
0.8232138872
 40
1.0
 40
1.0
 40
1.0
 40
1.0
 10
7.4037510193
 20
6.5847385136
 30
0.0
 10
7.4037505539
 20
6.5847388815
 30
0.0
 10
7.4037479963
 20
6.5847388927
 30
0.0
 10
7.4037431109
 20
6.5847406461
 30
0.0
 10
7.4037344177
 20
6.584742392
 30
0.0
 10
7.4037225365
 20
6.5847453679
 30
0.0
 10
7.4037071775
 20
6.5847489623
 30
0.0
 10
7.4036799931
 20
6.5847554379
 30
0.0
 10
7.4036375841
 20
6.5847654517
 30
0.0
 10
7.4035766622
 20
6.5847798216
 30
0.0
 10
7.4035024257
 20
6.5847972637
 30
0.0
 10
7.403415027
 20
6.5848177996
 30
0.0
 10
7.4033146371
 20
6.5848414266
 30
0.0
 10
7.403201437
 20
6.5848681476
 30
0.0
 10
7.4030254146
 20
6.584909856
 30
0.0
 10
7.402775001
 20
6.5849696127
 30
0.0
 10
7.4024393157
 20
6.5850502303
 30
0.0
 10
7.4020583165
 20
6.585142132
 30
0.0
 10
7.4016343878
 20
6.5852448487
 30
0.0
 10
7.401170069
 20
6.5853582906
 30
0.0
 10
7.4006679741
 20
6.5854823266
 30
0.0
 10
7.3999303891
 20
6.5856666538
 30
0.0
 10
7.3989336581
 20
6.5859193562
 30
0.0
 10
7.3976598343
 20
6.5862481454
 30
0.0
 10
7.3962962015
 20
6.5866092576
 30
0.0
 10
7.3948605166
 20
6.5869995084
 30
0.0
 10
7.3933686358
 20
6.5874156241
 30
0.0
 10
7.3918345891
 20
6.5878545027
 30
0.0
 10
7.3902703771
 20
6.5883137105
 30
0.0
 10
7.3881515205
 20
6.5889542493
 30
0.0
 10
7.3865601878
 20
6.5894577909
 30
0.0
 10
7.3854975331
 20
6.5898005499
 30
0.0
  0
ENDSEC
  0
SECTION
  2
OBJECTS
  0
DICTIONARY
  5
C
100
AcDbDictionary
280
0
281
1
  3
ACAD_GROUP
350
D
  3
ACAD_MLINESTYLE
350
17
  3
ACAD_LAYOUT
350
1A
  3
ACAD_PLOTSETTINGS
350
19
  3
ACAD_PLOTSTYLENAME
350
E
  0
DICTIONARY
  5
D
102
{ACAD_REACTORS
330
C
102
}
100
AcDbDictionary
280
0
281
1
  0
ACDBDICTIONARYWDFLT
  5
E
102
{ACAD_REACTORS
330
C
102
}
100
AcDbDictionary
281
1
  3
Normal
350
F
100
AcDbDictionaryWithDefault
340
F
  0
DICTIONARY
  5
17
102
{ACAD_REACTORS
330
C
102
}
100
AcDbDictionary
280
0
281
1
  3
Standard
350
18
  0
DICTIONARY
  5
19
102
{ACAD_REACTORS
330
C
102
}
100
AcDbDictionary
281
1
  0
DICTIONARY
  5
1A
102
{ACAD_REACTORS
330
C
102
}
100
AcDbDictionary
281
1
  3
Model
350
25D
  3
Layout1
350
25E
  0
ACDBPLACEHOLDER
  5
F
102
{ACAD_REACTORS
330
E
102
}
  0
MLINESTYLE
  5
18
102
{ACAD_REACTORS
330
17
102
}
100
AcDbMlineStyle
  2
STANDARD
 70
0
  3

 62
256
 51
90.0
 52
90.0
 71
2
 49
0.5
 62
256
  6
BYLAYER
 49
-0.5
 62
256
  6
BYLAYER
  0
LAYOUT
  5
25D
102
{ACAD_REACTORS
330
1A
102
}
100
AcDbPlotSettings
  1

  2
none_device
  4
ANSI_A_(11.00_x_8.50_Inches)
  6

 40
0.0
 41
0.0
 42
0.0
 43
0.0
 44
279.4
 45
215.9
 46
0.0
 47
0.0
 48
0.0
 49
0.0
140
0.0
141
0.0
142
1.0
143
1.0
 70
1024
 72
0
 73
0
 74
0
  7

 75
0
147
1.0
148
0.0
149
0.0
100
AcDbLayout
  1
Model
 70
0
 71
0
 10
0.0
 20
0.0
 11
11.0
 21
8.5
 12
0.0
 22
0.0
 32
0.0
 14
0.0
 24
0.0
 34
0.0
 15
0.0
 25
0.0
 35
0.0
146
0.0
 13
0.0
 23
0.0
 33
0.0
 16
1.0
 26
0.0
 36
0.0
 17
0.0
 27
1.0
 37
0.0
 76
0
330
202
345
0
346
0
  0
LAYOUT
  5
25E
102
{ACAD_REACTORS
330
1A
102
}
100
AcDbPlotSettings
  1

  2
none_device
  4
ANSI_A_(11.00_x_8.50_Inches)
  6

 40
0.0
 41
0.0
 42
0.0
 43
0.0
 44
279.4
 45
215.9
 46
0.0
 47
0.0
 48
0.0
 49
0.0
140
0.0
141
0.0
142
1.0
143
1.0
 70
0
 72
0
 73
0
 74
0
  7

 75
0
147
1.0
148
0.0
149
0.0
100
AcDbLayout
  1
Layout1
 70
0
 71
1
 10
0.0
 20
0.0
 11
11.0
 21
8.5
 12
0.0
 22
0.0
 32
0.0
 14
0.0
 24
0.0
 34
0.0
 15
0.0
 25
0.0
 35
0.0
146
0.0
 13
0.0
 23
0.0
 33
0.0
 16
1.0
 26
0.0
 36
0.0
 17
0.0
 27
1.0
 37
0.0
 76
0
330
203
345
0
346
0
  0
ENDSEC
  0
EOF
