999
DXF file: 3-3325_top.dxf
999
Pro/ENGINEER 2019352 by Parametric Technology Corporation
  0
SECTION
  2
HEADER
  9
$ACADVER
  1
AC1032
  9
$DWGCODEPAGE
  3
ANSI_1252
  9
$EXTMAX
 10
11.0
 20
8.5
 30
0.0
  9
$EXTMIN
 10
0.0
 20
0.0
 30
0.0
  9
$LIMMIN
 10
0.0
 20
0.0
  9
$LIMMAX
 10
11.0
 20
8.5
  9
$VIEWCTR
 10
5.5
 20
4.25
  9
$VIEWSIZE
 40
8.5
  9
$CLAYER
  8
0
  9
$LTSCALE
 40
0.605
  9
$CELTYPE
  6
BYLAYER
  9
$DIMSCALE
 40
1.0
  9
$DIMASZ
 40
0.1
  9
$DIMEXO
 40
0.0625
  9
$DIMDLI
 40
0.418
  9
$DIMEXE
 40
0.125
  9
$DIMCEN
 40
0.099
  9
$DIMLFAC
 40
1.0
  9
$DIMBLK
  1
_FILLED
  9
$DIMALT
 70
1
  9
$DIMALTD
 70
2
  9
$DIMALTTD
 70
2
  9
$DIMALTF
 40
25.4
  9
$DIMTXT
 40
0.08
  9
$DIMTOL
 70
1
  9
$DIMLIM
 70
0
  9
$DIMTFAC
 40
1.0
  9
$DIMTP
 40
0.001
  9
$DIMTM
 40
0.001
  9
$DIMGAP
 40
0.09
  9
$DIMDSEP
 70
46
  9
$AUNITS
 70
0
  9
$PDMODE
 70
3
  9
$PDSIZE
 40
0.3125
  9
$HANDSEED
  5
27D
  9
$TILEMODE
 70
1
  9
$MEASUREMENT
 70
0
  9
$INSUNITS
 70
1
  0
ENDSEC
  0
SECTION
  2
CLASSES
  0
CLASS
  1
ACDBDICTIONARYWDFLT
  2
AcDbDictionaryWithDefault
  3
AutoCAD 2000
 90
0
 91
1
280
0
281
0
  0
CLASS
  1
ACDBPLACEHOLDER
  2
AcDbPlaceHolder
  3
AutoCAD 2000
 90
0
 91
1
280
0
281
0
  0
CLASS
  1
LAYOUT
  2
AcDbLayout
  3
AutoCAD 2000
 90
0
 91
0
280
0
281
0
  0
ENDSEC
  0
SECTION
  2
TABLES
  0
TABLE
  2
VPORT
  5
8
100
AcDbSymbolTable
 70
2
  0
VPORT
  5
1F4
100
AcDbSymbolTableRecord
100
AcDbViewportTableRecord
  2
*ACTIVE
 70
0
 10
0.0
 20
0.0
 11
1.0
 21
1.0
 12
5.5
 22
4.25
 13
0.0
 23
0.0
 14
1.0
 24
1.0
 15
0.0
 25
0.0
 16
0.0
 26
0.0
 36
1.0
 17
0.0
 27
0.0
 37
0.0
 40
8.5
 41
1.2941176471
 42
50.0
 43
0.0
 44
0.0
 50
0.0
 51
0.0
 71
0
 72
100
 73
1
 74
1
 75
0
 76
0
 77
0
 78
0
  0
ENDTAB
  0
TABLE
  2
LTYPE
  5
5
100
AcDbSymbolTable
 70
6
  0
LTYPE
  5
14
100
AcDbSymbolTableRecord
100
AcDbLinetypeTableRecord
  2
BYBLOCK
 70
0
  3

 72
65
 73
0
 40
0.0
  0
LTYPE
  5
15
100
AcDbSymbolTableRecord
100
AcDbLinetypeTableRecord
  2
BYLAYER
 70
0
  3

 72
65
 73
0
 40
0.0
  0
LTYPE
  5
16
100
AcDbSymbolTableRecord
100
AcDbLinetypeTableRecord
  2
CONTINUOUS
 70
64
  3
Solid line
 72
65
 73
0
 40
0.0
  0
LTYPE
  5
1F5
100
AcDbSymbolTableRecord
100
AcDbLinetypeTableRecord
  2
CENTER
 70
64
  3
____ _ ____ _ ____ _ ____ _ ____ _ ____ _ ____
 72
65
 73
4
 40
0.6
 49
0.375
 74
0
 49
-0.075
 74
0
 49
0.075
 74
0
 49
-0.075
 74
0
  0
LTYPE
  5
1F6
100
AcDbSymbolTableRecord
100
AcDbLinetypeTableRecord
  2
HIDDEN
 70
64
  3
- - - - - - - - - - - - - - - - - - - -
 72
65
 73
2
 40
0.2
 49
0.1
 74
0
 49
-0.1
 74
0
  0
LTYPE
  5
1F7
100
AcDbSymbolTableRecord
100
AcDbLinetypeTableRecord
  2
PHANTOM
 70
64
  3
_____ _ _ _____ _ _ _____ _ _ _____
 72
65
 73
6
 40
0.8
 49
0.45
 74
0
 49
-0.05
 74
0
 49
0.1
 74
0
 49
-0.05
 74
0
 49
0.1
 74
0
 49
-0.05
 74
0
  0
LTYPE
  5
1F8
100
AcDbSymbolTableRecord
100
AcDbLinetypeTableRecord
  2
DOT
 70
64
  3
. . . . . . . . . . . . . . . . . . . .
 72
65
 73
2
 40
0.2
 49
0.1
 74
0
 49
-0.1
 74
0
  0
LTYPE
  5
1F9
100
AcDbSymbolTableRecord
100
AcDbLinetypeTableRecord
  2
DASHED
 70
64
  3
- - - - - - - - - - - - - - - - - - - -
 72
65
 73
2
 40
0.2
 49
0.1
 74
0
 49
-0.1
 74
0
  0
ENDTAB
  0
TABLE
  2
LAYER
  5
2
100
AcDbSymbolTable
 70
36
  0
LAYER
  5
10
100
AcDbSymbolTableRecord
100
AcDbLayerTableRecord
  2
0
 70
0
 62
7
  6
CONTINUOUS
370
-3
390
F
  0
LAYER
  5
1FA
100
AcDbSymbolTableRecord
100
AcDbLayerTableRecord
  2
DEFAULT_1
 70
0
 62
7
  6
CENTER
370
-3
390
F
  0
LAYER
  5
1FB
100
AcDbSymbolTableRecord
100
AcDbLayerTableRecord
  2
DEFAULT_2
 70
0
 62
8
  6
HIDDEN
370
-3
390
F
  0
LAYER
  5
1FC
100
AcDbSymbolTableRecord
100
AcDbLayerTableRecord
  2
DEFAULT_3
 70
0
 62
7
  6
PHANTOM
370
-3
390
F
  0
LAYER
  5
1FD
100
AcDbSymbolTableRecord
100
AcDbLayerTableRecord
  2
DEFAULT_COORDINATE_SYSTEM
 70
0
 62
7
  6
CONTINUOUS
370
-3
390
F
  0
LAYER
  5
1FE
100
AcDbSymbolTableRecord
100
AcDbLayerTableRecord
  2
DEFAULT_DATUM_AXES
 70
0
 62
7
  6
CONTINUOUS
370
-3
390
F
  0
LAYER
  5
1FF
100
AcDbSymbolTableRecord
100
AcDbLayerTableRecord
  2
DEFAULT_DATUM_PLANES
 70
0
 62
7
  6
CONTINUOUS
370
-3
390
F
  0
ENDTAB
  0
TABLE
  2
STYLE
  5
3
100
AcDbSymbolTable
 70
1
  0
STYLE
  5
11
100
AcDbSymbolTableRecord
100
AcDbTextStyleTableRecord
  2
STANDARD
 70
0
 40
0.0
 41
0.8
 50
0.0
 71
0
 42
0.2
  3
txt
  4

  0
STYLE
  5
200
100
AcDbSymbolTableRecord
100
AcDbTextStyleTableRecord
  2
TEXTSTYLE_1
 70
0
 40
0.0
 41
0.8
 50
0.0
 71
0
 42
0.2
  3
gdt
  4

  0
ENDTAB
  0
TABLE
  2
VIEW
  5
6
100
AcDbSymbolTable
 70
0
  0
ENDTAB
  0
TABLE
  2
UCS
  5
7
100
AcDbSymbolTable
 70
0
  0
ENDTAB
  0
TABLE
  2
APPID
  5
9
100
AcDbSymbolTable
 70
1
  0
APPID
  5
201
100
AcDbSymbolTableRecord
100
AcDbRegAppTableRecord
  2
ACAD
 70
0
  0
ENDTAB
  0
TABLE
  2
BLOCK_RECORD
  5
1
100
AcDbSymbolTable
 70
0
  0
BLOCK_RECORD
  5
202
100
AcDbSymbolTableRecord
100
AcDbBlockTableRecord
  2
*Model_Space
  0
BLOCK_RECORD
  5
203
100
AcDbSymbolTableRecord
100
AcDbBlockTableRecord
  2
*Paper_Space
  0
BLOCK_RECORD
  5
204
100
AcDbSymbolTableRecord
100
AcDbBlockTableRecord
  2
_FILLED
  0
ENDTAB
  0
TABLE
  2
DIMSTYLE
  5
A
100
AcDbSymbolTable
 70
1
100
AcDbDimStyleTable
 71
0
  0
DIMSTYLE
105
205
100
AcDbSymbolTableRecord
100
AcDbDimStyleTableRecord
  2
STANDARD
 70
0
  3

  4

 40
1.0
 41
0.1
 42
0.0625
 43
0.38
 44
0.125
 45
0.0
 46
0.0
 47
0.001
 48
0.001
140
0.08
141
0.09
142
0.0
143
25.4
144
1.0
145
0.0
146
1.0
147
0.09
 71
1.0
 72
0.0
 73
1
 74
1
 75
0
 76
0
 77
0
 78
4
 79
1
170
1
171
2
172
0
173
0
174
0
175
0
176
0
177
0
178
0
270
2
179
3
271
3
272
3
273
2
274
2
275
0
280
0
281
0
282
0
283
1
284
4
285
0
286
0
287
3
288
0
340
11
278
46
341
204
342
204
343
204
344
204
  0
ENDTAB
  0
ENDSEC
  0
SECTION
  2
BLOCKS
  0
BLOCK
  5
20
100
AcDbEntity
  8
0
100
AcDbBlockBegin
  2
*Model_Space
 70
0
 10
0.0
 20
0.0
 30
0.0
  3
*Model_Space
  1

  0
ENDBLK
  5
21
100
AcDbEntity
  8
0
100
AcDbBlockEnd
  0
BLOCK
  5
1C
100
AcDbEntity
  8
0
100
AcDbBlockBegin
  2
*Paper_Space
 70
0
 10
0.0
 20
0.0
 30
0.0
  3
*Paper_Space
  1

  0
ENDBLK
  5
1D
100
AcDbEntity
  8
0
100
AcDbBlockEnd
  0
BLOCK
  5
206
100
AcDbEntity
  8
0
100
AcDbBlockBegin
  2
_FILLED
 70
64
 10
0.0
 20
0.0
  3
_FILLED
  1

  0
SOLID
  5
207
100
AcDbEntity
  8
0
  6
BYBLOCK
 62
0
100
AcDbTrace
 10
0.0
 20
0.0
 11
-1.0
 21
0.2
 12
-1.0
 22
-0.2
 13
-1.0
 23
-0.2
  0
ENDBLK
  5
208
100
AcDbEntity
  8
0
  6
BYBLOCK
 62
0
100
AcDbBlockEnd
  0
ENDSEC
  0
SECTION
  2
ENTITIES
  0
MTEXT
  5
209
100
AcDbEntity
  8
0
100
AcDbMText
 62
2
  6
CONTINUOUS
  7
STANDARD
 71
3
 72
1
 10
5.6522440765
 20
1.5522129405
 30
0.0
 11
1.0
 21
0.0
 31
0.0
 73
2
 44
0.9
  1
SCALE 0.500
 40
0.08
 41
0.704
  0
LINE
  5
20A
100
AcDbEntity
  8
0
100
AcDbLine
 62
7
  6
CONTINUOUS
 10
0.0
 20
0.0
 11
0.0
 21
8.5
  0
LINE
  5
20B
100
AcDbEntity
  8
0
100
AcDbLine
 62
7
  6
CONTINUOUS
 10
0.0
 20
0.0
 11
11.0
 21
0.0
  0
LINE
  5
20C
100
AcDbEntity
  8
0
100
AcDbLine
 62
7
  6
CONTINUOUS
 10
0.0
 20
8.5
 11
11.0
 21
8.5
  0
LINE
  5
20D
100
AcDbEntity
  8
0
100
AcDbLine
 62
7
  6
CONTINUOUS
 10
11.0
 20
0.0
 11
11.0
 21
8.5
  0
LINE
  5
20E
100
AcDbEntity
  8
0
100
AcDbLine
 62
7
  6
CONTINUOUS
 10
2.0838695255
 20
5.5736737546
 11
2.0838695255
 21
5.7626737546
  0
LINE
  5
20F
100
AcDbEntity
  8
0
100
AcDbLine
 62
7
  6
CONTINUOUS
 10
2.1213695255
 20
5.5586737546
 11
2.1213695255
 21
5.7776737546
  0
LINE
  5
210
100
AcDbEntity
  8
0
100
AcDbLine
 62
7
  6
CONTINUOUS
 10
2.8388695255
 20
6.9091737546
 11
2.8388695255
 21
6.8241737546
  0
LINE
  5
211
100
AcDbEntity
  8
0
100
AcDbLine
 62
7
  6
CONTINUOUS
 10
3.1463695255
 20
6.8091737546
 11
3.1463695255
 21
6.0141737546
  0
LWPOLYLINE
  5
212
100
AcDbEntity
  8
0
100
AcDbPolyline
 62
7
  6
CONTINUOUS
 90
3
 70
0
 10
3.3188681743
 20
5.6335454303
 10
3.318867216
 20
5.6336416392
 10
3.3188660173
 20
5.6336737546
  0
LINE
  5
213
100
AcDbEntity
  8
0
100
AcDbLine
 62
7
  6
CONTINUOUS
 10
3.1873673391
 20
5.6486737547
 11
3.1873673391
 21
5.7626737546
  0
LINE
  5
214
100
AcDbEntity
  8
0
100
AcDbLine
 62
7
  6
CONTINUOUS
 10
3.1932445255
 20
5.9991737546
 11
3.1932445255
 21
5.7926737546
  0
LINE
  5
215
100
AcDbEntity
  8
0
100
AcDbLine
 62
7
  6
CONTINUOUS
 10
3.2014880318
 20
5.6486737546
 11
3.2014880318
 21
5.7626737546
  0
LINE
  5
216
100
AcDbEntity
  8
0
100
AcDbLine
 62
7
  6
CONTINUOUS
 10
3.2197406921
 20
5.6336737546
 11
3.2197406921
 21
5.6186737546
  0
LINE
  5
217
100
AcDbEntity
  8
0
100
AcDbLine
 62
7
  6
CONTINUOUS
 10
3.3038695255
 20
5.5736737546
 11
3.3038695255
 21
5.5586737546
  0
LINE
  5
218
100
AcDbEntity
  8
0
100
AcDbLine
 62
7
  6
CONTINUOUS
 10
3.3188695255
 20
5.5886737546
 11
3.3188660173
 21
5.6336737546
  0
LINE
  5
219
100
AcDbEntity
  8
0
100
AcDbLine
 62
7
  6
CONTINUOUS
 10
3.3188696403
 20
5.632126861
 11
3.3188696032
 21
5.632531961
  0
LINE
  5
21A
100
AcDbEntity
  8
0
100
AcDbLine
 62
7
  6
CONTINUOUS
 10
3.3338695255
 20
5.5886737546
 11
3.3338695255
 21
5.6186737546
  0
LINE
  5
21B
100
AcDbEntity
  8
0
100
AcDbLine
 62
7
  6
CONTINUOUS
 10
3.4744945255
 20
5.9991737546
 11
3.4744945255
 21
5.6486737546
  0
LINE
  5
21C
100
AcDbEntity
  8
0
100
AcDbLine
 62
7
  6
CONTINUOUS
 10
3.5213695255
 20
6.8091737546
 11
3.5213695255
 21
6.0141737546
  0
LINE
  5
21D
100
AcDbEntity
  8
0
100
AcDbLine
 62
7
  6
CONTINUOUS
 10
3.8288695255
 20
6.9091737546
 11
3.8288695255
 21
6.8241737546
  0
LINE
  5
21E
100
AcDbEntity
  8
0
100
AcDbLine
 62
7
  6
CONTINUOUS
 10
5.0826195255
 20
3.1591737546
 11
5.5201195255
 21
3.1591737546
  0
LINE
  5
21F
100
AcDbEntity
  8
0
100
AcDbLine
 62
7
  6
CONTINUOUS
 10
4.8063695255
 20
6.9091737546
 11
4.8063695255
 21
6.7366737546
  0
LINE
  5
220
100
AcDbEntity
  8
0
100
AcDbLine
 62
7
  6
CONTINUOUS
 10
4.9733695255
 20
6.7216737546
 11
4.9733695255
 21
5.6741737546
  0
LINE
  5
221
100
AcDbEntity
  8
0
100
AcDbLine
 62
7
  6
CONTINUOUS
 10
5.0826195255
 20
2.1591737546
 11
5.0826195255
 21
5.6591737546
  0
LINE
  5
222
100
AcDbEntity
  8
0
100
AcDbLine
 62
7
  6
CONTINUOUS
 10
5.5201195255
 20
2.1591737546
 11
5.5201195255
 21
5.6591737546
  0
LINE
  5
223
100
AcDbEntity
  8
0
100
AcDbLine
 62
7
  6
CONTINUOUS
 10
5.6293695255
 20
6.7216737546
 11
5.6293695255
 21
5.6741737546
  0
LINE
  5
224
100
AcDbEntity
  8
0
100
AcDbLine
 62
7
  6
CONTINUOUS
 10
5.7963695255
 20
6.9091737546
 11
5.7963695255
 21
6.7366737546
  0
LINE
  5
225
100
AcDbEntity
  8
0
100
AcDbLine
 62
7
  6
CONTINUOUS
 10
2.0988701768
 20
5.5586737546
 11
3.3038695255
 21
5.5586737546
  0
LINE
  5
226
100
AcDbEntity
  8
0
100
AcDbLine
 62
7
  6
CONTINUOUS
 10
7.3013695255
 20
5.5586737546
 11
8.5063695255
 21
5.5586737546
  0
LINE
  5
227
100
AcDbEntity
  8
0
100
AcDbLine
 62
7
  6
CONTINUOUS
 10
2.0838695255
 20
5.5736737546
 11
3.3038695255
 21
5.5736737546
  0
LINE
  5
228
100
AcDbEntity
  8
0
100
AcDbLine
 62
7
  6
CONTINUOUS
 10
7.3013695255
 20
5.5736737546
 11
8.5213695255
 21
5.5736737546
  0
LINE
  5
229
100
AcDbEntity
  8
0
100
AcDbLine
 62
7
  6
CONTINUOUS
 10
7.2863695255
 20
5.5886737546
 11
7.2713695255
 21
5.5886737546
  0
LINE
  5
22A
100
AcDbEntity
  8
0
100
AcDbLine
 62
7
  6
CONTINUOUS
 10
3.3188695255
 20
5.5886737546
 11
3.3338695255
 21
5.5886737546
  0
LINE
  5
22B
100
AcDbEntity
  8
0
100
AcDbLine
 62
7
  6
CONTINUOUS
 10
3.2197406921
 20
5.6186737546
 11
3.3338695255
 21
5.6186737546
  0
LINE
  5
22C
100
AcDbEntity
  8
0
100
AcDbLine
 62
7
  6
CONTINUOUS
 10
7.2713695255
 20
5.6186737546
 11
7.385498359
 21
5.6186737546
  0
LINE
  5
22D
100
AcDbEntity
  8
0
100
AcDbLine
 62
7
  6
CONTINUOUS
 10
7.385498359
 20
5.6336737546
 11
7.1457447657
 21
5.6336737546
  0
LINE
  5
22E
100
AcDbEntity
  8
0
100
AcDbLine
 62
7
  6
CONTINUOUS
 10
3.459493906
 20
5.6336737546
 11
3.2197406921
 21
5.6336737546
  0
LINE
  5
22F
100
AcDbEntity
  8
0
100
AcDbLine
 62
7
  6
CONTINUOUS
 10
3.1873673391
 20
5.6486737546
 11
3.4744945255
 21
5.6486737546
  0
LINE
  5
230
100
AcDbEntity
  8
0
100
AcDbLine
 62
7
  6
CONTINUOUS
 10
7.1307445255
 20
5.6486737546
 11
7.4178717119
 21
5.6486737546
  0
LINE
  5
231
100
AcDbEntity
  8
0
100
AcDbLine
 62
7
  6
CONTINUOUS
 10
5.6143695255
 20
5.6591737546
 11
4.9883695255
 21
5.6591737546
  0
LINE
  5
232
100
AcDbEntity
  8
0
100
AcDbLine
 62
7
  6
CONTINUOUS
 10
5.6293695255
 20
5.6741737546
 11
4.9733695255
 21
5.6741737546
  0
LINE
  5
233
100
AcDbEntity
  8
0
100
AcDbLine
 62
7
  6
CONTINUOUS
 10
8.5213695255
 20
5.7626737546
 11
7.4037510193
 21
5.7626737546
  0
LINE
  5
234
100
AcDbEntity
  8
0
100
AcDbLine
 62
7
  6
CONTINUOUS
 10
2.0838695255
 20
5.7626737546
 11
3.2014880318
 21
5.7626737546
  0
LINE
  5
235
100
AcDbEntity
  8
0
100
AcDbLine
 62
7
  6
CONTINUOUS
 10
8.5063695255
 20
5.7776737546
 11
7.4253594298
 21
5.7776737546
  0
LINE
  5
236
100
AcDbEntity
  8
0
100
AcDbLine
 62
7
  6
CONTINUOUS
 10
3.1798796213
 20
5.7776737546
 11
2.0988701768
 21
5.7776737546
  0
LINE
  5
237
100
AcDbEntity
  8
0
100
AcDbLine
 62
7
  6
CONTINUOUS
 10
3.1932445255
 20
5.7926737546
 11
3.1947220216
 21
5.7926737546
  0
LINE
  5
238
100
AcDbEntity
  8
0
100
AcDbLine
 62
7
  6
CONTINUOUS
 10
7.4105170294
 20
5.7926737546
 11
7.4119945255
 21
5.7926737546
  0
LINE
  5
239
100
AcDbEntity
  8
0
100
AcDbLine
 62
7
  6
CONTINUOUS
 10
6.7763695255
 20
6.9091737546
 11
6.7763695255
 21
6.8241737546
  0
LINE
  5
23A
100
AcDbEntity
  8
0
100
AcDbLine
 62
7
  6
CONTINUOUS
 10
7.4438695255
 20
5.9991737546
 11
7.0988695255
 21
5.9991737546
  0
LINE
  5
23B
100
AcDbEntity
  8
0
100
AcDbLine
 62
7
  6
CONTINUOUS
 10
3.5063695255
 20
5.9991737546
 11
3.1613695255
 21
5.9991737546
  0
LINE
  5
23C
100
AcDbEntity
  8
0
100
AcDbLine
 62
7
  6
CONTINUOUS
 10
7.4588695255
 20
6.0141737546
 11
7.0838695255
 21
6.0141737546
  0
LINE
  5
23D
100
AcDbEntity
  8
0
100
AcDbLine
 62
7
  6
CONTINUOUS
 10
3.5213695255
 20
6.0141737546
 11
3.1463695255
 21
6.0141737546
  0
LINE
  5
23E
100
AcDbEntity
  8
0
100
AcDbLine
 62
7
  6
CONTINUOUS
 10
7.0838695255
 20
6.8091737546
 11
7.0838695255
 21
6.0141737546
  0
LINE
  5
23F
100
AcDbEntity
  8
0
100
AcDbLine
 62
7
  6
CONTINUOUS
 10
7.1307445255
 20
5.9991737546
 11
7.1307445255
 21
5.6486737546
  0
LWPOLYLINE
  5
240
100
AcDbEntity
  8
0
100
AcDbPolyline
 62
7
  6
CONTINUOUS
 90
3
 70
0
 10
7.2863660173
 20
5.6336737546
 10
7.2863670225
 20
5.6336531981
 10
7.2863678595
 20
5.6335915849
  0
LINE
  5
241
100
AcDbEntity
  8
0
100
AcDbLine
 62
7
  6
CONTINUOUS
 10
7.2863678595
 20
5.6335915849
 11
7.2863690068
 21
5.6333459747
  0
LINE
  5
242
100
AcDbEntity
  8
0
100
AcDbLine
 62
7
  6
CONTINUOUS
 10
7.2713695255
 20
5.6186737546
 11
7.2713695255
 21
5.5886737546
  0
LINE
  5
243
100
AcDbEntity
  8
0
100
AcDbLine
 62
7
  6
CONTINUOUS
 10
7.2863660173
 20
5.6336737546
 11
7.2863695255
 21
5.5886737546
  0
LINE
  5
244
100
AcDbEntity
  8
0
100
AcDbLine
 62
7
  6
CONTINUOUS
 10
7.3013695255
 20
5.5736737546
 11
7.3013695255
 21
5.5586737546
  0
LINE
  5
245
100
AcDbEntity
  8
0
100
AcDbLine
 62
7
  6
CONTINUOUS
 10
7.385498359
 20
5.6336737546
 11
7.385498359
 21
5.6186737546
  0
LINE
  5
246
100
AcDbEntity
  8
0
100
AcDbLine
 62
7
  6
CONTINUOUS
 10
7.4037510193
 20
5.7626737546
 11
7.4037510193
 21
5.6486737546
  0
LINE
  5
247
100
AcDbEntity
  8
0
100
AcDbLine
 62
7
  6
CONTINUOUS
 10
7.4119945255
 20
5.9991737546
 11
7.4119945255
 21
5.7926737546
  0
LINE
  5
248
100
AcDbEntity
  8
0
100
AcDbLine
 62
7
  6
CONTINUOUS
 10
7.4178717119
 20
5.7626737546
 11
7.4178717119
 21
5.6486737546
  0
LINE
  5
249
100
AcDbEntity
  8
0
100
AcDbLine
 62
7
  6
CONTINUOUS
 10
7.4588695255
 20
6.8091737546
 11
7.4588695255
 21
6.0141737546
  0
LINE
  5
24A
100
AcDbEntity
  8
0
100
AcDbLine
 62
7
  6
CONTINUOUS
 10
7.7663695255
 20
6.9091737546
 11
7.7663695255
 21
6.8241737546
  0
LINE
  5
24B
100
AcDbEntity
  8
0
100
AcDbLine
 62
7
  6
CONTINUOUS
 10
5.7813695255
 20
6.7216737546
 11
4.8213695255
 21
6.7216737546
  0
LINE
  5
24C
100
AcDbEntity
  8
0
100
AcDbLine
 62
7
  6
CONTINUOUS
 10
5.7963695255
 20
6.7366737546
 11
4.8063695255
 21
6.7366737546
  0
LINE
  5
24D
100
AcDbEntity
  8
0
100
AcDbLine
 62
7
  6
CONTINUOUS
 10
7.7513695255
 20
6.8091737546
 11
6.7913695255
 21
6.8091737546
  0
LINE
  5
24E
100
AcDbEntity
  8
0
100
AcDbLine
 62
7
  6
CONTINUOUS
 10
3.8138695255
 20
6.8091737546
 11
2.8538695255
 21
6.8091737546
  0
LINE
  5
24F
100
AcDbEntity
  8
0
100
AcDbLine
 62
7
  6
CONTINUOUS
 10
7.7663695255
 20
6.8241737546
 11
6.7763695255
 21
6.8241737546
  0
LINE
  5
250
100
AcDbEntity
  8
0
100
AcDbLine
 62
7
  6
CONTINUOUS
 10
3.8288695255
 20
6.8241737546
 11
2.8388695255
 21
6.8241737546
  0
LINE
  5
251
100
AcDbEntity
  8
0
100
AcDbLine
 62
7
  6
CONTINUOUS
 10
7.7663695255
 20
6.9091737546
 11
6.7763695255
 21
6.9091737546
  0
LINE
  5
252
100
AcDbEntity
  8
0
100
AcDbLine
 62
7
  6
CONTINUOUS
 10
2.8388695255
 20
6.9091737546
 11
3.8288695255
 21
6.9091737546
  0
LINE
  5
253
100
AcDbEntity
  8
0
100
AcDbLine
 62
7
  6
CONTINUOUS
 10
4.8063695255
 20
6.9091737546
 11
5.7963695255
 21
6.9091737546
  0
LINE
  5
254
100
AcDbEntity
  8
0
100
AcDbLine
 62
7
  6
CONTINUOUS
 10
8.4838695255
 20
5.5586737546
 11
8.4838695255
 21
5.7776737546
  0
LINE
  5
255
100
AcDbEntity
  8
0
100
AcDbLine
 62
7
  6
CONTINUOUS
 10
8.5213695255
 20
5.5736737546
 11
8.5213695255
 21
5.7626737546
  0
ARC
  5
256
100
AcDbEntity
  8
0
100
AcDbCircle
 62
7
  6
CONTINUOUS
 10
5.3013695255
 20
2.1591737546
 40
0.21875
100
AcDbArc
 50
180.0
 51
360.0
  0
ARC
  5
257
100
AcDbEntity
  8
0
100
AcDbCircle
 62
7
  6
CONTINUOUS
 10
3.3038695255
 20
5.5886737546
 40
0.03
100
AcDbArc
 50
270.0
 51
360.0
  0
ARC
  5
258
100
AcDbEntity
  8
0
100
AcDbCircle
 62
7
  6
CONTINUOUS
 10
7.3013695255
 20
5.5886737546
 40
0.03
100
AcDbArc
 50
180.0
 51
270.0
  0
ARC
  5
259
100
AcDbEntity
  8
0
100
AcDbCircle
 62
7
  6
CONTINUOUS
 10
3.8138695255
 20
6.8241737546
 40
0.015
100
AcDbArc
 50
270.0
 51
360.0
  0
ARC
  5
25A
100
AcDbEntity
  8
0
100
AcDbCircle
 62
7
  6
CONTINUOUS
 10
2.8538695255
 20
6.8241737546
 40
0.015
100
AcDbArc
 50
180.0
 51
270.0
  0
ARC
  5
25B
100
AcDbEntity
  8
0
100
AcDbCircle
 62
7
  6
CONTINUOUS
 10
3.1613695255
 20
6.0141737546
 40
0.015
100
AcDbArc
 50
180.0
 51
270.0
  0
ARC
  5
25C
100
AcDbEntity
  8
0
100
AcDbCircle
 62
7
  6
CONTINUOUS
 10
3.5063695255
 20
6.0141737546
 40
0.015
100
AcDbArc
 50
270.0
 51
360.0
  0
ARC
  5
25D
100
AcDbEntity
  8
0
100
AcDbCircle
 62
7
  6
CONTINUOUS
 10
7.1457445255
 20
5.6486737546
 40
0.015
100
AcDbArc
 50
180.0
 51
270.0
  0
ARC
  5
25E
100
AcDbEntity
  8
0
100
AcDbCircle
 62
7
  6
CONTINUOUS
 10
7.4269945255
 20
5.7926737546
 40
0.015
100
AcDbArc
 50
180.0
 51
267.2727272727
  0
ARC
  5
25F
100
AcDbEntity
  8
0
100
AcDbCircle
 62
7
  6
CONTINUOUS
 10
8.5063695255
 20
5.7626737546
 40
0.015
100
AcDbArc
 50
0.0
 51
90.0
  0
ARC
  5
260
100
AcDbEntity
  8
0
100
AcDbCircle
 62
7
  6
CONTINUOUS
 10
8.5063695255
 20
5.5736737546
 40
0.015
100
AcDbArc
 50
270.0
 51
360.0
  0
ARC
  5
261
100
AcDbEntity
  8
0
100
AcDbCircle
 62
7
  6
CONTINUOUS
 10
3.4594945255
 20
5.6486737546
 40
0.015
100
AcDbArc
 50
270.0
 51
360.0
  0
ARC
  5
262
100
AcDbEntity
  8
0
100
AcDbCircle
 62
7
  6
CONTINUOUS
 10
3.1782445256
 20
5.7926737546
 40
0.015
100
AcDbArc
 50
272.7272727273
 51
360.0
  0
ARC
  5
263
100
AcDbEntity
  8
0
100
AcDbCircle
 62
7
  6
CONTINUOUS
 10
2.0988695255
 20
5.7626737546
 40
0.015
100
AcDbArc
 50
90.0
 51
180.0
  0
ARC
  5
264
100
AcDbEntity
  8
0
100
AcDbCircle
 62
7
  6
CONTINUOUS
 10
3.3488695255
 20
5.6186737546
 40
0.015
100
AcDbArc
 50
90.0
 51
180.0
  0
ARC
  5
265
100
AcDbEntity
  8
0
100
AcDbCircle
 62
7
  6
CONTINUOUS
 10
2.0988695255
 20
5.5736737546
 40
0.015
100
AcDbArc
 50
180.0
 51
270.0
  0
ARC
  5
266
100
AcDbEntity
  8
0
100
AcDbCircle
 62
7
  6
CONTINUOUS
 10
6.7913695255
 20
6.8241737546
 40
0.015
100
AcDbArc
 50
180.0
 51
270.0
  0
ARC
  5
267
100
AcDbEntity
  8
0
100
AcDbCircle
 62
7
  6
CONTINUOUS
 10
7.7513695255
 20
6.8241737546
 40
0.015
100
AcDbArc
 50
270.0
 51
360.0
  0
ARC
  5
268
100
AcDbEntity
  8
0
100
AcDbCircle
 62
7
  6
CONTINUOUS
 10
4.8213695255
 20
6.7366737546
 40
0.015
100
AcDbArc
 50
180.0
 51
270.0
  0
ARC
  5
269
100
AcDbEntity
  8
0
100
AcDbCircle
 62
7
  6
CONTINUOUS
 10
7.4438695255
 20
6.0141737546
 40
0.015
100
AcDbArc
 50
270.0
 51
360.0
  0
ARC
  5
26A
100
AcDbEntity
  8
0
100
AcDbCircle
 62
7
  6
CONTINUOUS
 10
7.0988695255
 20
6.0141737546
 40
0.015
100
AcDbArc
 50
180.0
 51
270.0
  0
ARC
  5
26B
100
AcDbEntity
  8
0
100
AcDbCircle
 62
7
  6
CONTINUOUS
 10
5.7813695255
 20
6.7366737546
 40
0.015
100
AcDbArc
 50
270.0
 51
360.0
  0
ARC
  5
26C
100
AcDbEntity
  8
0
100
AcDbCircle
 62
7
  6
CONTINUOUS
 10
4.9883695255
 20
5.6741737546
 40
0.015
100
AcDbArc
 50
180.0
 51
270.0
  0
ARC
  5
26D
100
AcDbEntity
  8
0
100
AcDbCircle
 62
7
  6
CONTINUOUS
 10
5.6143695255
 20
5.6741737546
 40
0.015
100
AcDbArc
 50
270.0
 51
360.0
  0
ARC
  5
26E
100
AcDbEntity
  8
0
100
AcDbCircle
 62
7
  6
CONTINUOUS
 10
7.2563695259
 20
5.6186737546
 40
0.015
100
AcDbArc
 50
0.0
 51
90.0000015671
  0
ARC
  5
26F
100
AcDbEntity
  8
0
100
AcDbCircle
 62
7
  6
CONTINUOUS
 10
7.3013695255
 20
5.5886737546
 40
0.015
100
AcDbArc
 50
180.0
 51
270.0
  0
ARC
  5
270
100
AcDbEntity
  8
0
100
AcDbCircle
 62
7
  6
CONTINUOUS
 10
3.3038695255
 20
5.5886737546
 40
0.015
100
AcDbArc
 50
270.0
 51
360.0
  0
SPLINE
  5
271
100
AcDbEntity
  8
0
100
AcDbSpline
 62
7
  6
CONTINUOUS
 70
0
 71
3
 72
26
 73
22
 74
0
 42
0.0000001
 43
0.0000001
 44
0.0000000001
 40
0.0
 40
0.0
 40
0.0
 40
0.0
 40
0.1800610247
 40
0.3548422324
 40
0.4386074031
 40
0.5190751401
 40
0.5955772402
 40
0.6674383322
 40
0.7339715625
 40
0.7944812603
 40
0.8482750363
 40
0.8946823548
 40
0.9149281191
 40
0.933111144
 40
0.9491903484
 40
0.9631584512
 40
0.9750437824
 40
0.9849452543
 40
0.9892255324
 40
0.9931166697
 40
1.0
 40
1.0
 40
1.0
 40
1.0
 10
3.2014880318
 20
5.7626737546
 30
0.0
 10
3.2014879851
 20
5.7645584878
 30
0.0
 10
3.2013738618
 20
5.7682735822
 30
0.0
 10
3.2009564245
 20
5.7728485515
 30
0.0
 10
3.2004687315
 20
5.7763639067
 30
0.0
 10
3.2000453941
 20
5.7788483375
 30
0.0
 10
3.1995687289
 20
5.7811960592
 30
0.0
 10
3.1990493837
 20
5.783385082
 30
0.0
 10
3.1984987697
 20
5.7853933764
 30
0.0
 10
3.1979293482
 20
5.7871991138
 30
0.0
 10
3.1973538343
 20
5.7887803763
 30
0.0
 10
3.1968603206
 20
5.7899415413
 30
0.0
 10
3.1964674858
 20
5.7907381686
 30
0.0
 10
3.1961926299
 20
5.7912384112
 30
0.0
 10
3.1959254115
 20
5.7916670857
 30
0.0
 10
3.1956671385
 20
5.7920226115
 30
0.0
 10
3.1954189292
 20
5.7923035735
 30
0.0
 10
3.1952115465
 20
5.7924830861
 30
0.0
 10
3.1950504318
 20
5.7925831696
 30
0.0
 10
3.1949072704
 20
5.7926492946
 30
0.0
 10
3.1947940708
 20
5.7926737025
 30
0.0
 10
3.1947220216
 20
5.7926737546
 30
0.0
  0
SPLINE
  5
272
100
AcDbEntity
  8
0
100
AcDbSpline
 62
7
  6
CONTINUOUS
 70
0
 71
3
 72
22
 73
18
 74
0
 42
0.0000001
 43
0.0000001
 44
0.0000000001
 40
0.0
 40
0.0
 40
0.0
 40
0.0
 40
0.1249049764
 40
0.1874138452
 40
0.2499193161
 40
0.3124288537
 40
0.3749376809
 40
0.4374455247
 40
0.4999541536
 40
0.5624606777
 40
0.6249678657
 40
0.6874745599
 40
0.7499816812
 40
0.8124871293
 40
0.8749875326
 40
0.9375077494
 40
1.0
 40
1.0
 40
1.0
 40
1.0
 10
3.2197406921
 20
5.6186737546
 30
0.0
 10
3.2176988356
 20
5.6186739772
 30
0.0
 10
3.2146263175
 20
5.6189343043
 30
0.0
 10
3.2106312549
 20
5.6198065466
 30
0.0
 10
3.2077019845
 20
5.6207252547
 30
0.0
 10
3.2048684658
 20
5.6219061733
 30
0.0
 10
3.2021567764
 20
5.6233456773
 30
0.0
 10
3.1995934066
 20
5.6250354159
 30
0.0
 10
3.1972049242
 20
5.6269648047
 30
0.0
 10
3.1950194772
 20
5.6291218038
 30
0.0
 10
3.19306299
 20
5.6314885843
 30
0.0
 10
3.1913589049
 20
5.6340433243
 30
0.0
 10
3.1899302524
 20
5.6367618847
 30
0.0
 10
3.1887972597
 20
5.6396164184
 30
0.0
 10
3.1879773882
 20
5.6425765293
 30
0.0
 10
3.1874798685
 20
5.6456068881
 30
0.0
 10
3.1873674478
 20
5.6476521764
 30
0.0
 10
3.1873673391
 20
5.6486737547
 30
0.0
  0
SPLINE
  5
273
100
AcDbEntity
  8
0
100
AcDbSpline
 62
7
  6
CONTINUOUS
 70
0
 71
3
 72
28
 73
24
 74
0
 42
0.0000001
 43
0.0000001
 44
0.0000000001
 40
0.0
 40
0.0
 40
0.0
 40
0.0
 40
0.0068852901
 40
0.0107768952
 40
0.0150570791
 40
0.0249544813
 40
0.0368283105
 40
0.0507906371
 40
0.0668784378
 40
0.0850683944
 40
0.1053131693
 40
0.1517104131
 40
0.2055000093
 40
0.2660056474
 40
0.3325347448
 40
0.4043940851
 40
0.4808930217
 40
0.5613576075
 40
0.6451225523
 40
0.7315270425
 40
0.8199150704
 40
0.9096397875
 40
1.0
 40
1.0
 40
1.0
 40
1.0
 10
7.4105170294
 20
5.7926737546
 30
0.0
 10
7.4104449568
 20
5.7926737002
 30
0.0
 10
7.4103317313
 20
5.7926492297
 30
0.0
 10
7.4101885738
 20
5.7925830285
 30
0.0
 10
7.410027509
 20
5.7924829275
 30
0.0
 10
7.4098201719
 20
5.7923036154
 30
0.0
 10
7.4095718816
 20
5.7920229972
 30
0.0
 10
7.4093136131
 20
5.791667546
 30
0.0
 10
7.4090465192
 20
5.7912386476
 30
0.0
 10
7.4087716949
 20
5.7907381906
 30
0.0
 10
7.4083788568
 20
5.789941574
 30
0.0
 10
7.4078852411
 20
5.7887805686
 30
0.0
 10
7.4073098127
 20
5.7871994019
 30
0.0
 10
7.4067403504
 20
5.7853937326
 30
0.0
 10
7.4061897499
 20
5.7833854516
 30
0.0
 10
7.4056703754
 20
5.7811964388
 30
0.0
 10
7.4051936755
 20
5.778848705
 30
0.0
 10
7.4047704371
 20
5.7763642311
 30
0.0
 10
7.4044099767
 20
5.7737651525
 30
0.0
 10
7.4041203919
 20
5.7710737764
 30
0.0
 10
7.4039094108
 20
5.7683125147
 30
0.0
 10
7.4037804875
 20
5.7655047946
 30
0.0
 10
7.4037510411
 20
5.7636196115
 30
0.0
 10
7.4037510193
 20
5.7626737546
 30
0.0
  0
SPLINE
  5
274
100
AcDbEntity
  8
0
100
AcDbSpline
 62
7
  6
CONTINUOUS
 70
0
 71
3
 72
21
 73
17
 74
0
 42
0.0000001
 43
0.0000001
 44
0.0000000001
 40
0.0
 40
0.0
 40
0.0
 40
0.0
 40
0.1218803873
 40
0.2445466953
 40
0.3062300708
 40
0.3681591712
 40
0.4303240187
 40
0.4927466652
 40
0.5554168036
 40
0.6183409414
 40
0.6815014262
 40
0.744896709
 40
0.808478002
 40
0.8722209441
 40
0.9361079121
 40
1.0
 40
1.0
 40
1.0
 40
1.0
 10
3.2197415509
 20
5.6336737546
 30
0.0
 10
3.2186745445
 20
5.6336738296
 30
0.0
 10
3.2165309313
 20
5.6338102215
 30
0.0
 10
3.213895021
 20
5.634353416
 30
0.0
 10
3.211846132
 20
5.6350312267
 30
0.0
 10
3.2103473839
 20
5.6356679218
 30
0.0
 10
3.2089037344
 20
5.6364355496
 30
0.0
 10
3.2075315455
 20
5.6373370422
 30
0.0
 10
3.2062483276
 20
5.6383723282
 30
0.0
 10
3.2050741988
 20
5.6395395113
 30
0.0
 10
3.2040295289
 20
5.6408325024
 30
0.0
 10
3.2031367844
 20
5.6422419395
 30
0.0
 10
3.2024157259
 20
5.6437524239
 30
0.0
 10
3.2018855216
 20
5.6453449448
 30
0.0
 10
3.201561338
 20
5.6469944478
 30
0.0
 10
3.2014880831
 20
5.6481144089
 30
0.0
 10
3.2014880318
 20
5.6486737546
 30
0.0
  0
SPLINE
  5
275
100
AcDbEntity
  8
0
100
AcDbSpline
 62
7
  6
CONTINUOUS
 70
0
 71
3
 72
21
 73
17
 74
0
 42
0.0000001
 43
0.0000001
 44
0.0000000001
 40
0.0
 40
0.0
 40
0.0
 40
0.0
 40
0.0264502469
 40
0.0414932481
 40
0.0578742161
 40
0.0948253863
 40
0.1375261378
 40
0.185887546
 40
0.2396481171
 40
0.2984860064
 40
0.3620845385
 40
0.4301524788
 40
0.5023829496
 40
0.6579500035
 40
0.8255098822
 40
1.0
 40
1.0
 40
1.0
 40
1.0
 10
3.1798796212
 20
5.7776737546
 30
0.0
 10
3.1800355063
 20
5.7776737298
 30
0.0
 10
3.1802803992
 20
5.7776287538
 30
0.0
 10
3.1806005293
 20
5.7775109254
 30
0.0
 10
3.1809636103
 20
5.7773344421
 30
0.0
 10
3.1814381234
 20
5.7770220609
 30
0.0
 10
3.1820153305
 20
5.7765343889
 30
0.0
 10
3.1826147209
 20
5.7759253194
 30
0.0
 10
3.1832264888
 20
5.7751992656
 30
0.0
 10
3.1838402335
 20
5.7743607008
 30
0.0
 10
3.1844447398
 20
5.7734137474
 30
0.0
 10
3.1850285347
 20
5.7723625248
 30
0.0
 10
3.185781191
 20
5.7707886734
 30
0.0
 10
3.186584191
 20
5.7685937129
 30
0.0
 10
3.1872165369
 20
5.7657210516
 30
0.0
 10
3.1873672378
 20
5.7637021154
 30
0.0
 10
3.1873673391
 20
5.7626737546
 30
0.0
  0
SPLINE
  5
276
100
AcDbEntity
  8
0
100
AcDbSpline
 62
7
  6
CONTINUOUS
 70
0
 71
3
 72
21
 73
17
 74
0
 42
0.0000001
 43
0.0000001
 44
0.0000000001
 40
0.0
 40
0.0
 40
0.0
 40
0.0
 40
0.063902544
 40
0.1277651606
 40
0.1914996564
 40
0.2550837306
 40
0.3184722251
 40
0.3816310076
 40
0.4445528901
 40
0.5072278464
 40
0.5696456142
 40
0.6318147197
 40
0.693737194
 40
0.7554335052
 40
0.8780993149
 40
1.0
 40
1.0
 40
1.0
 40
1.0
 10
7.4037510193
 20
5.6486737546
 30
0.0
 10
7.4037509701
 20
5.6481143174
 30
0.0
 10
7.4036779258
 20
5.6469944629
 30
0.0
 10
7.4033536461
 20
5.645345166
 30
0.0
 10
7.4028234716
 20
5.6437529258
 30
0.0
 10
7.4021025677
 20
5.6422424842
 30
0.0
 10
7.4012098368
 20
5.640833108
 30
0.0
 10
7.4001654677
 20
5.6395399878
 30
0.0
 10
7.3989912341
 20
5.6383729035
 30
0.0
 10
7.3977082767
 20
5.6373373308
 30
0.0
 10
7.3963359865
 20
5.636435911
 30
0.0
 10
7.3948924412
 20
5.6356682297
 30
0.0
 10
7.3933935718
 20
5.6350315773
 30
0.0
 10
7.3913446627
 20
5.6343536849
 30
0.0
 10
7.3887085119
 20
5.6338102239
 30
0.0
 10
7.3865647171
 20
5.6336738266
 30
0.0
 10
7.3854975331
 20
5.6336737546
 30
0.0
  0
SPLINE
  5
277
100
AcDbEntity
  8
0
100
AcDbSpline
 62
7
  6
CONTINUOUS
 70
0
 71
3
 72
15
 73
11
 74
0
 42
0.0000001
 43
0.0000001
 44
0.0000000001
 40
0.0
 40
0.0
 40
0.0
 40
0.0
 40
0.1243558985
 40
0.2488015544
 40
0.3734362884
 40
0.4983081509
 40
0.6234375885
 40
0.7488058361
 40
0.8743491715
 40
1.0
 40
1.0
 40
1.0
 40
1.0
 10
7.4253594298
 20
5.7776737546
 30
0.0
 10
7.4243894255
 20
5.7776737546
 30
0.0
 10
7.4224432253
 20
5.7778673043
 30
0.0
 10
7.4196410516
 20
5.7787271009
 30
0.0
 10
7.4170578713
 20
5.780122879
 30
0.0
 10
7.4147944722
 20
5.7820009722
 30
0.0
 10
7.4129373254
 20
5.7842888069
 30
0.0
 10
7.4115577275
 20
5.786898702
 30
0.0
 10
7.4107081851
 20
5.7897289475
 30
0.0
 10
7.4105170294
 20
5.7916936495
 30
0.0
 10
7.4105170294
 20
5.7926737546
 30
0.0
  0
SPLINE
  5
278
100
AcDbEntity
  8
0
100
AcDbSpline
 62
7
  6
CONTINUOUS
 70
0
 71
3
 72
21
 73
17
 74
0
 42
0.0000001
 43
0.0000001
 44
0.0000000001
 40
0.0
 40
0.0
 40
0.0
 40
0.0
 40
0.1744721229
 40
0.342036305
 40
0.497593763
 40
0.5698270579
 40
0.6378953592
 40
0.7015044578
 40
0.7603453665
 40
0.8141012718
 40
0.862479928
 40
0.9052103079
 40
0.94213658
 40
0.9584938449
 40
0.9735293476
 40
1.0
 40
1.0
 40
1.0
 40
1.0
 10
7.4178717119
 20
5.7626737546
 30
0.0
 10
7.4178718091
 20
5.7637020074
 30
0.0
 10
7.4180221798
 20
5.7657208973
 30
0.0
 10
7.4186550665
 20
5.7685933162
 30
0.0
 10
7.4194579425
 20
5.7707882526
 30
0.0
 10
7.4202101087
 20
5.7723622936
 30
0.0
 10
7.4207938353
 20
5.7734136548
 30
0.0
 10
7.4213986534
 20
5.7743605105
 30
0.0
 10
7.4220125558
 20
5.77519901
 30
0.0
 10
7.4226241063
 20
5.7759253538
 30
0.0
 10
7.4232237555
 20
5.7765345675
 30
0.0
 10
7.4238016485
 20
5.7770216024
 30
0.0
 10
7.4242757847
 20
5.7773342611
 30
0.0
 10
7.4246383639
 20
5.7775110324
 30
0.0
 10
7.4249584341
 20
5.7776288816
 30
0.0
 10
7.4252034248
 20
5.7776737287
 30
0.0
 10
7.4253594298
 20
5.7776737546
 30
0.0
  0
SPLINE
  5
279
100
AcDbEntity
  8
0
100
AcDbSpline
 62
7
  6
CONTINUOUS
 70
0
 71
3
 72
23
 73
19
 74
0
 42
0.0000001
 43
0.0000001
 44
0.0000000001
 40
0.0
 40
0.0
 40
0.0
 40
0.0
 40
0.0624974639
 40
0.1250065216
 40
0.1562662427
 40
0.1875276224
 40
0.2500340449
 40
0.3125372689
 40
0.3750411063
 40
0.4375475335
 40
0.5000515856
 40
0.5625590219
 40
0.6250658733
 40
0.6875719259
 40
0.7500812411
 40
0.8125894372
 40
0.8750943786
 40
1.0
 40
1.0
 40
1.0
 40
1.0
 10
7.4178717119
 20
5.6486737546
 30
0.0
 10
7.4178716079
 20
5.6476520665
 30
0.0
 10
7.4177586492
 20
5.6456069851
 30
0.0
 10
7.4173449461
 20
5.6430809964
 30
0.0
 10
7.4168524625
 20
5.6410963272
 30
0.0
 10
7.4162527885
 20
5.6391414646
 30
0.0
 10
7.4153081502
 20
5.6367622611
 30
0.0
 10
7.4138811293
 20
5.6340429812
 30
0.0
 10
7.4121760051
 20
5.6314888893
 30
0.0
 10
7.410219641
 20
5.629122127
 30
0.0
 10
7.4080343697
 20
5.6269649062
 30
0.0
 10
7.4056457651
 20
5.6250357033
 30
0.0
 10
7.4030827762
 20
5.62334538
 30
0.0
 10
7.40037071
 20
5.6219065137
 30
0.0
 10
7.3975371524
 20
5.6207256154
 30
0.0
 10
7.3946080291
 20
5.6198062334
 30
0.0
 10
7.3906127983
 20
5.6189342433
 30
0.0
 10
7.3875402754
 20
5.6186739679
 30
0.0
 10
7.385498359
 20
5.6186737546
 30
0.0
  0
SPLINE
  5
27A
100
AcDbEntity
  8
0
100
AcDbSpline
 62
7
  6
CONTINUOUS
 70
0
 71
3
 72
15
 73
11
 74
0
 42
0.0000001
 43
0.0000001
 44
0.0000000001
 40
0.0
 40
0.0
 40
0.0
 40
0.0
 40
0.1256466385
 40
0.2511951792
 40
0.3765622568
 40
0.5016918449
 40
0.6265638672
 40
0.7511974566
 40
0.8756482489
 40
1.0
 40
1.0
 40
1.0
 40
1.0
 10
3.1947220217
 20
5.7926737546
 30
0.0
 10
3.1947220217
 20
5.7916936816
 30
0.0
 10
3.1945308462
 20
5.7897289771
 30
0.0
 10
3.1936813884
 20
5.7868987024
 30
0.0
 10
3.1923017234
 20
5.7842887987
 30
0.0
 10
3.1904445777
 20
5.7820009733
 30
0.0
 10
3.1881811877
 20
5.7801228812
 30
0.0
 10
3.1855979997
 20
5.7787270357
 30
0.0
 10
3.1827957961
 20
5.7778673241
 30
0.0
 10
3.1808495938
 20
5.7776737546
 30
0.0
 10
3.1798796213
 20
5.7776737546
 30
0.0
  0
ENDSEC
  0
SECTION
  2
OBJECTS
  0
DICTIONARY
  5
C
100
AcDbDictionary
280
0
281
1
  3
ACAD_GROUP
350
D
  3
ACAD_MLINESTYLE
350
17
  3
ACAD_LAYOUT
350
1A
  3
ACAD_PLOTSETTINGS
350
19
  3
ACAD_PLOTSTYLENAME
350
E
  0
DICTIONARY
  5
D
102
{ACAD_REACTORS
330
C
102
}
100
AcDbDictionary
280
0
281
1
  0
ACDBDICTIONARYWDFLT
  5
E
102
{ACAD_REACTORS
330
C
102
}
100
AcDbDictionary
281
1
  3
Normal
350
F
100
AcDbDictionaryWithDefault
340
F
  0
DICTIONARY
  5
17
102
{ACAD_REACTORS
330
C
102
}
100
AcDbDictionary
280
0
281
1
  3
Standard
350
18
  0
DICTIONARY
  5
19
102
{ACAD_REACTORS
330
C
102
}
100
AcDbDictionary
281
1
  0
DICTIONARY
  5
1A
102
{ACAD_REACTORS
330
C
102
}
100
AcDbDictionary
281
1
  3
Model
350
27B
  3
Layout1
350
27C
  0
ACDBPLACEHOLDER
  5
F
102
{ACAD_REACTORS
330
E
102
}
  0
MLINESTYLE
  5
18
102
{ACAD_REACTORS
330
17
102
}
100
AcDbMlineStyle
  2
STANDARD
 70
0
  3

 62
256
 51
90.0
 52
90.0
 71
2
 49
0.5
 62
256
  6
BYLAYER
 49
-0.5
 62
256
  6
BYLAYER
  0
LAYOUT
  5
27B
102
{ACAD_REACTORS
330
1A
102
}
100
AcDbPlotSettings
  1

  2
none_device
  4
ANSI_A_(11.00_x_8.50_Inches)
  6

 40
0.0
 41
0.0
 42
0.0
 43
0.0
 44
279.4
 45
215.9
 46
0.0
 47
0.0
 48
0.0
 49
0.0
140
0.0
141
0.0
142
1.0
143
1.0
 70
1024
 72
0
 73
0
 74
0
  7

 75
0
147
1.0
148
0.0
149
0.0
100
AcDbLayout
  1
Model
 70
0
 71
0
 10
0.0
 20
0.0
 11
11.0
 21
8.5
 12
0.0
 22
0.0
 32
0.0
 14
0.0
 24
0.0
 34
0.0
 15
0.0
 25
0.0
 35
0.0
146
0.0
 13
0.0
 23
0.0
 33
0.0
 16
1.0
 26
0.0
 36
0.0
 17
0.0
 27
1.0
 37
0.0
 76
0
330
202
345
0
346
0
  0
LAYOUT
  5
27C
102
{ACAD_REACTORS
330
1A
102
}
100
AcDbPlotSettings
  1

  2
none_device
  4
ANSI_A_(11.00_x_8.50_Inches)
  6

 40
0.0
 41
0.0
 42
0.0
 43
0.0
 44
279.4
 45
215.9
 46
0.0
 47
0.0
 48
0.0
 49
0.0
140
0.0
141
0.0
142
1.0
143
1.0
 70
0
 72
0
 73
0
 74
0
  7

 75
0
147
1.0
148
0.0
149
0.0
100
AcDbLayout
  1
Layout1
 70
0
 71
1
 10
0.0
 20
0.0
 11
11.0
 21
8.5
 12
0.0
 22
0.0
 32
0.0
 14
0.0
 24
0.0
 34
0.0
 15
0.0
 25
0.0
 35
0.0
146
0.0
 13
0.0
 23
0.0
 33
0.0
 16
1.0
 26
0.0
 36
0.0
 17
0.0
 27
1.0
 37
0.0
 76
0
330
203
345
0
346
0
  0
ENDSEC
  0
EOF
