999
DXF file: E:\BRASSTECH\JOE\EN-3XXX\EN-3934\Webdata\1\CAD\3-3326_FRONT.dxf
999
Pro/ENGINEER 2018400 by Parametric Technology Corporation
  0
SECTION
  2
HEADER
  9
$ACADVER
  1
AC1018
  9
$DWGCODEPAGE
  3
ANSI_1252
  9
$EXTMAX
 10
22.0
 20
17.0
 30
0.0
  9
$EXTMIN
 10
0.0
 20
0.0
 30
0.0
  9
$LIMMIN
 10
0.0
 20
0.0
  9
$LIMMAX
 10
22.0
 20
17.0
  9
$VIEWCTR
 10
11.0
 20
8.5
  9
$VIEWSIZE
 40
17.0
  9
$CLAYER
  8
0
  9
$LTSCALE
 40
1.21
  9
$CELTYPE
  6
BYLAYER
  9
$DIMSCALE
 40
1.0
  9
$DIMASZ
 40
0.1
  9
$DIMEXO
 40
0.0625
  9
$DIMDLI
 40
0.836
  9
$DIMEXE
 40
0.125
  9
$DIMCEN
 40
0.198
  9
$DIMLFAC
 40
1.0
  9
$DIMBLK
  1
_FILLED
  9
$DIMALT
 70
1
  9
$DIMALTD
 70
2
  9
$DIMALTTD
 70
2
  9
$DIMALTF
 40
25.4
  9
$DIMTXT
 40
0.08
  9
$DIMTOL
 70
1
  9
$DIMLIM
 70
0
  9
$DIMTFAC
 40
1.0
  9
$DIMTP
 40
0.001
  9
$DIMTM
 40
0.001
  9
$DIMGAP
 40
0.09
  9
$DIMDSEP
 70
46
  9
$AUNITS
 70
0
  9
$PDMODE
 70
3
  9
$PDSIZE
 40
0.06
  9
$HANDSEED
  5
288
  9
$TILEMODE
 70
1
  9
$MEASUREMENT
 70
0
  9
$INSUNITS
 70
1
  0
ENDSEC
  0
SECTION
  2
CLASSES
  0
CLASS
  1
ACDBDICTIONARYWDFLT
  2
AcDbDictionaryWithDefault
  3
AutoCAD 2000
 90
0
 91
1
280
0
281
0
  0
CLASS
  1
ACDBPLACEHOLDER
  2
AcDbPlaceHolder
  3
AutoCAD 2000
 90
0
 91
1
280
0
281
0
  0
CLASS
  1
LAYOUT
  2
AcDbLayout
  3
AutoCAD 2000
 90
0
 91
0
280
0
281
0
  0
ENDSEC
  0
SECTION
  2
TABLES
  0
TABLE
  2
VPORT
  5
8
100
AcDbSymbolTable
 70
2
  0
VPORT
  5
1F4
100
AcDbSymbolTableRecord
100
AcDbViewportTableRecord
  2
*ACTIVE
 70
0
 10
0.0
 20
0.0
 11
1.0
 21
1.0
 12
11.0
 22
8.5
 13
0.0
 23
0.0
 14
1.0
 24
1.0
 15
0.0
 25
0.0
 16
0.0
 26
0.0
 36
1.0
 17
0.0
 27
0.0
 37
0.0
 40
17.0
 41
1.2941176471
 42
50.0
 43
0.0
 44
0.0
 50
0.0
 51
0.0
 71
0
 72
100
 73
1
 74
1
 75
0
 76
0
 77
0
 78
0
  0
ENDTAB
  0
TABLE
  2
LTYPE
  5
5
100
AcDbSymbolTable
 70
6
  0
LTYPE
  5
14
100
AcDbSymbolTableRecord
100
AcDbLinetypeTableRecord
  2
BYBLOCK
 70
0
  3

 72
65
 73
0
 40
0.0
  0
LTYPE
  5
15
100
AcDbSymbolTableRecord
100
AcDbLinetypeTableRecord
  2
BYLAYER
 70
0
  3

 72
65
 73
0
 40
0.0
  0
LTYPE
  5
16
100
AcDbSymbolTableRecord
100
AcDbLinetypeTableRecord
  2
CONTINUOUS
 70
64
  3
Solid line
 72
65
 73
0
 40
0.0
  0
LTYPE
  5
1F5
100
AcDbSymbolTableRecord
100
AcDbLinetypeTableRecord
  2
CENTER
 70
64
  3
____ _ ____ _ ____ _ ____ _ ____ _ ____ _ ____
 72
65
 73
4
 40
0.6
 49
0.375
 74
0
 49
-0.075
 74
0
 49
0.075
 74
0
 49
-0.075
 74
0
  0
LTYPE
  5
1F6
100
AcDbSymbolTableRecord
100
AcDbLinetypeTableRecord
  2
HIDDEN
 70
64
  3
- - - - - - - - - - - - - - - - - - - -
 72
65
 73
2
 40
0.2
 49
0.1
 74
0
 49
-0.1
 74
0
  0
LTYPE
  5
1F7
100
AcDbSymbolTableRecord
100
AcDbLinetypeTableRecord
  2
PHANTOM
 70
64
  3
_____ _ _ _____ _ _ _____ _ _ _____
 72
65
 73
6
 40
0.8
 49
0.45
 74
0
 49
-0.05
 74
0
 49
0.1
 74
0
 49
-0.05
 74
0
 49
0.1
 74
0
 49
-0.05
 74
0
  0
LTYPE
  5
1F8
100
AcDbSymbolTableRecord
100
AcDbLinetypeTableRecord
  2
DOT
 70
64
  3
. . . . . . . . . . . . . . . . . . . .
 72
65
 73
2
 40
0.2
 49
0.1
 74
0
 49
-0.1
 74
0
  0
LTYPE
  5
1F9
100
AcDbSymbolTableRecord
100
AcDbLinetypeTableRecord
  2
DASHED
 70
64
  3
- - - - - - - - - - - - - - - - - - - -
 72
65
 73
2
 40
0.2
 49
0.1
 74
0
 49
-0.1
 74
0
  0
ENDTAB
  0
TABLE
  2
LAYER
  5
2
100
AcDbSymbolTable
 70
36
  0
LAYER
  5
10
100
AcDbSymbolTableRecord
100
AcDbLayerTableRecord
  2
0
 70
0
 62
7
  6
CONTINUOUS
370
-3
390
F
  0
LAYER
  5
1FA
100
AcDbSymbolTableRecord
100
AcDbLayerTableRecord
  2
DEFAULT_1
 70
0
 62
7
  6
CENTER
370
-3
390
F
  0
LAYER
  5
1FB
100
AcDbSymbolTableRecord
100
AcDbLayerTableRecord
  2
DEFAULT_2
 70
0
 62
8
  6
HIDDEN
370
-3
390
F
  0
LAYER
  5
1FC
100
AcDbSymbolTableRecord
100
AcDbLayerTableRecord
  2
DEFAULT_3
 70
0
 62
7
  6
PHANTOM
370
-3
390
F
  0
LAYER
  5
1FD
100
AcDbSymbolTableRecord
100
AcDbLayerTableRecord
  2
ALL_FEATURES
 70
0
 62
7
  6
CONTINUOUS
370
-3
390
F
  0
LAYER
  5
1FE
100
AcDbSymbolTableRecord
100
AcDbLayerTableRecord
  2
AXES_FEATURES
 70
0
 62
7
  6
CONTINUOUS
370
-3
390
F
  0
LAYER
  5
1FF
100
AcDbSymbolTableRecord
100
AcDbLayerTableRecord
  2
DIMENSIONS
 70
0
 62
7
  6
CONTINUOUS
370
-3
390
F
  0
ENDTAB
  0
TABLE
  2
STYLE
  5
3
100
AcDbSymbolTable
 70
1
  0
STYLE
  5
11
100
AcDbSymbolTableRecord
100
AcDbTextStyleTableRecord
  2
STANDARD
 70
0
 40
0.0
 41
0.8
 50
0.0
 71
0
 42
0.2
  3
txt
  4

  0
STYLE
  5
200
100
AcDbSymbolTableRecord
100
AcDbTextStyleTableRecord
  2
TEXTSTYLE_1
 70
0
 40
0.0
 41
0.8
 50
0.0
 71
0
 42
0.2
  3
gdt
  4

  0
ENDTAB
  0
TABLE
  2
VIEW
  5
6
100
AcDbSymbolTable
 70
0
  0
ENDTAB
  0
TABLE
  2
UCS
  5
7
100
AcDbSymbolTable
 70
0
  0
ENDTAB
  0
TABLE
  2
APPID
  5
9
100
AcDbSymbolTable
 70
1
  0
APPID
  5
201
100
AcDbSymbolTableRecord
100
AcDbRegAppTableRecord
  2
ACAD
 70
0
  0
ENDTAB
  0
TABLE
  2
BLOCK_RECORD
  5
1
100
AcDbSymbolTable
 70
0
  0
BLOCK_RECORD
  5
202
100
AcDbSymbolTableRecord
100
AcDbBlockTableRecord
  2
*Model_Space
  0
BLOCK_RECORD
  5
203
100
AcDbSymbolTableRecord
100
AcDbBlockTableRecord
  2
*Paper_Space
  0
BLOCK_RECORD
  5
204
100
AcDbSymbolTableRecord
100
AcDbBlockTableRecord
  2
_FILLED
  0
ENDTAB
  0
TABLE
  2
DIMSTYLE
  5
A
100
AcDbSymbolTable
 70
1
100
AcDbDimStyleTable
 71
0
  0
DIMSTYLE
105
205
100
AcDbSymbolTableRecord
100
AcDbDimStyleTableRecord
  2
STANDARD
 70
0
  3

  4

 40
1.0
 41
0.1
 42
0.0625
 43
0.38
 44
0.125
 45
0.0
 46
0.0
 47
0.001
 48
0.001
140
0.08
141
0.09
142
0.0
143
25.4
144
1.0
145
0.0
146
1.0
147
0.09
 71
1.0
 72
0.0
 73
1
 74
1
 75
0
 76
0
 77
0
 78
4
 79
1
170
1
171
2
172
0
173
0
174
0
175
0
176
0
177
0
178
0
270
2
179
3
271
3
272
3
273
2
274
2
275
0
280
0
281
0
282
0
283
1
284
4
285
0
286
0
287
3
288
0
340
11
278
46
341
204
342
204
343
204
344
204
  0
ENDTAB
  0
ENDSEC
  0
SECTION
  2
BLOCKS
  0
BLOCK
  5
20
100
AcDbEntity
  8
0
100
AcDbBlockBegin
  2
*Model_Space
 70
0
 10
0.0
 20
0.0
 30
0.0
  3
*Model_Space
  1

  0
ENDBLK
  5
21
100
AcDbEntity
  8
0
100
AcDbBlockEnd
  0
BLOCK
  5
1C
100
AcDbEntity
  8
0
100
AcDbBlockBegin
  2
*Paper_Space
 70
0
 10
0.0
 20
0.0
 30
0.0
  3
*Paper_Space
  1

  0
ENDBLK
  5
1D
100
AcDbEntity
  8
0
100
AcDbBlockEnd
  0
BLOCK
  5
206
100
AcDbEntity
  8
0
100
AcDbBlockBegin
  2
_FILLED
 70
64
 10
0.0
 20
0.0
  3
_FILLED
  1

  0
SOLID
  5
207
100
AcDbEntity
  8
0
  6
BYBLOCK
 62
0
100
AcDbTrace
 10
0.0
 20
0.0
 11
-1.0
 21
0.2
 12
-1.0
 22
-0.2
 13
-1.0
 23
-0.2
  0
ENDBLK
  5
208
100
AcDbEntity
  8
0
  6
BYBLOCK
 62
0
100
AcDbBlockEnd
  0
ENDSEC
  0
SECTION
  2
ENTITIES
  0
LINE
  5
209
100
AcDbEntity
  8
0
100
AcDbLine
 62
7
  6
CONTINUOUS
 10
4.4376923427
 20
7.0449195021
 11
4.4376923427
 21
6.6669195021
  0
LINE
  5
20A
100
AcDbEntity
  8
0
100
AcDbLine
 62
9
  6
CONTINUOUS
 10
4.5126923427
 20
7.0749195021
 11
4.5126923427
 21
6.6369195021
  0
LINE
  5
20B
100
AcDbEntity
  8
0
100
AcDbLine
 62
7
  6
CONTINUOUS
 10
5.9376923427
 20
4.6139195021
 11
5.9376923427
 21
4.4439195021
  0
LINE
  5
20C
100
AcDbEntity
  8
0
100
AcDbLine
 62
7
  6
CONTINUOUS
 10
10.4676923427
 20
4.3939195021
 11
11.4076923427
 21
4.3939195021
  0
LINE
  5
20D
100
AcDbEntity
  8
0
100
AcDbLine
 62
7
  6
CONTINUOUS
 10
10.4376923427
 20
4.4239195021
 11
11.4376923427
 21
4.4239195021
  0
LINE
  5
20E
100
AcDbEntity
  8
0
100
AcDbLine
 62
7
  6
CONTINUOUS
 10
5.9376923427
 20
4.4439195021
 11
7.9376923427
 21
4.4439195021
  0
LINE
  5
20F
100
AcDbEntity
  8
0
100
AcDbLine
 62
7
  6
CONTINUOUS
 10
9.8126923427
 20
4.4439195021
 11
12.0626923427
 21
4.4439195021
  0
LINE
  5
210
100
AcDbEntity
  8
0
100
AcDbLine
 62
7
  6
CONTINUOUS
 10
13.9376923427
 20
4.4439195021
 11
15.9376923427
 21
4.4439195021
  0
LINE
  5
211
100
AcDbEntity
  8
0
100
AcDbLine
 62
7
  6
CONTINUOUS
 10
6.5626923427
 20
6.1639195021
 11
6.5626923427
 21
4.6539195021
  0
LINE
  5
212
100
AcDbEntity
  8
0
100
AcDbLine
 62
7
  6
CONTINUOUS
 10
6.5726923427
 20
4.6539195021
 11
6.5726923427
 21
4.6439195021
  0
LINE
  5
213
100
AcDbEntity
  8
0
100
AcDbLine
 62
9
  6
CONTINUOUS
 10
6.6446879699
 20
6.6669195021
 11
6.6446879699
 21
6.8949195021
  0
LINE
  5
214
100
AcDbEntity
  8
0
100
AcDbLine
 62
7
  6
CONTINUOUS
 10
6.6564423427
 20
6.6069195021
 11
6.6564423427
 21
6.2149195021
  0
LINE
  5
215
100
AcDbEntity
  8
0
100
AcDbLine
 62
9
  6
CONTINUOUS
 10
6.6729293552
 20
6.8949195021
 11
6.6729293552
 21
6.6669195021
  0
LINE
  5
216
100
AcDbEntity
  8
0
100
AcDbLine
 62
9
  6
CONTINUOUS
 10
15.9376923427
 20
4.6139195021
 11
13.9376923427
 21
4.6139195021
  0
LINE
  5
217
100
AcDbEntity
  8
0
100
AcDbLine
 62
9
  6
CONTINUOUS
 10
7.9376923427
 20
4.6139195021
 11
5.9376923427
 21
4.6139195021
  0
LINE
  5
218
100
AcDbEntity
  8
0
100
AcDbLine
 62
7
  6
CONTINUOUS
 10
15.9076923427
 20
4.6439195021
 11
13.9676923427
 21
4.6439195021
  0
LINE
  5
219
100
AcDbEntity
  8
0
100
AcDbLine
 62
7
  6
CONTINUOUS
 10
7.9076923427
 20
4.6439195021
 11
5.9676923427
 21
4.6439195021
  0
LINE
  5
21A
100
AcDbEntity
  8
0
100
AcDbLine
 62
7
  6
CONTINUOUS
 10
6.5626923427
 20
4.6539195021
 11
7.3126923427
 21
4.6539195021
  0
LINE
  5
21B
100
AcDbEntity
  8
0
100
AcDbLine
 62
7
  6
CONTINUOUS
 10
14.5626923427
 20
4.6539195021
 11
15.3126923427
 21
4.6539195021
  0
LINE
  5
21C
100
AcDbEntity
  8
0
100
AcDbLine
 62
9
  6
CONTINUOUS
 10
12.0626923427
 20
4.9389195021
 11
9.8126923427
 21
4.9389195021
  0
LINE
  5
21D
100
AcDbEntity
  8
0
100
AcDbLine
 62
7
  6
CONTINUOUS
 10
12.0326923427
 20
4.9689195021
 11
9.8426923427
 21
4.9689195021
  0
LINE
  5
21E
100
AcDbEntity
  8
0
100
AcDbLine
 62
7
  6
CONTINUOUS
 10
6.6826923427
 20
6.2149195021
 11
6.6826923427
 21
6.1939195021
  0
LINE
  5
21F
100
AcDbEntity
  8
0
100
AcDbLine
 62
9
  6
CONTINUOUS
 10
6.7094346759
 20
6.9549195021
 11
6.7094346759
 21
6.9249195021
  0
LINE
  5
220
100
AcDbEntity
  8
0
100
AcDbLine
 62
9
  6
CONTINUOUS
 10
6.8776923427
 20
7.0449195021
 11
6.8776923427
 21
7.0749195021
  0
LINE
  5
221
100
AcDbEntity
  8
0
100
AcDbLine
 62
9
  6
CONTINUOUS
 10
6.9076923427
 20
6.9249195021
 11
6.9076923427
 21
7.0149195021
  0
LINE
  5
222
100
AcDbEntity
  8
0
100
AcDbLine
 62
7
  6
CONTINUOUS
 10
6.9376923427
 20
7.0149195021
 11
6.9376923427
 21
6.9549195021
  0
LINE
  5
223
100
AcDbEntity
  8
0
100
AcDbLine
 62
7
  6
CONTINUOUS
 10
7.1926923427
 20
6.2149195021
 11
7.1926923427
 21
6.1939195021
  0
LINE
  5
224
100
AcDbEntity
  8
0
100
AcDbLine
 62
7
  6
CONTINUOUS
 10
7.2189423427
 20
6.8949195021
 11
7.2189423427
 21
6.2149195021
  0
LINE
  5
225
100
AcDbEntity
  8
0
100
AcDbLine
 62
7
  6
CONTINUOUS
 10
10.4376923427
 20
4.4239195021
 11
10.4676923427
 21
4.3939195021
  0
LINE
  5
226
100
AcDbEntity
  8
0
100
AcDbLine
 62
7
  6
CONTINUOUS
 10
7.3026923427
 20
4.6539195021
 11
7.3026923427
 21
4.6439195021
  0
LINE
  5
227
100
AcDbEntity
  8
0
100
AcDbLine
 62
7
  6
CONTINUOUS
 10
7.3126923427
 20
6.1639195021
 11
7.3126923427
 21
4.6539195021
  0
LINE
  5
228
100
AcDbEntity
  8
0
100
AcDbLine
 62
7
  6
CONTINUOUS
 10
7.9376923427
 20
4.6139195021
 11
7.9376923427
 21
4.4439195021
  0
LINE
  5
229
100
AcDbEntity
  8
0
100
AcDbLine
 62
9
  6
CONTINUOUS
 10
15.3126923427
 20
6.1639195021
 11
14.5626923427
 21
6.1639195021
  0
LINE
  5
22A
100
AcDbEntity
  8
0
100
AcDbLine
 62
9
  6
CONTINUOUS
 10
7.3126923427
 20
6.1639195021
 11
6.5626923427
 21
6.1639195021
  0
LINE
  5
22B
100
AcDbEntity
  8
0
100
AcDbLine
 62
7
  6
CONTINUOUS
 10
15.2826923427
 20
6.1939195021
 11
14.5926923427
 21
6.1939195021
  0
LINE
  5
22C
100
AcDbEntity
  8
0
100
AcDbLine
 62
7
  6
CONTINUOUS
 10
7.2826923427
 20
6.1939195021
 11
6.5926923427
 21
6.1939195021
  0
LINE
  5
22D
100
AcDbEntity
  8
0
100
AcDbLine
 62
7
  6
CONTINUOUS
 10
6.6564423427
 20
6.2149195021
 11
7.2189423427
 21
6.2149195021
  0
LINE
  5
22E
100
AcDbEntity
  8
0
100
AcDbLine
 62
7
  6
CONTINUOUS
 10
14.6564423427
 20
6.2149195021
 11
15.2189423427
 21
6.2149195021
  0
LINE
  5
22F
100
AcDbEntity
  8
0
100
AcDbLine
 62
9
  6
CONTINUOUS
 10
15.2189423427
 20
6.6069195021
 11
15.2159873505
 21
6.6069195021
  0
LINE
  5
230
100
AcDbEntity
  8
0
100
AcDbLine
 62
9
  6
CONTINUOUS
 10
6.659397335
 20
6.6069195021
 11
6.6564423427
 21
6.6069195021
  0
LINE
  5
231
100
AcDbEntity
  8
0
100
AcDbLine
 62
7
  6
CONTINUOUS
 10
17.4076923427
 20
6.6369195021
 11
15.2456721513
 21
6.6369195021
  0
LINE
  5
232
100
AcDbEntity
  8
0
100
AcDbLine
 62
7
  6
CONTINUOUS
 10
4.4676923427
 20
6.6369195021
 11
6.6297125342
 21
6.6369195021
  0
LINE
  5
233
100
AcDbEntity
  8
0
100
AcDbLine
 62
9
  6
CONTINUOUS
 10
4.4376923427
 20
6.6669195021
 11
6.6729293552
 21
6.6669195021
  0
LINE
  5
234
100
AcDbEntity
  8
0
100
AcDbLine
 62
9
  6
CONTINUOUS
 10
15.2024553302
 20
6.6669195021
 11
17.4376923427
 21
6.6669195021
  0
LINE
  5
235
100
AcDbEntity
  8
0
100
AcDbLine
 62
9
  6
CONTINUOUS
 10
15.2306967156
 20
6.8949195021
 11
14.65647678
 21
6.8949195021
  0
LINE
  5
236
100
AcDbEntity
  8
0
100
AcDbLine
 62
9
  6
CONTINUOUS
 10
7.2189423427
 20
6.8949195021
 11
6.6446879699
 21
6.8949195021
  0
LINE
  5
237
100
AcDbEntity
  8
0
100
AcDbLine
 62
7
  6
CONTINUOUS
 10
15.1659489697
 20
6.9249195021
 11
14.6864731067
 21
6.9249195021
  0
LINE
  5
238
100
AcDbEntity
  8
0
100
AcDbLine
 62
7
  6
CONTINUOUS
 10
7.1889423427
 20
6.9249195021
 11
6.7094356785
 21
6.9249195021
  0
LINE
  5
239
100
AcDbEntity
  8
0
100
AcDbLine
 62
9
  6
CONTINUOUS
 10
6.7094346759
 20
6.9549195021
 11
6.9376923427
 21
6.9549195021
  0
LINE
  5
23A
100
AcDbEntity
  8
0
100
AcDbLine
 62
9
  6
CONTINUOUS
 10
14.9376923427
 20
6.9549195021
 11
15.1659500096
 21
6.9549195021
  0
LINE
  5
23B
100
AcDbEntity
  8
0
100
AcDbLine
 62
9
  6
CONTINUOUS
 10
14.9676923427
 20
7.0149195021
 11
14.9376923427
 21
7.0149195021
  0
LINE
  5
23C
100
AcDbEntity
  8
0
100
AcDbLine
 62
9
  6
CONTINUOUS
 10
6.9376923427
 20
7.0149195021
 11
6.9076923427
 21
7.0149195021
  0
LINE
  5
23D
100
AcDbEntity
  8
0
100
AcDbLine
 62
9
  6
CONTINUOUS
 10
17.4376923427
 20
7.0449195021
 11
14.9976923427
 21
7.0449195021
  0
LINE
  5
23E
100
AcDbEntity
  8
0
100
AcDbLine
 62
9
  6
CONTINUOUS
 10
6.8776923427
 20
7.0449195021
 11
4.4376923427
 21
7.0449195021
  0
LINE
  5
23F
100
AcDbEntity
  8
0
100
AcDbLine
 62
7
  6
CONTINUOUS
 10
4.4676981975
 20
7.0749195021
 11
6.8776923427
 21
7.0749195021
  0
LINE
  5
240
100
AcDbEntity
  8
0
100
AcDbLine
 62
7
  6
CONTINUOUS
 10
14.9976923428
 20
7.0749195021
 11
17.4076864879
 21
7.0749195021
  0
LINE
  5
241
100
AcDbEntity
  8
0
100
AcDbLine
 62
7
  6
CONTINUOUS
 10
9.8126923427
 20
4.9389195021
 11
9.8126923427
 21
4.4439195021
  0
LINE
  5
242
100
AcDbEntity
  8
0
100
AcDbLine
 62
9
  6
CONTINUOUS
 10
11.6001923427
 20
7.8889195021
 11
10.2751923427
 21
7.8889195021
  0
LINE
  5
243
100
AcDbEntity
  8
0
100
AcDbLine
 62
7
  6
CONTINUOUS
 10
11.5701923427
 20
7.9189195021
 11
10.3051923427
 21
7.9189195021
  0
LINE
  5
244
100
AcDbEntity
  8
0
100
AcDbLine
 62
7
  6
CONTINUOUS
 10
10.2751923427
 20
7.8889195021
 11
10.2751923427
 21
4.9689195021
  0
LINE
  5
245
100
AcDbEntity
  8
0
100
AcDbLine
 62
7
  6
CONTINUOUS
 10
10.4376923427
 20
4.4239195021
 11
10.4376923427
 21
4.4439195021
  0
LINE
  5
246
100
AcDbEntity
  8
0
100
AcDbLine
 62
7
  6
CONTINUOUS
 10
10.5001923427
 20
7.9189195021
 11
10.5001923427
 21
13.7039195021
  0
LINE
  5
247
100
AcDbEntity
  8
0
100
AcDbLine
 62
7
  6
CONTINUOUS
 10
11.3751923427
 20
7.9189195021
 11
11.3751923427
 21
13.7039195021
  0
LINE
  5
248
100
AcDbEntity
  8
0
100
AcDbLine
 62
7
  6
CONTINUOUS
 10
11.4376923427
 20
4.4239195021
 11
11.4376923427
 21
4.4439195021
  0
LINE
  5
249
100
AcDbEntity
  8
0
100
AcDbLine
 62
7
  6
CONTINUOUS
 10
11.6001923427
 20
7.8889195021
 11
11.6001923427
 21
4.9689195021
  0
LINE
  5
24A
100
AcDbEntity
  8
0
100
AcDbLine
 62
7
  6
CONTINUOUS
 10
12.0626923427
 20
4.9389195021
 11
12.0626923427
 21
4.4439195021
  0
LINE
  5
24B
100
AcDbEntity
  8
0
100
AcDbLine
 62
7
  6
CONTINUOUS
 10
10.5001923427
 20
10.9439195021
 11
11.3751923427
 21
10.9439195021
  0
LINE
  5
24C
100
AcDbEntity
  8
0
100
AcDbLine
 62
7
  6
CONTINUOUS
 10
11.3751923427
 20
11.7539195021
 11
10.5001923427
 21
11.7539195021
  0
LINE
  5
24D
100
AcDbEntity
  8
0
100
AcDbLine
 62
7
  6
CONTINUOUS
 10
13.9376923427
 20
4.6139195021
 11
13.9376923427
 21
4.4439195021
  0
LINE
  5
24E
100
AcDbEntity
  8
0
100
AcDbLine
 62
9
  6
CONTINUOUS
 10
11.3751923427
 20
12.2039195021
 11
10.5001923427
 21
12.2039195021
  0
LINE
  5
24F
100
AcDbEntity
  8
0
100
AcDbLine
 62
7
  6
CONTINUOUS
 10
14.5626923427
 20
6.1639195021
 11
14.5626923427
 21
4.6539195021
  0
LINE
  5
250
100
AcDbEntity
  8
0
100
AcDbLine
 62
7
  6
CONTINUOUS
 10
14.5726923427
 20
4.6539195021
 11
14.5726923427
 21
4.6439195021
  0
LINE
  5
251
100
AcDbEntity
  8
0
100
AcDbLine
 62
7
  6
CONTINUOUS
 10
14.6564423427
 20
6.8949195021
 11
14.6564423427
 21
6.2149195021
  0
LINE
  5
252
100
AcDbEntity
  8
0
100
AcDbLine
 62
7
  6
CONTINUOUS
 10
14.6826923427
 20
6.2149195021
 11
14.6826923427
 21
6.1939195021
  0
LINE
  5
253
100
AcDbEntity
  8
0
100
AcDbLine
 62
7
  6
CONTINUOUS
 10
11.4376923427
 20
4.4239195021
 11
11.4076923427
 21
4.3939195021
  0
LINE
  5
254
100
AcDbEntity
  8
0
100
AcDbLine
 62
7
  6
CONTINUOUS
 10
14.9376923427
 20
6.9549195021
 11
14.9376923427
 21
7.0149195021
  0
LINE
  5
255
100
AcDbEntity
  8
0
100
AcDbLine
 62
9
  6
CONTINUOUS
 10
14.9676923427
 20
7.0149195021
 11
14.9676923427
 21
6.9249195021
  0
LINE
  5
256
100
AcDbEntity
  8
0
100
AcDbLine
 62
9
  6
CONTINUOUS
 10
14.9976923427
 20
7.0749195021
 11
14.9976923427
 21
7.0449195021
  0
LINE
  5
257
100
AcDbEntity
  8
0
100
AcDbLine
 62
9
  6
CONTINUOUS
 10
15.1659500096
 20
6.9249195021
 11
15.1659500096
 21
6.9549195021
  0
LINE
  5
258
100
AcDbEntity
  8
0
100
AcDbLine
 62
7
  6
CONTINUOUS
 10
15.1926923427
 20
6.2149195021
 11
15.1926923427
 21
6.1939195021
  0
LINE
  5
259
100
AcDbEntity
  8
0
100
AcDbLine
 62
9
  6
CONTINUOUS
 10
15.2024553302
 20
6.6669195021
 11
15.2024553302
 21
6.8949195021
  0
LINE
  5
25A
100
AcDbEntity
  8
0
100
AcDbLine
 62
7
  6
CONTINUOUS
 10
15.2189423427
 20
6.6069195021
 11
15.2189423427
 21
6.2149195021
  0
LINE
  5
25B
100
AcDbEntity
  8
0
100
AcDbLine
 62
9
  6
CONTINUOUS
 10
15.2306967156
 20
6.8949195021
 11
15.2306967156
 21
6.6669195021
  0
LINE
  5
25C
100
AcDbEntity
  8
0
100
AcDbLine
 62
7
  6
CONTINUOUS
 10
15.3026923427
 20
4.6539195021
 11
15.3026923427
 21
4.6439195021
  0
LINE
  5
25D
100
AcDbEntity
  8
0
100
AcDbLine
 62
7
  6
CONTINUOUS
 10
15.3126923427
 20
6.1639195021
 11
15.3126923427
 21
4.6539195021
  0
LINE
  5
25E
100
AcDbEntity
  8
0
100
AcDbLine
 62
7
  6
CONTINUOUS
 10
15.9376923427
 20
4.6139195021
 11
15.9376923427
 21
4.4439195021
  0
LINE
  5
25F
100
AcDbEntity
  8
0
100
AcDbLine
 62
9
  6
CONTINUOUS
 10
17.3626923427
 20
6.6369195021
 11
17.3626923427
 21
7.0749195021
  0
LINE
  5
260
100
AcDbEntity
  8
0
100
AcDbLine
 62
7
  6
CONTINUOUS
 10
17.4376923427
 20
7.0449195021
 11
17.4376923427
 21
6.6669195021
  0
ARC
  5
261
100
AcDbEntity
  8
0
100
AcDbCircle
 62
7
  6
CONTINUOUS
 10
10.9376923427
 20
13.7039195021
 40
0.4375
100
AcDbArc
 50
0.0
 51
180.0
  0
ARC
  5
262
100
AcDbEntity
  8
0
100
AcDbCircle
 62
7
  6
CONTINUOUS
 10
6.8776923427
 20
7.0149195021
 40
0.06
100
AcDbArc
 50
0.0
 51
90.0000000297
  0
ARC
  5
263
100
AcDbEntity
  8
0
100
AcDbCircle
 62
7
  6
CONTINUOUS
 10
14.9976923427
 20
7.0149195021
 40
0.06
100
AcDbArc
 50
89.9999999703
 51
180.0
  0
ARC
  5
264
100
AcDbEntity
  8
0
100
AcDbCircle
 62
7
  6
CONTINUOUS
 10
15.9076923427
 20
4.6139195021
 40
0.03
100
AcDbArc
 50
0.0
 51
90.0
  0
ARC
  5
265
100
AcDbEntity
  8
0
100
AcDbCircle
 62
7
  6
CONTINUOUS
 10
13.9676923427
 20
4.6139195021
 40
0.03
100
AcDbArc
 50
90.0
 51
180.0
  0
ARC
  5
266
100
AcDbEntity
  8
0
100
AcDbCircle
 62
7
  6
CONTINUOUS
 10
5.9676923427
 20
4.6139195021
 40
0.03
100
AcDbArc
 50
90.0
 51
180.0
  0
ARC
  5
267
100
AcDbEntity
  8
0
100
AcDbCircle
 62
7
  6
CONTINUOUS
 10
7.9076923427
 20
4.6139195021
 40
0.03
100
AcDbArc
 50
0.0
 51
90.0
  0
ARC
  5
268
100
AcDbEntity
  8
0
100
AcDbCircle
 62
7
  6
CONTINUOUS
 10
14.5926923427
 20
6.1639195021
 40
0.03
100
AcDbArc
 50
90.0
 51
180.0
  0
ARC
  5
269
100
AcDbEntity
  8
0
100
AcDbCircle
 62
7
  6
CONTINUOUS
 10
15.2826923427
 20
6.1639195021
 40
0.03
100
AcDbArc
 50
0.0
 51
90.0
  0
ARC
  5
26A
100
AcDbEntity
  8
0
100
AcDbCircle
 62
7
  6
CONTINUOUS
 10
7.2826923427
 20
6.1639195021
 40
0.03
100
AcDbArc
 50
0.0
 51
90.0
  0
ARC
  5
26B
100
AcDbEntity
  8
0
100
AcDbCircle
 62
7
  6
CONTINUOUS
 10
6.5926923427
 20
6.1639195021
 40
0.03
100
AcDbArc
 50
90.0
 51
180.0
  0
ARC
  5
26C
100
AcDbEntity
  8
0
100
AcDbCircle
 62
7
  6
CONTINUOUS
 10
12.0326923427
 20
4.9389195021
 40
0.03
100
AcDbArc
 50
0.0
 51
90.0
  0
ARC
  5
26D
100
AcDbEntity
  8
0
100
AcDbCircle
 62
7
  6
CONTINUOUS
 10
9.8426923427
 20
4.9389195021
 40
0.03
100
AcDbArc
 50
90.0
 51
180.0
  0
ARC
  5
26E
100
AcDbEntity
  8
0
100
AcDbCircle
 62
7
  6
CONTINUOUS
 10
6.9676923419
 20
6.9549195021
 40
0.03
100
AcDbArc
 50
180.0
 51
270.0000014277
  0
ARC
  5
26F
100
AcDbEntity
  8
0
100
AcDbCircle
 62
7
  6
CONTINUOUS
 10
4.4676923427
 20
6.6669195021
 40
0.03
100
AcDbArc
 50
180.0
 51
270.0
  0
ARC
  5
270
100
AcDbEntity
  8
0
100
AcDbCircle
 62
7
  6
CONTINUOUS
 10
4.4676923427
 20
7.0449195021
 40
0.03
100
AcDbArc
 50
90.0
 51
180.0
  0
ARC
  5
271
100
AcDbEntity
  8
0
100
AcDbCircle
 62
7
  6
CONTINUOUS
 10
7.1889423427
 20
6.8949195021
 40
0.03
100
AcDbArc
 50
0.0
 51
90.0
  0
ARC
  5
272
100
AcDbEntity
  8
0
100
AcDbCircle
 62
7
  6
CONTINUOUS
 10
6.6264423428
 20
6.6069195021
 40
0.03
100
AcDbArc
 50
0.0
 51
83.8058472118
  0
ARC
  5
273
100
AcDbEntity
  8
0
100
AcDbCircle
 62
9
  6
CONTINUOUS
 10
6.8776923427
 20
7.0149195021
 40
0.03
100
AcDbArc
 50
0.0
 51
90.0
  0
ARC
  5
274
100
AcDbEntity
  8
0
100
AcDbCircle
 62
7
  6
CONTINUOUS
 10
17.4076923427
 20
6.6669195021
 40
0.03
100
AcDbArc
 50
270.0
 51
360.0
  0
ARC
  5
275
100
AcDbEntity
  8
0
100
AcDbCircle
 62
7
  6
CONTINUOUS
 10
14.9076923436
 20
6.9549195021
 40
0.03
100
AcDbArc
 50
269.9999985723
 51
360.0
  0
ARC
  5
276
100
AcDbEntity
  8
0
100
AcDbCircle
 62
7
  6
CONTINUOUS
 10
17.4076923427
 20
7.0449195021
 40
0.03
100
AcDbArc
 50
0.0
 51
90.0
  0
ARC
  5
277
100
AcDbEntity
  8
0
100
AcDbCircle
 62
7
  6
CONTINUOUS
 10
14.6864423427
 20
6.8949195021
 40
0.03
100
AcDbArc
 50
90.0
 51
180.0
  0
ARC
  5
278
100
AcDbEntity
  8
0
100
AcDbCircle
 62
7
  6
CONTINUOUS
 10
15.2489423427
 20
6.6069195021
 40
0.03
100
AcDbArc
 50
96.1941527885
 51
180.0
  0
ARC
  5
279
100
AcDbEntity
  8
0
100
AcDbCircle
 62
9
  6
CONTINUOUS
 10
14.9976923427
 20
7.0149195021
 40
0.03
100
AcDbArc
 50
90.0
 51
180.0
  0
ARC
  5
27A
100
AcDbEntity
  8
0
100
AcDbCircle
 62
7
  6
CONTINUOUS
 10
11.5701923427
 20
7.8889195021
 40
0.03
100
AcDbArc
 50
0.0
 51
90.0
  0
ARC
  5
27B
100
AcDbEntity
  8
0
100
AcDbCircle
 62
7
  6
CONTINUOUS
 10
10.3051923427
 20
7.8889195021
 40
0.03
100
AcDbArc
 50
90.0
 51
180.0
  0
SPLINE
  5
27C
100
AcDbEntity
  8
0
100
AcDbSpline
 62
9
  6
CONTINUOUS
 70
0
 71
3
 72
19
 73
15
 74
0
 42
0.0000001
 43
0.0000001
 44
0.0000000001
 40
0.0
 40
0.0
 40
0.0
 40
0.0
 40
0.1653670464
 40
0.3273456603
 40
0.4817232069
 40
0.6245717772
 40
0.6903292827
 40
0.751545469
 40
0.8076705622
 40
0.8581675066
 40
0.90259727
 40
0.9408291159
 40
0.9730489667
 40
1.0
 40
1.0
 40
1.0
 40
1.0
 10
6.6446881818
 20
6.6669195021
 30
0.0
 10
6.6446880377
 20
6.6649705532
 30
0.0
 10
6.6444071923
 20
6.6611082353
 30
0.0
 10
6.643247127
 20
6.655534184
 30
0.0
 10
6.641444648
 20
6.6504154341
 30
0.0
 10
6.6395357725
 20
6.6465739694
 30
0.0
 10
6.6378561343
 20
6.6438715645
 30
0.0
 10
6.6366001791
 20
6.6421147733
 30
0.0
 10
6.6353399974
 20
6.6405878191
 30
0.0
 10
6.6341014943
 20
6.6393060219
 30
0.0
 10
6.6329082483
 20
6.6382824679
 30
0.0
 10
6.6317782406
 20
6.637528308
 30
0.0
 10
6.6307276037
 20
6.6370514494
 30
0.0
 10
6.6300303695
 20
6.6369196047
 30
0.0
 10
6.6297127356
 20
6.6369195021
 30
0.0
  0
SPLINE
  5
27D
100
AcDbEntity
  8
0
100
AcDbSpline
 62
9
  6
CONTINUOUS
 70
0
 71
3
 72
20
 73
16
 74
0
 42
0.0000001
 43
0.0000001
 44
0.0000000001
 40
0.0
 40
0.0
 40
0.0
 40
0.0
 40
0.1248841859
 40
0.1874576049
 40
0.2499970457
 40
0.3125004438
 40
0.3750045866
 40
0.4999279127
 40
0.5624640256
 40
0.6249926884
 40
0.6875058822
 40
0.7500290012
 40
0.812573868
 40
0.8751557752
 40
1.0
 40
1.0
 40
1.0
 40
1.0
 10
6.7094346759
 20
6.9549195021
 30
0.0
 10
6.705353048
 20
6.9549190761
 30
0.0
 10
6.6992090278
 20
6.9543952201
 30
0.0
 10
6.6912189598
 20
6.9526519734
 30
0.0
 10
6.6853593554
 20
6.9508155345
 30
0.0
 10
6.6796919773
 20
6.9484563921
 30
0.0
 10
6.6724679547
 20
6.9446244325
 30
0.0
 10
6.6658201096
 20
6.9397710552
 30
0.0
 10
6.6599967784
 20
6.9340249414
 30
0.0
 10
6.6560807004
 20
6.9292935854
 30
0.0
 10
6.6526704585
 20
6.9241861485
 30
0.0
 10
6.6498173656
 20
6.9187470651
 30
0.0
 10
6.6475519179
 20
6.9130342601
 30
0.0
 10
6.6453657447
 20
6.9051515432
 30
0.0
 10
6.644688382
 20
6.8989998239
 30
0.0
 10
6.6446879699
 20
6.8949195021
 30
0.0
  0
SPLINE
  5
27E
100
AcDbEntity
  8
0
100
AcDbSpline
 62
9
  6
CONTINUOUS
 70
0
 71
3
 72
25
 73
21
 74
0
 42
0.0000001
 43
0.0000001
 44
0.0000000001
 40
0.0
 40
0.0
 40
0.0
 40
0.0
 40
0.1799560269
 40
0.2683836645
 40
0.3547742499
 40
0.5189396716
 40
0.5954543043
 40
0.6673346931
 40
0.7338817209
 40
0.7944002772
 40
0.848202749
 40
0.8946296351
 40
0.9148945847
 40
0.9331052724
 40
0.9492106829
 40
0.9631851066
 40
0.9750664671
 40
0.9849670565
 40
0.9931223177
 40
1.0
 40
1.0
 40
1.0
 40
1.0
 10
6.6729293552
 20
6.6669195022
 30
0.0
 10
6.6729292692
 20
6.6631522825
 30
0.0
 10
6.6727575714
 20
6.657531943
 30
0.0
 10
6.672191829
 20
6.6501257476
 30
0.0
 10
6.6714314398
 20
6.6430694199
 30
0.0
 10
6.6703933432
 20
6.6362963327
 30
0.0
 10
6.6690913841
 20
6.6298830861
 30
0.0
 10
6.6680535271
 20
6.6255038881
 30
0.0
 10
6.6669526014
 20
6.6214863607
 30
0.0
 10
6.6658136461
 20
6.6178742824
 30
0.0
 10
6.6646626275
 20
6.6147109757
 30
0.0
 10
6.6636755364
 20
6.6123876363
 30
0.0
 10
6.6628896253
 20
6.610792973
 30
0.0
 10
6.6623395365
 20
6.6097909823
 30
0.0
 10
6.6618048668
 20
6.6089322705
 30
0.0
 10
6.6612879197
 20
6.6082208629
 30
0.0
 10
6.6607910297
 20
6.6076590088
 30
0.0
 10
6.6603144357
 20
6.607247877
 30
0.0
 10
6.659856578
 20
6.6069879764
 30
0.0
 10
6.6595413131
 20
6.6069196102
 30
0.0
 10
6.659397335
 20
6.6069195021
 30
0.0
  0
SPLINE
  5
27F
100
AcDbEntity
  8
0
100
AcDbSpline
 62
9
  6
CONTINUOUS
 70
0
 71
3
 72
17
 73
13
 74
0
 42
0.0000001
 43
0.0000001
 44
0.0000000001
 40
0.0
 40
0.0
 40
0.0
 40
0.0
 40
0.1172089082
 40
0.2411044032
 40
0.3052138369
 40
0.3703144626
 40
0.5016890008
 40
0.632775984
 40
0.6975404462
 40
0.7612089743
 40
0.8840010684
 40
1.0
 40
1.0
 40
1.0
 40
1.0
 10
6.659397335
 20
6.6069195021
 30
0.0
 10
6.659397335
 20
6.6087484217
 30
0.0
 10
6.6590511115
 20
6.6125177283
 30
0.0
 10
6.6577469849
 20
6.6171307157
 30
0.0
 10
6.6561124666
 20
6.6207329105
 30
0.0
 10
6.6540731595
 20
6.6242566951
 30
0.0
 10
6.6508629212
 20
6.628284538
 30
0.0
 10
6.6468736855
 20
6.6315349356
 30
0.0
 10
6.6433831759
 20
6.6335985067
 30
0.0
 10
6.6398208719
 20
6.6352498454
 30
0.0
 10
6.6352560259
 20
6.6365690428
 30
0.0
 10
6.6315225734
 20
6.6369195021
 30
0.0
 10
6.6297125342
 20
6.6369195021
 30
0.0
  0
SPLINE
  5
280
100
AcDbEntity
  8
0
100
AcDbSpline
 62
9
  6
CONTINUOUS
 70
0
 71
3
 72
17
 73
13
 74
0
 42
0.0000001
 43
0.0000001
 44
0.0000000001
 40
0.0
 40
0.0
 40
0.0
 40
0.0
 40
0.1179988743
 40
0.2370630078
 40
0.3577409767
 40
0.4190231125
 40
0.4809172049
 40
0.6065095325
 40
0.7350167574
 40
0.8003692361
 40
0.8663772488
 40
1.0
 40
1.0
 40
1.0
 40
1.0
 10
6.6729292267
 20
6.8949195022
 30
0.0
 10
6.6729295116
 20
6.896983835
 30
0.0
 10
6.6734422297
 20
6.9011461959
 30
0.0
 10
6.6756415911
 20
6.9070623611
 30
0.0
 10
6.6785887896
 20
6.9114845176
 30
0.0
 10
6.6814897796
 20
6.9146204892
 30
0.0
 10
6.6847621555
 20
6.9175005634
 30
0.0
 10
6.6894465383
 20
6.9205041904
 30
0.0
 10
6.6946443909
 20
6.9226351536
 30
0.0
 10
6.699037357
 20
6.9238225951
 30
0.0
 10
6.703598145
 20
6.9246731011
 30
0.0
 10
6.7070984302
 20
6.924919345
 30
0.0
 10
6.7094360952
 20
6.9249195023
 30
0.0
  0
SPLINE
  5
281
100
AcDbEntity
  8
0
100
AcDbSpline
 62
9
  6
CONTINUOUS
 70
0
 71
3
 72
19
 73
15
 74
0
 42
0.0000001
 43
0.0000001
 44
0.0000000001
 40
0.0
 40
0.0
 40
0.0
 40
0.0
 40
0.1248632234
 40
0.1874537538
 40
0.250002997
 40
0.312529207
 40
0.3750460523
 40
0.4375777465
 40
0.5001159313
 40
0.5626553579
 40
0.6251915123
 40
0.7500695278
 40
0.8750834864
 40
1.0
 40
1.0
 40
1.0
 40
1.0
 10
15.2306967156
 20
6.8949195021
 30
0.0
 10
15.2306962846
 20
6.8989999874
 30
0.0
 10
15.2300185997
 20
6.9051518829
 30
0.0
 10
15.2278325552
 20
6.9130347601
 30
0.0
 10
15.2255670681
 20
6.9187473943
 30
0.0
 10
15.2227141505
 20
6.9241861461
 30
0.0
 10
15.2193042957
 20
6.9292935697
 30
0.0
 10
15.2153891462
 20
6.9340244408
 30
0.0
 10
15.2110173239
 20
6.9383373416
 30
0.0
 10
15.2062401776
 20
6.9421966537
 30
0.0
 10
15.1994136306
 20
6.9467012371
 30
0.0
 10
15.1901181468
 20
6.9510815404
 30
0.0
 10
15.1782176234
 20
6.9542239382
 30
0.0
 10
15.1700322364
 20
6.9549190575
 30
0.0
 10
15.1659500096
 20
6.9549195021
 30
0.0
  0
SPLINE
  5
282
100
AcDbEntity
  8
0
100
AcDbSpline
 62
9
  6
CONTINUOUS
 70
0
 71
3
 72
17
 73
13
 74
0
 42
0.0000001
 43
0.0000001
 44
0.0000000001
 40
0.0
 40
0.0
 40
0.0
 40
0.0
 40
0.1336324811
 40
0.1996464747
 40
0.2650028225
 40
0.3935079487
 40
0.5190936764
 40
0.5809858057
 40
0.6422667737
 40
0.762942249
 40
0.8820019884
 40
1.0
 40
1.0
 40
1.0
 40
1.0
 10
15.1659485373
 20
6.9249195023
 30
0.0
 10
15.1682863751
 20
6.9249193379
 30
0.0
 10
15.1717869367
 20
6.9246730211
 30
0.0
 10
15.1763480616
 20
6.9238224285
 30
0.0
 10
15.1807411609
 20
6.92263494
 30
0.0
 10
15.1859389179
 20
6.9205039205
 30
0.0
 10
15.1906230108
 20
6.9175001762
 30
0.0
 10
15.1938951786
 20
6.9146201203
 30
0.0
 10
15.1967960591
 20
6.911484178
 30
0.0
 10
15.1997432041
 20
6.9070621549
 30
0.0
 10
15.201942515
 20
6.9011460993
 30
0.0
 10
15.2024551612
 20
6.8969838223
 30
0.0
 10
15.2024554585
 20
6.8949195022
 30
0.0
  0
SPLINE
  5
283
100
AcDbEntity
  8
0
100
AcDbSpline
 62
9
  6
CONTINUOUS
 70
0
 71
3
 72
26
 73
22
 74
0
 42
0.0000001
 43
0.0000001
 44
0.0000000001
 40
0.0
 40
0.0
 40
0.0
 40
0.0
 40
0.0068779829
 40
0.0150345048
 40
0.0249367234
 40
0.0368191454
 40
0.0507930816
 40
0.0668967138
 40
0.0851048666
 40
0.1053665105
 40
0.1517843639
 40
0.2055742301
 40
0.266077855
 40
0.3326100904
 40
0.4044766536
 40
0.4809776465
 40
0.5614187034
 40
0.6451502613
 40
0.7315575923
 40
0.8200150925
 40
1.0
 40
1.0
 40
1.0
 40
1.0
 10
15.2159873505
 20
6.6069195021
 30
0.0
 10
15.2158433634
 20
6.6069196057
 30
0.0
 10
15.2155280616
 20
6.6069880243
 30
0.0
 10
15.215070184
 20
6.6072480401
 30
0.0
 10
15.214593562
 20
6.6076592818
 30
0.0
 10
15.2140966573
 20
6.6082212012
 30
0.0
 10
15.2135797078
 20
6.6089325954
 30
0.0
 10
15.2130450727
 20
6.609791233
 30
0.0
 10
15.2124950464
 20
6.6107931006
 30
0.0
 10
15.2117092493
 20
6.6123875101
 30
0.0
 10
15.210722312
 20
6.6147103974
 30
0.0
 10
15.209571427
 20
6.6178730048
 30
0.0
 10
15.2084325863
 20
6.6214842634
 30
0.0
 10
15.2073318085
 20
6.6255009754
 30
0.0
 10
15.2062938354
 20
6.6298792825
 30
0.0
 10
15.2053403367
 20
6.6345742423
 30
0.0
 10
15.2044939924
 20
6.6395418756
 30
0.0
 10
15.2037732381
 20
6.6447386971
 30
0.0
 10
15.2031933813
 20
6.6501220854
 30
0.0
 10
15.202627989
 20
6.6575299246
 30
0.0
 10
15.2024554226
 20
6.663151607
 30
0.0
 10
15.2024553302
 20
6.6669195022
 30
0.0
  0
SPLINE
  5
284
100
AcDbEntity
  8
0
100
AcDbSpline
 62
9
  6
CONTINUOUS
 70
0
 71
3
 72
17
 73
13
 74
0
 42
0.0000001
 43
0.0000001
 44
0.0000000001
 40
0.0
 40
0.0
 40
0.0
 40
0.0
 40
0.1159989307
 40
0.2387910241
 40
0.3024595519
 40
0.3672240139
 40
0.4983109969
 40
0.6296855353
 40
0.6947861612
 40
0.7588955951
 40
0.8827910909
 40
1.0
 40
1.0
 40
1.0
 40
1.0
 10
15.2456721513
 20
6.6369195021
 30
0.0
 10
15.2438621121
 20
6.6369195021
 30
0.0
 10
15.2401286597
 20
6.6365690428
 30
0.0
 10
15.2355638137
 20
6.6352498454
 30
0.0
 10
15.2320015097
 20
6.6335985067
 30
0.0
 10
15.228511
 20
6.6315349357
 30
0.0
 10
15.2245217644
 20
6.6282845381
 30
0.0
 10
15.221311526
 20
6.6242566951
 30
0.0
 10
15.2192722189
 20
6.6207329106
 30
0.0
 10
15.2176377006
 20
6.6171307157
 30
0.0
 10
15.216333574
 20
6.6125177284
 30
0.0
 10
15.2159873505
 20
6.6087484217
 30
0.0
 10
15.2159873505
 20
6.6069195021
 30
0.0
  0
SPLINE
  5
285
100
AcDbEntity
  8
0
100
AcDbSpline
 62
9
  6
CONTINUOUS
 70
0
 71
3
 72
19
 73
15
 74
0
 42
0.0000001
 43
0.0000001
 44
0.0000000001
 40
0.0
 40
0.0
 40
0.0
 40
0.0
 40
0.0269504261
 40
0.0591702759
 40
0.0974024258
 40
0.1418324827
 40
0.1923294914
 40
0.248454492
 40
0.3096705686
 40
0.375428082
 40
0.5182771033
 40
0.6726544627
 40
0.8346316729
 40
1.0
 40
1.0
 40
1.0
 40
1.0
 10
15.2456719137
 20
6.6369195021
 30
0.0
 10
15.2453542869
 20
6.6369195999
 30
0.0
 10
15.2446570588
 20
6.6370514438
 30
0.0
 10
15.243606426
 20
6.6375283015
 30
0.0
 10
15.2424764101
 20
6.6382824619
 30
0.0
 10
15.2412831536
 20
6.639306016
 30
0.0
 10
15.2400446448
 20
6.6405878123
 30
0.0
 10
15.2387844629
 20
6.6421147647
 30
0.0
 10
15.2375285106
 20
6.6438715554
 30
0.0
 10
15.2358488753
 20
6.6465739674
 30
0.0
 10
15.2339400058
 20
6.6504154388
 30
0.0
 10
15.2321375243
 20
6.6555341733
 30
0.0
 10
15.2309774526
 20
6.661108221
 30
0.0
 10
15.2306966159
 20
6.664970538
 30
0.0
 10
15.2306964656
 20
6.6669195021
 30
0.0
  0
ENDSEC
  0
SECTION
  2
OBJECTS
  0
DICTIONARY
  5
C
100
AcDbDictionary
280
0
281
1
  3
ACAD_GROUP
350
D
  3
ACAD_MLINESTYLE
350
17
  3
ACAD_LAYOUT
350
1A
  3
ACAD_PLOTSETTINGS
350
19
  3
ACAD_PLOTSTYLENAME
350
E
  0
DICTIONARY
  5
D
102
{ACAD_REACTORS
330
C
102
}
100
AcDbDictionary
280
0
281
1
  0
ACDBDICTIONARYWDFLT
  5
E
102
{ACAD_REACTORS
330
C
102
}
100
AcDbDictionary
281
1
  3
Normal
350
F
100
AcDbDictionaryWithDefault
340
F
  0
DICTIONARY
  5
17
102
{ACAD_REACTORS
330
C
102
}
100
AcDbDictionary
280
0
281
1
  3
Standard
350
18
  0
DICTIONARY
  5
19
102
{ACAD_REACTORS
330
C
102
}
100
AcDbDictionary
281
1
  0
DICTIONARY
  5
1A
102
{ACAD_REACTORS
330
C
102
}
100
AcDbDictionary
281
1
  3
Model
350
286
  3
Layout1
350
287
  0
ACDBPLACEHOLDER
  5
F
102
{ACAD_REACTORS
330
E
102
}
  0
MLINESTYLE
  5
18
102
{ACAD_REACTORS
330
17
102
}
100
AcDbMlineStyle
  2
STANDARD
 70
0
  3

 62
256
 51
90.0
 52
90.0
 71
2
 49
0.5
 62
256
  6
BYLAYER
 49
-0.5
 62
256
  6
BYLAYER
  0
LAYOUT
  5
286
102
{ACAD_REACTORS
330
1A
102
}
100
AcDbPlotSettings
  1

  2
none_device
  4
ANSI_C_(22.00_x_17.00_Inches)
  6

 40
0.0
 41
0.0
 42
0.0
 43
0.0
 44
558.8
 45
431.8
 46
0.0
 47
0.0
 48
0.0
 49
0.0
140
0.0
141
0.0
142
1.0
143
1.0
 70
1024
 72
0
 73
0
 74
0
  7

 75
0
147
1.0
148
0.0
149
0.0
100
AcDbLayout
  1
Model
 70
0
 71
0
 10
0.0
 20
0.0
 11
22.0
 21
17.0
 12
0.0
 22
0.0
 32
0.0
 14
0.0
 24
0.0
 34
0.0
 15
0.0
 25
0.0
 35
0.0
146
0.0
 13
0.0
 23
0.0
 33
0.0
 16
1.0
 26
0.0
 36
0.0
 17
0.0
 27
1.0
 37
0.0
 76
0
330
202
345
0
346
0
  0
LAYOUT
  5
287
102
{ACAD_REACTORS
330
1A
102
}
100
AcDbPlotSettings
  1

  2
none_device
  4
ANSI_C_(22.00_x_17.00_Inches)
  6

 40
0.0
 41
0.0
 42
0.0
 43
0.0
 44
558.8
 45
431.8
 46
0.0
 47
0.0
 48
0.0
 49
0.0
140
0.0
141
0.0
142
1.0
143
1.0
 70
0
 72
0
 73
0
 74
0
  7

 75
0
147
1.0
148
0.0
149
0.0
100
AcDbLayout
  1
Layout1
 70
0
 71
1
 10
0.0
 20
0.0
 11
22.0
 21
17.0
 12
0.0
 22
0.0
 32
0.0
 14
0.0
 24
0.0
 34
0.0
 15
0.0
 25
0.0
 35
0.0
146
0.0
 13
0.0
 23
0.0
 33
0.0
 16
1.0
 26
0.0
 36
0.0
 17
0.0
 27
1.0
 37
0.0
 76
0
330
203
345
0
346
0
  0
ENDSEC
  0
EOF
