999
DXF file: E:\BRASSTECH\JOE\EN-3XXX\EN-3934\Webdata\1\CAD\3-3326_RIGHT.dxf
999
Pro/ENGINEER 2018400 by Parametric Technology Corporation
  0
SECTION
  2
HEADER
  9
$ACADVER
  1
AC1018
  9
$DWGCODEPAGE
  3
ANSI_1252
  9
$EXTMAX
 10
22.0
 20
17.0
 30
0.0
  9
$EXTMIN
 10
0.0
 20
0.0
 30
0.0
  9
$LIMMIN
 10
0.0
 20
0.0
  9
$LIMMAX
 10
22.0
 20
17.0
  9
$VIEWCTR
 10
11.0
 20
8.5
  9
$VIEWSIZE
 40
17.0
  9
$CLAYER
  8
0
  9
$LTSCALE
 40
1.21
  9
$CELTYPE
  6
BYLAYER
  9
$DIMSCALE
 40
1.0
  9
$DIMASZ
 40
0.1
  9
$DIMEXO
 40
0.0625
  9
$DIMDLI
 40
0.836
  9
$DIMEXE
 40
0.125
  9
$DIMCEN
 40
0.198
  9
$DIMLFAC
 40
1.0
  9
$DIMBLK
  1
_FILLED
  9
$DIMALT
 70
1
  9
$DIMALTD
 70
2
  9
$DIMALTTD
 70
2
  9
$DIMALTF
 40
25.4
  9
$DIMTXT
 40
0.08
  9
$DIMTOL
 70
1
  9
$DIMLIM
 70
0
  9
$DIMTFAC
 40
1.0
  9
$DIMTP
 40
0.001
  9
$DIMTM
 40
0.001
  9
$DIMGAP
 40
0.09
  9
$DIMDSEP
 70
46
  9
$AUNITS
 70
0
  9
$PDMODE
 70
3
  9
$PDSIZE
 40
0.06
  9
$HANDSEED
  5
25F
  9
$TILEMODE
 70
1
  9
$MEASUREMENT
 70
0
  9
$INSUNITS
 70
1
  0
ENDSEC
  0
SECTION
  2
CLASSES
  0
CLASS
  1
ACDBDICTIONARYWDFLT
  2
AcDbDictionaryWithDefault
  3
AutoCAD 2000
 90
0
 91
1
280
0
281
0
  0
CLASS
  1
ACDBPLACEHOLDER
  2
AcDbPlaceHolder
  3
AutoCAD 2000
 90
0
 91
1
280
0
281
0
  0
CLASS
  1
LAYOUT
  2
AcDbLayout
  3
AutoCAD 2000
 90
0
 91
0
280
0
281
0
  0
ENDSEC
  0
SECTION
  2
TABLES
  0
TABLE
  2
VPORT
  5
8
100
AcDbSymbolTable
 70
2
  0
VPORT
  5
1F4
100
AcDbSymbolTableRecord
100
AcDbViewportTableRecord
  2
*ACTIVE
 70
0
 10
0.0
 20
0.0
 11
1.0
 21
1.0
 12
11.0
 22
8.5
 13
0.0
 23
0.0
 14
1.0
 24
1.0
 15
0.0
 25
0.0
 16
0.0
 26
0.0
 36
1.0
 17
0.0
 27
0.0
 37
0.0
 40
17.0
 41
1.2941176471
 42
50.0
 43
0.0
 44
0.0
 50
0.0
 51
0.0
 71
0
 72
100
 73
1
 74
1
 75
0
 76
0
 77
0
 78
0
  0
ENDTAB
  0
TABLE
  2
LTYPE
  5
5
100
AcDbSymbolTable
 70
6
  0
LTYPE
  5
14
100
AcDbSymbolTableRecord
100
AcDbLinetypeTableRecord
  2
BYBLOCK
 70
0
  3

 72
65
 73
0
 40
0.0
  0
LTYPE
  5
15
100
AcDbSymbolTableRecord
100
AcDbLinetypeTableRecord
  2
BYLAYER
 70
0
  3

 72
65
 73
0
 40
0.0
  0
LTYPE
  5
16
100
AcDbSymbolTableRecord
100
AcDbLinetypeTableRecord
  2
CONTINUOUS
 70
64
  3
Solid line
 72
65
 73
0
 40
0.0
  0
LTYPE
  5
1F5
100
AcDbSymbolTableRecord
100
AcDbLinetypeTableRecord
  2
CENTER
 70
64
  3
____ _ ____ _ ____ _ ____ _ ____ _ ____ _ ____
 72
65
 73
4
 40
0.6
 49
0.375
 74
0
 49
-0.075
 74
0
 49
0.075
 74
0
 49
-0.075
 74
0
  0
LTYPE
  5
1F6
100
AcDbSymbolTableRecord
100
AcDbLinetypeTableRecord
  2
HIDDEN
 70
64
  3
- - - - - - - - - - - - - - - - - - - -
 72
65
 73
2
 40
0.2
 49
0.1
 74
0
 49
-0.1
 74
0
  0
LTYPE
  5
1F7
100
AcDbSymbolTableRecord
100
AcDbLinetypeTableRecord
  2
PHANTOM
 70
64
  3
_____ _ _ _____ _ _ _____ _ _ _____
 72
65
 73
6
 40
0.8
 49
0.45
 74
0
 49
-0.05
 74
0
 49
0.1
 74
0
 49
-0.05
 74
0
 49
0.1
 74
0
 49
-0.05
 74
0
  0
LTYPE
  5
1F8
100
AcDbSymbolTableRecord
100
AcDbLinetypeTableRecord
  2
DOT
 70
64
  3
. . . . . . . . . . . . . . . . . . . .
 72
65
 73
2
 40
0.2
 49
0.1
 74
0
 49
-0.1
 74
0
  0
LTYPE
  5
1F9
100
AcDbSymbolTableRecord
100
AcDbLinetypeTableRecord
  2
DASHED
 70
64
  3
- - - - - - - - - - - - - - - - - - - -
 72
65
 73
2
 40
0.2
 49
0.1
 74
0
 49
-0.1
 74
0
  0
ENDTAB
  0
TABLE
  2
LAYER
  5
2
100
AcDbSymbolTable
 70
36
  0
LAYER
  5
10
100
AcDbSymbolTableRecord
100
AcDbLayerTableRecord
  2
0
 70
0
 62
7
  6
CONTINUOUS
370
-3
390
F
  0
LAYER
  5
1FA
100
AcDbSymbolTableRecord
100
AcDbLayerTableRecord
  2
DEFAULT_1
 70
0
 62
7
  6
CENTER
370
-3
390
F
  0
LAYER
  5
1FB
100
AcDbSymbolTableRecord
100
AcDbLayerTableRecord
  2
DEFAULT_2
 70
0
 62
8
  6
HIDDEN
370
-3
390
F
  0
LAYER
  5
1FC
100
AcDbSymbolTableRecord
100
AcDbLayerTableRecord
  2
DEFAULT_3
 70
0
 62
7
  6
PHANTOM
370
-3
390
F
  0
LAYER
  5
1FD
100
AcDbSymbolTableRecord
100
AcDbLayerTableRecord
  2
ALL_FEATURES
 70
0
 62
7
  6
CONTINUOUS
370
-3
390
F
  0
LAYER
  5
1FE
100
AcDbSymbolTableRecord
100
AcDbLayerTableRecord
  2
AXES_FEATURES
 70
0
 62
7
  6
CONTINUOUS
370
-3
390
F
  0
LAYER
  5
1FF
100
AcDbSymbolTableRecord
100
AcDbLayerTableRecord
  2
DIMENSIONS
 70
0
 62
7
  6
CONTINUOUS
370
-3
390
F
  0
ENDTAB
  0
TABLE
  2
STYLE
  5
3
100
AcDbSymbolTable
 70
1
  0
STYLE
  5
11
100
AcDbSymbolTableRecord
100
AcDbTextStyleTableRecord
  2
STANDARD
 70
0
 40
0.0
 41
0.8
 50
0.0
 71
0
 42
0.2
  3
txt
  4

  0
STYLE
  5
200
100
AcDbSymbolTableRecord
100
AcDbTextStyleTableRecord
  2
TEXTSTYLE_1
 70
0
 40
0.0
 41
0.8
 50
0.0
 71
0
 42
0.2
  3
gdt
  4

  0
ENDTAB
  0
TABLE
  2
VIEW
  5
6
100
AcDbSymbolTable
 70
0
  0
ENDTAB
  0
TABLE
  2
UCS
  5
7
100
AcDbSymbolTable
 70
0
  0
ENDTAB
  0
TABLE
  2
APPID
  5
9
100
AcDbSymbolTable
 70
1
  0
APPID
  5
201
100
AcDbSymbolTableRecord
100
AcDbRegAppTableRecord
  2
ACAD
 70
0
  0
ENDTAB
  0
TABLE
  2
BLOCK_RECORD
  5
1
100
AcDbSymbolTable
 70
0
  0
BLOCK_RECORD
  5
202
100
AcDbSymbolTableRecord
100
AcDbBlockTableRecord
  2
*Model_Space
  0
BLOCK_RECORD
  5
203
100
AcDbSymbolTableRecord
100
AcDbBlockTableRecord
  2
*Paper_Space
  0
BLOCK_RECORD
  5
204
100
AcDbSymbolTableRecord
100
AcDbBlockTableRecord
  2
_FILLED
  0
ENDTAB
  0
TABLE
  2
DIMSTYLE
  5
A
100
AcDbSymbolTable
 70
1
100
AcDbDimStyleTable
 71
0
  0
DIMSTYLE
105
205
100
AcDbSymbolTableRecord
100
AcDbDimStyleTableRecord
  2
STANDARD
 70
0
  3

  4

 40
1.0
 41
0.1
 42
0.0625
 43
0.38
 44
0.125
 45
0.0
 46
0.0
 47
0.001
 48
0.001
140
0.08
141
0.09
142
0.0
143
25.4
144
1.0
145
0.0
146
1.0
147
0.09
 71
1.0
 72
0.0
 73
1
 74
1
 75
0
 76
0
 77
0
 78
4
 79
1
170
1
171
2
172
0
173
0
174
0
175
0
176
0
177
0
178
0
270
2
179
3
271
3
272
3
273
2
274
2
275
0
280
0
281
0
282
0
283
1
284
4
285
0
286
0
287
3
288
0
340
11
278
46
341
204
342
204
343
204
344
204
  0
ENDTAB
  0
ENDSEC
  0
SECTION
  2
BLOCKS
  0
BLOCK
  5
20
100
AcDbEntity
  8
0
100
AcDbBlockBegin
  2
*Model_Space
 70
0
 10
0.0
 20
0.0
 30
0.0
  3
*Model_Space
  1

  0
ENDBLK
  5
21
100
AcDbEntity
  8
0
100
AcDbBlockEnd
  0
BLOCK
  5
1C
100
AcDbEntity
  8
0
100
AcDbBlockBegin
  2
*Paper_Space
 70
0
 10
0.0
 20
0.0
 30
0.0
  3
*Paper_Space
  1

  0
ENDBLK
  5
1D
100
AcDbEntity
  8
0
100
AcDbBlockEnd
  0
BLOCK
  5
206
100
AcDbEntity
  8
0
100
AcDbBlockBegin
  2
_FILLED
 70
64
 10
0.0
 20
0.0
  3
_FILLED
  1

  0
SOLID
  5
207
100
AcDbEntity
  8
0
  6
BYBLOCK
 62
0
100
AcDbTrace
 10
0.0
 20
0.0
 11
-1.0
 21
0.2
 12
-1.0
 22
-0.2
 13
-1.0
 23
-0.2
  0
ENDBLK
  5
208
100
AcDbEntity
  8
0
  6
BYBLOCK
 62
0
100
AcDbBlockEnd
  0
ENDSEC
  0
SECTION
  2
ENTITIES
  0
LINE
  5
209
100
AcDbEntity
  8
0
100
AcDbLine
 62
7
  6
CONTINUOUS
 10
5.8049223743
 20
10.686141804
 11
5.8049223743
 21
11.946141804
  0
LINE
  5
20A
100
AcDbEntity
  8
0
100
AcDbLine
 62
7
  6
CONTINUOUS
 10
14.0224223743
 20
4.136141804
 11
14.9624223743
 21
4.136141804
  0
LINE
  5
20B
100
AcDbEntity
  8
0
100
AcDbLine
 62
7
  6
CONTINUOUS
 10
13.9924223743
 20
4.166141804
 11
14.9924223743
 21
4.166141804
  0
LINE
  5
20C
100
AcDbEntity
  8
0
100
AcDbLine
 62
7
  6
CONTINUOUS
 10
13.3674317288
 20
4.186141804
 11
15.6174130199
 21
4.186141804
  0
LINE
  5
20D
100
AcDbEntity
  8
0
100
AcDbLine
 62
9
  6
CONTINUOUS
 10
15.4924223743
 20
4.356141804
 11
13.4924223743
 21
4.356141804
  0
LINE
  5
20E
100
AcDbEntity
  8
0
100
AcDbLine
 62
7
  6
CONTINUOUS
 10
15.4624143411
 20
4.386141804
 11
13.5224304075
 21
4.386141804
  0
LINE
  5
20F
100
AcDbEntity
  8
0
100
AcDbLine
 62
7
  6
CONTINUOUS
 10
14.1174227796
 20
4.396141804
 11
14.8674219691
 21
4.396141804
  0
LINE
  5
210
100
AcDbEntity
  8
0
100
AcDbLine
 62
9
  6
CONTINUOUS
 10
15.6174223743
 20
4.681141804
 11
14.8674223743
 21
4.681141804
  0
LINE
  5
211
100
AcDbEntity
  8
0
100
AcDbLine
 62
9
  6
CONTINUOUS
 10
14.1174223743
 20
4.681141804
 11
13.3674223743
 21
4.681141804
  0
LINE
  5
212
100
AcDbEntity
  8
0
100
AcDbLine
 62
7
  6
CONTINUOUS
 10
15.5874132544
 20
4.711141804
 11
14.8674223743
 21
4.711141804
  0
LINE
  5
213
100
AcDbEntity
  8
0
100
AcDbLine
 62
7
  6
CONTINUOUS
 10
14.1174223743
 20
4.711141804
 11
13.3974314943
 21
4.711141804
  0
LINE
  5
214
100
AcDbEntity
  8
0
100
AcDbLine
 62
7
  6
CONTINUOUS
 10
6.6799223743
 20
10.686141804
 11
6.6799223743
 21
11.946141804
  0
LINE
  5
215
100
AcDbEntity
  8
0
100
AcDbLine
 62
9
  6
CONTINUOUS
 10
7.7424223743
 20
13.883641804
 11
7.7424223743
 21
13.008641804
  0
LINE
  5
216
100
AcDbEntity
  8
0
100
AcDbLine
 62
9
  6
CONTINUOUS
 10
14.8674223743
 20
5.906141804
 11
14.1174223743
 21
5.906141804
  0
LINE
  5
217
100
AcDbEntity
  8
0
100
AcDbLine
 62
7
  6
CONTINUOUS
 10
14.837421814
 20
5.936141804
 11
14.1474229346
 21
5.936141804
  0
LINE
  5
218
100
AcDbEntity
  8
0
100
AcDbLine
 62
7
  6
CONTINUOUS
 10
14.2111796797
 20
5.957141804
 11
14.773665069
 21
5.957141804
  0
LINE
  5
219
100
AcDbEntity
  8
0
100
AcDbLine
 62
9
  6
CONTINUOUS
 10
14.5330850249
 20
6.349141804
 11
14.4517597237
 21
6.349141804
  0
LINE
  5
21A
100
AcDbEntity
  8
0
100
AcDbLine
 62
7
  6
CONTINUOUS
 10
14.4474223743
 20
6.379141804
 11
14.5374223743
 21
6.379141804
  0
LINE
  5
21B
100
AcDbEntity
  8
0
100
AcDbLine
 62
9
  6
CONTINUOUS
 10
14.3975428563
 20
6.409141804
 11
14.5873018924
 21
6.409141804
  0
LINE
  5
21C
100
AcDbEntity
  8
0
100
AcDbLine
 62
9
  6
CONTINUOUS
 10
14.7736723743
 20
6.637141804
 11
14.5674223743
 21
6.637141804
  0
LINE
  5
21D
100
AcDbEntity
  8
0
100
AcDbLine
 62
9
  6
CONTINUOUS
 10
14.4174223743
 20
6.637141804
 11
14.2111723743
 21
6.637141804
  0
LINE
  5
21E
100
AcDbEntity
  8
0
100
AcDbLine
 62
7
  6
CONTINUOUS
 10
14.7436696579
 20
6.667141804
 11
14.5974240901
 21
6.667141804
  0
LINE
  5
21F
100
AcDbEntity
  8
0
100
AcDbLine
 62
7
  6
CONTINUOUS
 10
14.3874205888
 20
6.667141804
 11
14.2411738374
 21
6.667141804
  0
LINE
  5
220
100
AcDbEntity
  8
0
100
AcDbLine
 62
9
  6
CONTINUOUS
 10
14.5674223743
 20
6.787141804
 11
14.4174223743
 21
6.787141804
  0
LINE
  5
221
100
AcDbEntity
  8
0
100
AcDbLine
 62
7
  6
CONTINUOUS
 10
14.5374223743
 20
6.817141804
 11
14.4474223743
 21
6.817141804
  0
LINE
  5
222
100
AcDbEntity
  8
0
100
AcDbLine
 62
9
  6
CONTINUOUS
 10
15.1549223743
 20
7.631141804
 11
13.8299223743
 21
7.631141804
  0
LINE
  5
223
100
AcDbEntity
  8
0
100
AcDbLine
 62
7
  6
CONTINUOUS
 10
15.1249126112
 20
7.661141804
 11
13.8599321375
 21
7.661141804
  0
LINE
  5
224
100
AcDbEntity
  8
0
100
AcDbLine
 62
7
  6
CONTINUOUS
 10
14.0224223743
 20
4.136141804
 11
13.9924223743
 21
4.166141804
  0
LINE
  5
225
100
AcDbEntity
  8
0
100
AcDbLine
 62
7
  6
CONTINUOUS
 10
5.8049226166
 20
10.686141804
 11
6.6799221321
 21
10.686141804
  0
LINE
  5
226
100
AcDbEntity
  8
0
100
AcDbLine
 62
9
  6
CONTINUOUS
 10
12.9924223743
 20
13.008641804
 11
12.9924223743
 21
13.883641804
  0
LINE
  5
227
100
AcDbEntity
  8
0
100
AcDbLine
 62
7
  6
CONTINUOUS
 10
13.3674223743
 20
4.681141804
 11
13.3674223743
 21
4.186141804
  0
LINE
  5
228
100
AcDbEntity
  8
0
100
AcDbLine
 62
7
  6
CONTINUOUS
 10
13.4924223743
 20
4.356141804
 11
13.4924223743
 21
4.186141804
  0
LINE
  5
229
100
AcDbEntity
  8
0
100
AcDbLine
 62
7
  6
CONTINUOUS
 10
6.6799221321
 20
11.496141804
 11
5.8049226166
 21
11.496141804
  0
LINE
  5
22A
100
AcDbEntity
  8
0
100
AcDbLine
 62
7
  6
CONTINUOUS
 10
13.8299223743
 20
7.631141804
 11
13.8299223743
 21
4.711141804
  0
LINE
  5
22B
100
AcDbEntity
  8
0
100
AcDbLine
 62
7
  6
CONTINUOUS
 10
13.9924223743
 20
4.186141804
 11
13.9924223743
 21
4.166141804
  0
LINE
  5
22C
100
AcDbEntity
  8
0
100
AcDbLine
 62
9
  6
CONTINUOUS
 10
14.9299223743
 20
11.946141804
 11
14.0549223743
 21
11.946141804
  0
LINE
  5
22D
100
AcDbEntity
  8
0
100
AcDbLine
 62
9
  6
CONTINUOUS
 10
6.6799223743
 20
11.946141804
 11
5.8049223743
 21
11.946141804
  0
LINE
  5
22E
100
AcDbEntity
  8
0
100
AcDbLine
 62
7
  6
CONTINUOUS
 10
14.0549223743
 20
11.946141804
 11
14.0549223743
 21
7.661141804
  0
LINE
  5
22F
100
AcDbEntity
  8
0
100
AcDbLine
 62
7
  6
CONTINUOUS
 10
14.1174223743
 20
4.396141804
 11
14.1174223743
 21
5.906141804
  0
LINE
  5
230
100
AcDbEntity
  8
0
100
AcDbLine
 62
7
  6
CONTINUOUS
 10
14.1274223743
 20
4.396141804
 11
14.1274223743
 21
4.386141804
  0
LINE
  5
231
100
AcDbEntity
  8
0
100
AcDbLine
 62
7
  6
CONTINUOUS
 10
14.2111723743
 20
5.957141804
 11
14.2111723743
 21
6.637141804
  0
LINE
  5
232
100
AcDbEntity
  8
0
100
AcDbLine
 62
7
  6
CONTINUOUS
 10
14.2374223743
 20
5.957141804
 11
14.2374223743
 21
5.936141804
  0
LINE
  5
233
100
AcDbEntity
  8
0
100
AcDbLine
 62
9
  6
CONTINUOUS
 10
14.3975428563
 20
6.409141804
 11
14.3975428563
 21
6.637141804
  0
LINE
  5
234
100
AcDbEntity
  8
0
100
AcDbLine
 62
7
  6
CONTINUOUS
 10
14.4174223743
 20
6.409141804
 11
14.4174223743
 21
6.787141804
  0
LINE
  5
235
100
AcDbEntity
  8
0
100
AcDbLine
 62
7
  6
CONTINUOUS
 10
14.5674223743
 20
6.787141804
 11
14.5674223743
 21
6.409141804
  0
LINE
  5
236
100
AcDbEntity
  8
0
100
AcDbLine
 62
9
  6
CONTINUOUS
 10
14.5873018924
 20
6.637141804
 11
14.5873018924
 21
6.409141804
  0
LINE
  5
237
100
AcDbEntity
  8
0
100
AcDbLine
 62
7
  6
CONTINUOUS
 10
14.7474223743
 20
5.957141804
 11
14.7474223743
 21
5.936141804
  0
LINE
  5
238
100
AcDbEntity
  8
0
100
AcDbLine
 62
7
  6
CONTINUOUS
 10
14.7736723743
 20
5.957141804
 11
14.7736723743
 21
6.637141804
  0
LINE
  5
239
100
AcDbEntity
  8
0
100
AcDbLine
 62
7
  6
CONTINUOUS
 10
14.8574223743
 20
4.396141804
 11
14.8574223743
 21
4.386141804
  0
LINE
  5
23A
100
AcDbEntity
  8
0
100
AcDbLine
 62
7
  6
CONTINUOUS
 10
14.8674223743
 20
4.396141804
 11
14.8674223743
 21
5.906141804
  0
LINE
  5
23B
100
AcDbEntity
  8
0
100
AcDbLine
 62
7
  6
CONTINUOUS
 10
7.7424223743
 20
13.008641804
 11
12.9924223743
 21
13.008641804
  0
LINE
  5
23C
100
AcDbEntity
  8
0
100
AcDbLine
 62
7
  6
CONTINUOUS
 10
14.9299223743
 20
11.946141804
 11
14.9299223743
 21
7.661141804
  0
LINE
  5
23D
100
AcDbEntity
  8
0
100
AcDbLine
 62
7
  6
CONTINUOUS
 10
14.9924223743
 20
4.186141804
 11
14.9924223743
 21
4.166141804
  0
LINE
  5
23E
100
AcDbEntity
  8
0
100
AcDbLine
 62
7
  6
CONTINUOUS
 10
15.1549223743
 20
7.631141804
 11
15.1549223743
 21
4.711141804
  0
LINE
  5
23F
100
AcDbEntity
  8
0
100
AcDbLine
 62
7
  6
CONTINUOUS
 10
15.4924223743
 20
4.356141804
 11
15.4924223743
 21
4.186141804
  0
LINE
  5
240
100
AcDbEntity
  8
0
100
AcDbLine
 62
7
  6
CONTINUOUS
 10
15.6174223743
 20
4.681141804
 11
15.6174223743
 21
4.186141804
  0
LINE
  5
241
100
AcDbEntity
  8
0
100
AcDbLine
 62
7
  6
CONTINUOUS
 10
7.7424223743
 20
13.883641804
 11
12.9924223743
 21
13.883641804
  0
LINE
  5
242
100
AcDbEntity
  8
0
100
AcDbLine
 62
7
  6
CONTINUOUS
 10
14.9624223743
 20
4.136141804
 11
14.9924223743
 21
4.166141804
  0
ARC
  5
243
100
AcDbEntity
  8
0
100
AcDbCircle
 62
7
  6
CONTINUOUS
 10
12.9924223743
 20
11.946141804
 40
1.9375
100
AcDbArc
 50
0.0
 51
90.0
  0
ARC
  5
244
100
AcDbEntity
  8
0
100
AcDbCircle
 62
7
  6
CONTINUOUS
 10
7.7424223743
 20
11.946141804
 40
1.9375
100
AcDbArc
 50
90.0
 51
180.0
  0
ARC
  5
245
100
AcDbEntity
  8
0
100
AcDbCircle
 62
7
  6
CONTINUOUS
 10
12.9924223743
 20
11.946141804
 40
1.0625
100
AcDbArc
 50
0.0
 51
90.0
  0
ARC
  5
246
100
AcDbEntity
  8
0
100
AcDbCircle
 62
7
  6
CONTINUOUS
 10
7.7424223743
 20
11.946141804
 40
1.0625
100
AcDbArc
 50
90.0
 51
180.0
  0
ARC
  5
247
100
AcDbEntity
  8
0
100
AcDbCircle
 62
7
  6
CONTINUOUS
 10
13.5224223743
 20
4.356141804
 40
0.03
100
AcDbArc
 50
90.0
 51
180.0
  0
ARC
  5
248
100
AcDbEntity
  8
0
100
AcDbCircle
 62
7
  6
CONTINUOUS
 10
15.4624223743
 20
4.356141804
 40
0.03
100
AcDbArc
 50
0.0
 51
90.0
  0
ARC
  5
249
100
AcDbEntity
  8
0
100
AcDbCircle
 62
7
  6
CONTINUOUS
 10
14.5974223735
 20
6.697141804
 40
0.03
100
AcDbArc
 50
180.0
 51
270.0000015671
  0
ARC
  5
24A
100
AcDbEntity
  8
0
100
AcDbCircle
 62
7
  6
CONTINUOUS
 10
14.4474223743
 20
6.787141804
 40
0.03
100
AcDbArc
 50
90.0
 51
180.0
  0
ARC
  5
24B
100
AcDbEntity
  8
0
100
AcDbCircle
 62
7
  6
CONTINUOUS
 10
14.5374223743
 20
6.787141804
 40
0.03
100
AcDbArc
 50
0.0
 51
90.0
  0
ARC
  5
24C
100
AcDbEntity
  8
0
100
AcDbCircle
 62
7
  6
CONTINUOUS
 10
14.3874223752
 20
6.697141804
 40
0.03
100
AcDbArc
 50
270.0
 51
360.0
  0
ARC
  5
24D
100
AcDbEntity
  8
0
100
AcDbCircle
 62
7
  6
CONTINUOUS
 10
14.5374223743
 20
6.409141804
 40
0.03
100
AcDbArc
 50
269.9999999978
 51
360.0
  0
ARC
  5
24E
100
AcDbEntity
  8
0
100
AcDbCircle
 62
7
  6
CONTINUOUS
 10
14.4474223743
 20
6.409141804
 40
0.03
100
AcDbArc
 50
180.0
 51
270.0000000022
  0
ARC
  5
24F
100
AcDbEntity
  8
0
100
AcDbCircle
 62
7
  6
CONTINUOUS
 10
14.2411723743
 20
6.637141804
 40
0.03
100
AcDbArc
 50
90.0
 51
180.0
  0
ARC
  5
250
100
AcDbEntity
  8
0
100
AcDbCircle
 62
7
  6
CONTINUOUS
 10
14.7436723743
 20
6.637141804
 40
0.03
100
AcDbArc
 50
0.0
 51
90.0
  0
ARC
  5
251
100
AcDbEntity
  8
0
100
AcDbCircle
 62
7
  6
CONTINUOUS
 10
13.3974223743
 20
4.681141804
 40
0.03
100
AcDbArc
 50
90.0
 51
180.0
  0
ARC
  5
252
100
AcDbEntity
  8
0
100
AcDbCircle
 62
7
  6
CONTINUOUS
 10
15.5874223743
 20
4.681141804
 40
0.03
100
AcDbArc
 50
0.0
 51
90.0
  0
ARC
  5
253
100
AcDbEntity
  8
0
100
AcDbCircle
 62
7
  6
CONTINUOUS
 10
14.1474223743
 20
5.906141804
 40
0.03
100
AcDbArc
 50
90.0
 51
180.0
  0
ARC
  5
254
100
AcDbEntity
  8
0
100
AcDbCircle
 62
7
  6
CONTINUOUS
 10
14.8374223743
 20
5.906141804
 40
0.03
100
AcDbArc
 50
0.0
 51
90.0
  0
ARC
  5
255
100
AcDbEntity
  8
0
100
AcDbCircle
 62
7
  6
CONTINUOUS
 10
15.1249223743
 20
7.631141804
 40
0.03
100
AcDbArc
 50
0.0
 51
90.0
  0
ARC
  5
256
100
AcDbEntity
  8
0
100
AcDbCircle
 62
7
  6
CONTINUOUS
 10
13.8599223743
 20
7.631141804
 40
0.03
100
AcDbArc
 50
90.0
 51
180.0
  0
SPLINE
  5
257
100
AcDbEntity
  8
0
100
AcDbSpline
 62
9
  6
CONTINUOUS
 70
0
 71
3
 72
21
 73
17
 74
0
 42
0.0000001
 43
0.0000001
 44
0.0000000001
 40
0.0
 40
0.0
 40
0.0
 40
0.0
 40
0.1247591387
 40
0.1870445974
 40
0.2491600621
 40
0.3111854889
 40
0.3731634238
 40
0.4351781469
 40
0.4972884752
 40
0.5595373879
 40
0.621962843
 40
0.684568559
 40
0.7473659338
 40
0.8103710245
 40
0.8735751552
 40
1.0
 40
1.0
 40
1.0
 40
1.0
 10
14.4517597237
 20
6.349141804
 30
0.0
 10
14.4480295285
 20
6.3491421959
 30
0.0
 10
14.4424108171
 20
6.3497916341
 30
0.0
 10
14.4352493676
 20
6.3518809398
 30
0.0
 10
14.4300933947
 20
6.3540306272
 30
0.0
 10
14.4252074219
 20
6.356715359
 30
0.0
 10
14.4206329918
 20
6.3598965356
 30
0.0
 10
14.4164045359
 20
6.3635277653
 30
0.0
 10
14.4125512193
 20
6.3675655457
 30
0.0
 10
14.4090987382
 20
6.3719659549
 30
0.0
 10
14.4060649874
 20
6.3766819155
 30
0.0
 10
14.4034677598
 20
6.3816699025
 30
0.0
 10
14.4013218881
 20
6.3868862825
 30
0.0
 10
14.3996390259
 20
6.3922893288
 30
0.0
 10
14.3980312779
 20
6.3996763757
 30
0.0
 10
14.3975431429
 20
6.4053618056
 30
0.0
 10
14.3975428563
 20
6.4091418041
 30
0.0
  0
SPLINE
  5
258
100
AcDbEntity
  8
0
100
AcDbSpline
 62
9
  6
CONTINUOUS
 70
0
 71
3
 72
24
 73
20
 74
0
 42
0.0000001
 43
0.0000001
 44
0.0000000001
 40
0.0
 40
0.0
 40
0.0
 40
0.0
 40
0.0063417973
 40
0.0133793689
 40
0.0215884139
 40
0.0313180125
 40
0.0428181654
 40
0.0562748448
 40
0.0896060722
 40
0.132083641
 40
0.1835270503
 40
0.2434697781
 40
0.311399817
 40
0.3866310407
 40
0.4678469917
 40
0.5535607455
 40
0.6422756229
 40
0.8230636573
 40
1.0
 40
1.0
 40
1.0
 40
1.0
 10
14.4474223743
 20
6.379141804
 30
0.0
 10
14.4474876619
 20
6.379141804
 30
0.0
 10
14.4476261048
 20
6.3791188696
 30
0.0
 10
14.4478276522
 20
6.3790197324
 30
0.0
 10
14.4480283741
 20
6.3788564506
 30
0.0
 10
14.4482289814
 20
6.3786279357
 30
0.0
 10
14.4484299746
 20
6.3783319584
 30
0.0
 10
14.4487190332
 20
6.3778053418
 30
0.0
 10
14.4490674553
 20
6.3769522728
 30
0.0
 10
14.4494528235
 20
6.3756993602
 30
0.0
 10
14.4498269278
 20
6.3741593741
 30
0.0
 10
14.4501822417
 20
6.3723474169
 30
0.0
 10
14.4505110587
 20
6.3702821288
 30
0.0
 10
14.4508054728
 20
6.3679907727
 30
0.0
 10
14.4510643265
 20
6.3655110568
 30
0.0
 10
14.4512847371
 20
6.3628883319
 30
0.0
 10
14.4515251104
 20
6.3592391819
 30
0.0
 10
14.4517108473
 20
6.3546461637
 30
0.0
 10
14.4517597237
 20
6.3509633283
 30
0.0
 10
14.4517597237
 20
6.349141804
 30
0.0
  0
SPLINE
  5
259
100
AcDbEntity
  8
0
100
AcDbSpline
 62
9
  6
CONTINUOUS
 70
0
 71
3
 72
20
 73
16
 74
0
 42
0.0000001
 43
0.0000001
 44
0.0000000001
 40
0.0
 40
0.0
 40
0.0
 40
0.0
 40
0.1264205761
 40
0.1896119322
 40
0.2526144601
 40
0.3154212962
 40
0.3780435529
 40
0.4404840956
 40
0.5027483821
 40
0.6267575023
 40
0.6887554882
 40
0.7508015255
 40
0.8129334575
 40
0.8752277857
 40
1.0
 40
1.0
 40
1.0
 40
1.0
 10
14.5873018924
 20
6.4091418041
 30
0.0
 10
14.5873016184
 20
6.4053625133
 30
0.0
 10
14.5868151448
 20
6.3996783376
 30
0.0
 10
14.5852074276
 20
6.3922930094
 30
0.0
 10
14.5835244022
 20
6.386891131
 30
0.0
 10
14.5813784285
 20
6.3816749323
 30
0.0
 10
14.5787813191
 20
6.3766866765
 30
0.0
 10
14.5757474514
 20
6.3719693937
 30
0.0
 10
14.5711543909
 20
6.3661123662
 30
0.0
 10
14.5657354685
 20
6.3609555928
 30
0.0
 10
14.5596384598
 20
6.3567161679
 30
0.0
 10
14.5547513366
 20
6.3540306146
 30
0.0
 10
14.5495950162
 20
6.3518808021
 30
0.0
 10
14.5424335965
 20
6.3497911528
 30
0.0
 10
14.5368150386
 20
6.349142213
 30
0.0
 10
14.5330850249
 20
6.349141804
 30
0.0
  0
SPLINE
  5
25A
100
AcDbEntity
  8
0
100
AcDbSpline
 62
9
  6
CONTINUOUS
 70
0
 71
3
 72
24
 73
20
 74
0
 42
0.0000001
 43
0.0000001
 44
0.0000000001
 40
0.0
 40
0.0
 40
0.0
 40
0.0
 40
0.1769363413
 40
0.3577243748
 40
0.4464392519
 40
0.5321530056
 40
0.6133689566
 40
0.6886001805
 40
0.7565302197
 40
0.8164729479
 40
0.8679163576
 40
0.9103939268
 40
0.9437251546
 40
0.9571818341
 40
0.9686819872
 40
0.9784115859
 40
0.986620631
 40
0.9936582027
 40
1.0
 40
1.0
 40
1.0
 40
1.0
 10
14.5330850249
 20
6.349141804
 30
0.0
 10
14.5330850249
 20
6.3509633283
 30
0.0
 10
14.5331339014
 20
6.3546461636
 30
0.0
 10
14.5333196383
 20
6.3592391819
 30
0.0
 10
14.5335600116
 20
6.3628883318
 30
0.0
 10
14.5337804221
 20
6.3655110567
 30
0.0
 10
14.5340392759
 20
6.3679907726
 30
0.0
 10
14.5343336899
 20
6.3702821287
 30
0.0
 10
14.534662507
 20
6.3723474168
 30
0.0
 10
14.5350178208
 20
6.374159374
 30
0.0
 10
14.5353919251
 20
6.3756993601
 30
0.0
 10
14.5357772934
 20
6.3769522727
 30
0.0
 10
14.5361257154
 20
6.3778053417
 30
0.0
 10
14.536414774
 20
6.3783319584
 30
0.0
 10
14.5366157673
 20
6.3786279357
 30
0.0
 10
14.5368163745
 20
6.3788564506
 30
0.0
 10
14.5370170965
 20
6.3790197324
 30
0.0
 10
14.5372186438
 20
6.3791188696
 30
0.0
 10
14.5373570868
 20
6.379141804
 30
0.0
 10
14.5374223743
 20
6.379141804
 30
0.0
  0
SPLINE
  5
25B
100
AcDbEntity
  8
0
100
AcDbSpline
 62
9
  6
CONTINUOUS
 70
0
 71
3
 72
20
 73
16
 74
0
 42
0.0000001
 43
0.0000001
 44
0.0000000001
 40
0.0
 40
0.0
 40
0.0
 40
0.0
 40
0.0333401005
 40
0.0670353929
 40
0.1026693695
 40
0.1416621148
 40
0.1851422404
 40
0.2338254402
 40
0.2881353757
 40
0.3483164689
 40
0.4144213305
 40
0.4861202543
 40
0.6443414084
 40
0.8181972146
 40
1.0
 40
1.0
 40
1.0
 40
1.0
 10
14.3874222787
 20
6.6671418042
 30
0.0
 10
14.3877982508
 20
6.6671417224
 30
0.0
 10
14.3885573558
 20
6.6670578942
 30
0.0
 10
14.3896566483
 20
6.6666645042
 30
0.0
 10
14.3906961439
 20
6.6660061797
 30
0.0
 10
14.3916689828
 20
6.6650865531
 30
0.0
 10
14.3925717948
 20
6.6639088054
 30
0.0
 10
14.3934062303
 20
6.6624793965
 30
0.0
 10
14.3941714172
 20
6.6608032388
 30
0.0
 10
14.3948648312
 20
6.658886433
 30
0.0
 10
14.395482886
 20
6.6567396153
 30
0.0
 10
14.3962302347
 20
6.6534847897
 30
0.0
 10
14.3969353731
 20
6.6489806393
 30
0.0
 10
14.3974315118
 20
6.6432037108
 30
0.0
 10
14.3975431427
 20
6.6391919715
 30
0.0
 10
14.3975432142
 20
6.6371418041
 30
0.0
  0
SPLINE
  5
25C
100
AcDbEntity
  8
0
100
AcDbSpline
 62
9
  6
CONTINUOUS
 70
0
 71
3
 72
20
 73
16
 74
0
 42
0.0000001
 43
0.0000001
 44
0.0000000001
 40
0.0
 40
0.0
 40
0.0
 40
0.0
 40
0.1818039528
 40
0.3556659829
 40
0.5138903036
 40
0.5855897438
 40
0.6516949544
 40
0.7118765724
 40
0.7661870165
 40
0.8148702604
 40
0.8583493458
 40
0.8973394577
 40
0.9329698933
 40
0.9666618839
 40
1.0
 40
1.0
 40
1.0
 40
1.0
 10
14.5873015336
 20
6.6371418041
 30
0.0
 10
14.5873016019
 20
6.6391919829
 30
0.0
 10
14.5874132494
 20
6.6432038022
 30
0.0
 10
14.5879094018
 20
6.6489808433
 30
0.0
 10
14.5886145397
 20
6.6534851038
 30
0.0
 10
14.5893619173
 20
6.6567399671
 30
0.0
 10
14.5899800121
 20
6.6588867884
 30
0.0
 10
14.590673494
 20
6.6608035852
 30
0.0
 10
14.5914387528
 20
6.6624797218
 30
0.0
 10
14.5922732381
 20
6.6639090932
 30
0.0
 10
14.5931760513
 20
6.6650867849
 30
0.0
 10
14.5941488346
 20
6.6660063487
 30
0.0
 10
14.5951882468
 20
6.6666646041
 30
0.0
 10
14.5962874566
 20
6.6670579282
 30
0.0
 10
14.5970465025
 20
6.6671417259
 30
0.0
 10
14.5974224519
 20
6.6671418042
 30
0.0
  0
ENDSEC
  0
SECTION
  2
OBJECTS
  0
DICTIONARY
  5
C
100
AcDbDictionary
280
0
281
1
  3
ACAD_GROUP
350
D
  3
ACAD_MLINESTYLE
350
17
  3
ACAD_LAYOUT
350
1A
  3
ACAD_PLOTSETTINGS
350
19
  3
ACAD_PLOTSTYLENAME
350
E
  0
DICTIONARY
  5
D
102
{ACAD_REACTORS
330
C
102
}
100
AcDbDictionary
280
0
281
1
  0
ACDBDICTIONARYWDFLT
  5
E
102
{ACAD_REACTORS
330
C
102
}
100
AcDbDictionary
281
1
  3
Normal
350
F
100
AcDbDictionaryWithDefault
340
F
  0
DICTIONARY
  5
17
102
{ACAD_REACTORS
330
C
102
}
100
AcDbDictionary
280
0
281
1
  3
Standard
350
18
  0
DICTIONARY
  5
19
102
{ACAD_REACTORS
330
C
102
}
100
AcDbDictionary
281
1
  0
DICTIONARY
  5
1A
102
{ACAD_REACTORS
330
C
102
}
100
AcDbDictionary
281
1
  3
Model
350
25D
  3
Layout1
350
25E
  0
ACDBPLACEHOLDER
  5
F
102
{ACAD_REACTORS
330
E
102
}
  0
MLINESTYLE
  5
18
102
{ACAD_REACTORS
330
17
102
}
100
AcDbMlineStyle
  2
STANDARD
 70
0
  3

 62
256
 51
90.0
 52
90.0
 71
2
 49
0.5
 62
256
  6
BYLAYER
 49
-0.5
 62
256
  6
BYLAYER
  0
LAYOUT
  5
25D
102
{ACAD_REACTORS
330
1A
102
}
100
AcDbPlotSettings
  1

  2
none_device
  4
ANSI_C_(22.00_x_17.00_Inches)
  6

 40
0.0
 41
0.0
 42
0.0
 43
0.0
 44
558.8
 45
431.8
 46
0.0
 47
0.0
 48
0.0
 49
0.0
140
0.0
141
0.0
142
1.0
143
1.0
 70
1024
 72
0
 73
0
 74
0
  7

 75
0
147
1.0
148
0.0
149
0.0
100
AcDbLayout
  1
Model
 70
0
 71
0
 10
0.0
 20
0.0
 11
22.0
 21
17.0
 12
0.0
 22
0.0
 32
0.0
 14
0.0
 24
0.0
 34
0.0
 15
0.0
 25
0.0
 35
0.0
146
0.0
 13
0.0
 23
0.0
 33
0.0
 16
1.0
 26
0.0
 36
0.0
 17
0.0
 27
1.0
 37
0.0
 76
0
330
202
345
0
346
0
  0
LAYOUT
  5
25E
102
{ACAD_REACTORS
330
1A
102
}
100
AcDbPlotSettings
  1

  2
none_device
  4
ANSI_C_(22.00_x_17.00_Inches)
  6

 40
0.0
 41
0.0
 42
0.0
 43
0.0
 44
558.8
 45
431.8
 46
0.0
 47
0.0
 48
0.0
 49
0.0
140
0.0
141
0.0
142
1.0
143
1.0
 70
0
 72
0
 73
0
 74
0
  7

 75
0
147
1.0
148
0.0
149
0.0
100
AcDbLayout
  1
Layout1
 70
0
 71
1
 10
0.0
 20
0.0
 11
22.0
 21
17.0
 12
0.0
 22
0.0
 32
0.0
 14
0.0
 24
0.0
 34
0.0
 15
0.0
 25
0.0
 35
0.0
146
0.0
 13
0.0
 23
0.0
 33
0.0
 16
1.0
 26
0.0
 36
0.0
 17
0.0
 27
1.0
 37
0.0
 76
0
330
203
345
0
346
0
  0
ENDSEC
  0
EOF
