999
DXF file: E:\BRASSTECH\JOE\EN-3XXX\EN-3934\Webdata\1\CAD\3-3327_TOP.dxf
999
Pro/ENGINEER 2018400 by Parametric Technology Corporation
  0
SECTION
  2
HEADER
  9
$ACADVER
  1
AC1018
  9
$DWGCODEPAGE
  3
ANSI_1252
  9
$EXTMAX
 10
22.0
 20
17.0
 30
0.0
  9
$EXTMIN
 10
0.0
 20
0.0
 30
0.0
  9
$LIMMIN
 10
0.0
 20
0.0
  9
$LIMMAX
 10
22.0
 20
17.0
  9
$VIEWCTR
 10
11.0
 20
8.5
  9
$VIEWSIZE
 40
17.0
  9
$CLAYER
  8
0
  9
$LTSCALE
 40
1.21
  9
$CELTYPE
  6
BYLAYER
  9
$DIMSCALE
 40
1.0
  9
$DIMASZ
 40
0.1
  9
$DIMEXO
 40
0.0625
  9
$DIMDLI
 40
0.836
  9
$DIMEXE
 40
0.125
  9
$DIMCEN
 40
0.198
  9
$DIMLFAC
 40
1.0
  9
$DIMBLK
  1
_FILLED
  9
$DIMALT
 70
1
  9
$DIMALTD
 70
2
  9
$DIMALTTD
 70
2
  9
$DIMALTF
 40
25.4
  9
$DIMTXT
 40
0.08
  9
$DIMTOL
 70
1
  9
$DIMLIM
 70
0
  9
$DIMTFAC
 40
1.0
  9
$DIMTP
 40
0.001
  9
$DIMTM
 40
0.001
  9
$DIMGAP
 40
0.09
  9
$DIMDSEP
 70
46
  9
$AUNITS
 70
0
  9
$PDMODE
 70
3
  9
$PDSIZE
 40
0.06
  9
$HANDSEED
  5
2BC
  9
$TILEMODE
 70
1
  9
$MEASUREMENT
 70
0
  9
$INSUNITS
 70
1
  0
ENDSEC
  0
SECTION
  2
CLASSES
  0
CLASS
  1
ACDBDICTIONARYWDFLT
  2
AcDbDictionaryWithDefault
  3
AutoCAD 2000
 90
0
 91
1
280
0
281
0
  0
CLASS
  1
ACDBPLACEHOLDER
  2
AcDbPlaceHolder
  3
AutoCAD 2000
 90
0
 91
1
280
0
281
0
  0
CLASS
  1
LAYOUT
  2
AcDbLayout
  3
AutoCAD 2000
 90
0
 91
0
280
0
281
0
  0
ENDSEC
  0
SECTION
  2
TABLES
  0
TABLE
  2
VPORT
  5
8
100
AcDbSymbolTable
 70
2
  0
VPORT
  5
1F4
100
AcDbSymbolTableRecord
100
AcDbViewportTableRecord
  2
*ACTIVE
 70
0
 10
0.0
 20
0.0
 11
1.0
 21
1.0
 12
11.0
 22
8.5
 13
0.0
 23
0.0
 14
1.0
 24
1.0
 15
0.0
 25
0.0
 16
0.0
 26
0.0
 36
1.0
 17
0.0
 27
0.0
 37
0.0
 40
17.0
 41
1.2941176471
 42
50.0
 43
0.0
 44
0.0
 50
0.0
 51
0.0
 71
0
 72
100
 73
1
 74
1
 75
0
 76
0
 77
0
 78
0
  0
ENDTAB
  0
TABLE
  2
LTYPE
  5
5
100
AcDbSymbolTable
 70
6
  0
LTYPE
  5
14
100
AcDbSymbolTableRecord
100
AcDbLinetypeTableRecord
  2
BYBLOCK
 70
0
  3

 72
65
 73
0
 40
0.0
  0
LTYPE
  5
15
100
AcDbSymbolTableRecord
100
AcDbLinetypeTableRecord
  2
BYLAYER
 70
0
  3

 72
65
 73
0
 40
0.0
  0
LTYPE
  5
16
100
AcDbSymbolTableRecord
100
AcDbLinetypeTableRecord
  2
CONTINUOUS
 70
64
  3
Solid line
 72
65
 73
0
 40
0.0
  0
LTYPE
  5
1F5
100
AcDbSymbolTableRecord
100
AcDbLinetypeTableRecord
  2
CENTER
 70
64
  3
____ _ ____ _ ____ _ ____ _ ____ _ ____ _ ____
 72
65
 73
4
 40
0.6
 49
0.375
 74
0
 49
-0.075
 74
0
 49
0.075
 74
0
 49
-0.075
 74
0
  0
LTYPE
  5
1F6
100
AcDbSymbolTableRecord
100
AcDbLinetypeTableRecord
  2
HIDDEN
 70
64
  3
- - - - - - - - - - - - - - - - - - - -
 72
65
 73
2
 40
0.2
 49
0.1
 74
0
 49
-0.1
 74
0
  0
LTYPE
  5
1F7
100
AcDbSymbolTableRecord
100
AcDbLinetypeTableRecord
  2
PHANTOM
 70
64
  3
_____ _ _ _____ _ _ _____ _ _ _____
 72
65
 73
6
 40
0.8
 49
0.45
 74
0
 49
-0.05
 74
0
 49
0.1
 74
0
 49
-0.05
 74
0
 49
0.1
 74
0
 49
-0.05
 74
0
  0
LTYPE
  5
1F8
100
AcDbSymbolTableRecord
100
AcDbLinetypeTableRecord
  2
DOT
 70
64
  3
. . . . . . . . . . . . . . . . . . . .
 72
65
 73
2
 40
0.2
 49
0.1
 74
0
 49
-0.1
 74
0
  0
LTYPE
  5
1F9
100
AcDbSymbolTableRecord
100
AcDbLinetypeTableRecord
  2
DASHED
 70
64
  3
- - - - - - - - - - - - - - - - - - - -
 72
65
 73
2
 40
0.2
 49
0.1
 74
0
 49
-0.1
 74
0
  0
ENDTAB
  0
TABLE
  2
LAYER
  5
2
100
AcDbSymbolTable
 70
36
  0
LAYER
  5
10
100
AcDbSymbolTableRecord
100
AcDbLayerTableRecord
  2
0
 70
0
 62
7
  6
CONTINUOUS
370
-3
390
F
  0
LAYER
  5
1FA
100
AcDbSymbolTableRecord
100
AcDbLayerTableRecord
  2
DEFAULT_1
 70
0
 62
7
  6
CENTER
370
-3
390
F
  0
LAYER
  5
1FB
100
AcDbSymbolTableRecord
100
AcDbLayerTableRecord
  2
DEFAULT_2
 70
0
 62
8
  6
HIDDEN
370
-3
390
F
  0
LAYER
  5
1FC
100
AcDbSymbolTableRecord
100
AcDbLayerTableRecord
  2
DEFAULT_3
 70
0
 62
7
  6
PHANTOM
370
-3
390
F
  0
LAYER
  5
1FD
100
AcDbSymbolTableRecord
100
AcDbLayerTableRecord
  2
ALL_FEATURES
 70
0
 62
7
  6
CONTINUOUS
370
-3
390
F
  0
LAYER
  5
1FE
100
AcDbSymbolTableRecord
100
AcDbLayerTableRecord
  2
AXES_FEATURES
 70
0
 62
7
  6
CONTINUOUS
370
-3
390
F
  0
LAYER
  5
1FF
100
AcDbSymbolTableRecord
100
AcDbLayerTableRecord
  2
DIMENSIONS
 70
0
 62
7
  6
CONTINUOUS
370
-3
390
F
  0
ENDTAB
  0
TABLE
  2
STYLE
  5
3
100
AcDbSymbolTable
 70
1
  0
STYLE
  5
11
100
AcDbSymbolTableRecord
100
AcDbTextStyleTableRecord
  2
STANDARD
 70
0
 40
0.0
 41
0.8
 50
0.0
 71
0
 42
0.2
  3
txt
  4

  0
STYLE
  5
200
100
AcDbSymbolTableRecord
100
AcDbTextStyleTableRecord
  2
TEXTSTYLE_1
 70
0
 40
0.0
 41
0.8
 50
0.0
 71
0
 42
0.2
  3
gdt
  4

  0
ENDTAB
  0
TABLE
  2
VIEW
  5
6
100
AcDbSymbolTable
 70
0
  0
ENDTAB
  0
TABLE
  2
UCS
  5
7
100
AcDbSymbolTable
 70
0
  0
ENDTAB
  0
TABLE
  2
APPID
  5
9
100
AcDbSymbolTable
 70
1
  0
APPID
  5
201
100
AcDbSymbolTableRecord
100
AcDbRegAppTableRecord
  2
ACAD
 70
0
  0
ENDTAB
  0
TABLE
  2
BLOCK_RECORD
  5
1
100
AcDbSymbolTable
 70
0
  0
BLOCK_RECORD
  5
202
100
AcDbSymbolTableRecord
100
AcDbBlockTableRecord
  2
*Model_Space
  0
BLOCK_RECORD
  5
203
100
AcDbSymbolTableRecord
100
AcDbBlockTableRecord
  2
*Paper_Space
  0
BLOCK_RECORD
  5
204
100
AcDbSymbolTableRecord
100
AcDbBlockTableRecord
  2
_FILLED
  0
ENDTAB
  0
TABLE
  2
DIMSTYLE
  5
A
100
AcDbSymbolTable
 70
1
100
AcDbDimStyleTable
 71
0
  0
DIMSTYLE
105
205
100
AcDbSymbolTableRecord
100
AcDbDimStyleTableRecord
  2
STANDARD
 70
0
  3

  4

 40
1.0
 41
0.1
 42
0.0625
 43
0.38
 44
0.125
 45
0.0
 46
0.0
 47
0.001
 48
0.001
140
0.08
141
0.09
142
0.0
143
25.4
144
1.0
145
0.0
146
1.0
147
0.09
 71
1.0
 72
0.0
 73
1
 74
1
 75
0
 76
0
 77
0
 78
4
 79
1
170
1
171
2
172
0
173
0
174
0
175
0
176
0
177
0
178
0
270
2
179
3
271
3
272
3
273
2
274
2
275
0
280
0
281
0
282
0
283
1
284
4
285
0
286
0
287
3
288
0
340
11
278
46
341
204
342
204
343
204
344
204
  0
ENDTAB
  0
ENDSEC
  0
SECTION
  2
BLOCKS
  0
BLOCK
  5
20
100
AcDbEntity
  8
0
100
AcDbBlockBegin
  2
*Model_Space
 70
0
 10
0.0
 20
0.0
 30
0.0
  3
*Model_Space
  1

  0
ENDBLK
  5
21
100
AcDbEntity
  8
0
100
AcDbBlockEnd
  0
BLOCK
  5
1C
100
AcDbEntity
  8
0
100
AcDbBlockBegin
  2
*Paper_Space
 70
0
 10
0.0
 20
0.0
 30
0.0
  3
*Paper_Space
  1

  0
ENDBLK
  5
1D
100
AcDbEntity
  8
0
100
AcDbBlockEnd
  0
BLOCK
  5
206
100
AcDbEntity
  8
0
100
AcDbBlockBegin
  2
_FILLED
 70
64
 10
0.0
 20
0.0
  3
_FILLED
  1

  0
SOLID
  5
207
100
AcDbEntity
  8
0
  6
BYBLOCK
 62
0
100
AcDbTrace
 10
0.0
 20
0.0
 11
-1.0
 21
0.2
 12
-1.0
 22
-0.2
 13
-1.0
 23
-0.2
  0
ENDBLK
  5
208
100
AcDbEntity
  8
0
  6
BYBLOCK
 62
0
100
AcDbBlockEnd
  0
ENDSEC
  0
SECTION
  2
ENTITIES
  0
LINE
  5
209
100
AcDbEntity
  8
0
100
AcDbLine
 62
9
  6
CONTINUOUS
 10
0.3098183383
 20
11.3397707456
 11
0.3098183383
 21
11.3097707456
  0
LINE
  5
20A
100
AcDbEntity
  8
0
100
AcDbLine
 62
9
  6
CONTINUOUS
 10
0.3098183383
 20
11.2197707456
 11
0.3098183383
 21
11.1897707456
  0
LINE
  5
20B
100
AcDbEntity
  8
0
100
AcDbLine
 62
9
  6
CONTINUOUS
 10
2.5065606714
 20
11.3697707456
 11
2.5065606714
 21
11.3397707456
  0
LINE
  5
20C
100
AcDbEntity
  8
0
100
AcDbLine
 62
9
  6
CONTINUOUS
 10
2.5065606714
 20
11.1897707456
 11
2.5065606714
 21
11.1597707456
  0
LINE
  5
20D
100
AcDbEntity
  8
0
100
AcDbLine
 62
9
  6
CONTINUOUS
 10
2.6748183383
 20
11.1897707456
 11
2.6748183383
 21
11.3397707456
  0
LINE
  5
20E
100
AcDbEntity
  8
0
100
AcDbLine
 62
9
  6
CONTINUOUS
 10
2.7048183383
 20
11.1597707456
 11
2.7048183383
 21
11.1897707456
  0
LINE
  5
20F
100
AcDbEntity
  8
0
100
AcDbLine
 62
9
  6
CONTINUOUS
 10
2.7048183383
 20
11.3397707456
 11
2.7048183383
 21
11.3697707456
  0
LINE
  5
210
100
AcDbEntity
  8
0
100
AcDbLine
 62
7
  6
CONTINUOUS
 10
2.7348183383
 20
11.3097707456
 11
2.7348183383
 21
11.2197707456
  0
LINE
  5
211
100
AcDbEntity
  8
0
100
AcDbLine
 62
9
  6
CONTINUOUS
 10
2.7648183382
 20
11.3097707403
 11
2.7648183382
 21
11.2197707513
  0
LINE
  5
212
100
AcDbEntity
  8
0
100
AcDbLine
 62
7
  6
CONTINUOUS
 10
6.2973183383
 20
11.2647707456
 11
6.2973183383
 21
3.0147707456
  0
LINE
  5
213
100
AcDbEntity
  8
0
100
AcDbLine
 62
7
  6
CONTINUOUS
 10
7.1723183383
 20
11.2647707456
 11
7.1723183383
 21
3.0147707456
  0
LINE
  5
214
100
AcDbEntity
  8
0
100
AcDbLine
 62
9
  6
CONTINUOUS
 10
6.2973183383
 20
4.5147707456
 11
7.1723183383
 21
4.5147707456
  0
LINE
  5
215
100
AcDbEntity
  8
0
100
AcDbLine
 62
9
  6
CONTINUOUS
 10
10.7048183384
 20
11.2197707509
 11
10.7048183383
 21
11.3097707399
  0
LINE
  5
216
100
AcDbEntity
  8
0
100
AcDbLine
 62
7
  6
CONTINUOUS
 10
10.7348183383
 20
11.2197707456
 11
10.7348183383
 21
11.3097707456
  0
LINE
  5
217
100
AcDbEntity
  8
0
100
AcDbLine
 62
9
  6
CONTINUOUS
 10
10.7648183383
 20
11.3697707456
 11
10.7648183383
 21
11.3397707456
  0
LINE
  5
218
100
AcDbEntity
  8
0
100
AcDbLine
 62
9
  6
CONTINUOUS
 10
10.7648183383
 20
11.1897707456
 11
10.7648183383
 21
11.1597707456
  0
LINE
  5
219
100
AcDbEntity
  8
0
100
AcDbLine
 62
9
  6
CONTINUOUS
 10
10.7948183383
 20
11.3397707456
 11
10.7948183383
 21
11.1897707456
  0
LINE
  5
21A
100
AcDbEntity
  8
0
100
AcDbLine
 62
9
  6
CONTINUOUS
 10
10.9630760051
 20
11.1597707456
 11
10.9630760051
 21
11.1897707456
  0
LINE
  5
21B
100
AcDbEntity
  8
0
100
AcDbLine
 62
9
  6
CONTINUOUS
 10
10.9630760051
 20
11.3397707456
 11
10.9630760051
 21
11.3697707456
  0
LINE
  5
21C
100
AcDbEntity
  8
0
100
AcDbLine
 62
9
  6
CONTINUOUS
 10
13.1598183383
 20
11.1897707456
 11
13.1598183383
 21
11.2197707456
  0
LINE
  5
21D
100
AcDbEntity
  8
0
100
AcDbLine
 62
9
  6
CONTINUOUS
 10
13.1598183383
 20
11.3097707456
 11
13.1598183383
 21
11.3397707456
  0
LINE
  5
21E
100
AcDbEntity
  8
0
100
AcDbLine
 62
9
  6
CONTINUOUS
 10
7.1723183383
 20
9.7647707456
 11
6.2973183383
 21
9.7647707456
  0
LINE
  5
21F
100
AcDbEntity
  8
0
100
AcDbLine
 62
9
  6
CONTINUOUS
 10
10.9630749652
 20
11.1597689601
 11
10.7648253609
 21
11.159770746
  0
LINE
  5
220
100
AcDbEntity
  8
0
100
AcDbLine
 62
9
  6
CONTINUOUS
 10
15.9630749652
 20
11.1597689601
 11
15.7648253609
 21
11.159770746
  0
LINE
  5
221
100
AcDbEntity
  8
0
100
AcDbLine
 62
9
  6
CONTINUOUS
 10
2.7048253428
 20
11.1597707457
 11
2.506561674
 21
11.1597690299
  0
LINE
  5
222
100
AcDbEntity
  8
0
100
AcDbLine
 62
7
  6
CONTINUOUS
 10
0.3098183383
 20
11.1897707456
 11
2.7048183383
 21
11.1897707456
  0
LINE
  5
223
100
AcDbEntity
  8
0
100
AcDbLine
 62
7
  6
CONTINUOUS
 10
10.7648183383
 20
11.1897707456
 11
13.1598183382
 21
11.1897707456
  0
LINE
  5
224
100
AcDbEntity
  8
0
100
AcDbLine
 62
7
  6
CONTINUOUS
 10
15.7648183383
 20
11.1897707456
 11
18.1598183382
 21
11.1897707456
  0
LINE
  5
225
100
AcDbEntity
  8
0
100
AcDbLine
 62
9
  6
CONTINUOUS
 10
0.3098183383
 20
11.2197707456
 11
2.7648183382
 21
11.2197707456
  0
LINE
  5
226
100
AcDbEntity
  8
0
100
AcDbLine
 62
9
  6
CONTINUOUS
 10
10.7048183384
 20
11.2197707456
 11
13.1598183383
 21
11.2197707456
  0
LINE
  5
227
100
AcDbEntity
  8
0
100
AcDbLine
 62
9
  6
CONTINUOUS
 10
15.7048183384
 20
11.2197707456
 11
18.1598183383
 21
11.2197707456
  0
LINE
  5
228
100
AcDbEntity
  8
0
100
AcDbLine
 62
7
  6
CONTINUOUS
 10
21.2816459527
 20
11.2497707456
 11
21.3546368601
 21
11.2497707456
  0
LINE
  5
229
100
AcDbEntity
  8
0
100
AcDbLine
 62
7
  6
CONTINUOUS
 10
21.2816458019
 20
11.2797707456
 11
21.3546368601
 21
11.2797707456
  0
LINE
  5
22A
100
AcDbEntity
  8
0
100
AcDbLine
 62
9
  6
CONTINUOUS
 10
18.1598183383
 20
11.3097707456
 11
15.7048183384
 21
11.3097707456
  0
LINE
  5
22B
100
AcDbEntity
  8
0
100
AcDbLine
 62
9
  6
CONTINUOUS
 10
13.1598183383
 20
11.3097707456
 11
10.7048183384
 21
11.3097707456
  0
LINE
  5
22C
100
AcDbEntity
  8
0
100
AcDbLine
 62
9
  6
CONTINUOUS
 10
2.7648183382
 20
11.3097707456
 11
0.3098183383
 21
11.3097707456
  0
LINE
  5
22D
100
AcDbEntity
  8
0
100
AcDbLine
 62
7
  6
CONTINUOUS
 10
0.3098183383
 20
11.3397707456
 11
2.7048183383
 21
11.3397707456
  0
LINE
  5
22E
100
AcDbEntity
  8
0
100
AcDbLine
 62
7
  6
CONTINUOUS
 10
10.7648183383
 20
11.3397707456
 11
13.1598183382
 21
11.3397707456
  0
LINE
  5
22F
100
AcDbEntity
  8
0
100
AcDbLine
 62
7
  6
CONTINUOUS
 10
15.7648183383
 20
11.3397707456
 11
18.1598183382
 21
11.3397707456
  0
LINE
  5
230
100
AcDbEntity
  8
0
100
AcDbLine
 62
9
  6
CONTINUOUS
 10
2.5065617114
 20
11.3697725311
 11
2.7048113156
 21
11.3697707452
  0
LINE
  5
231
100
AcDbEntity
  8
0
100
AcDbLine
 62
9
  6
CONTINUOUS
 10
15.7648113338
 20
11.3697707455
 11
15.9630750025
 21
11.3697724614
  0
LINE
  5
232
100
AcDbEntity
  8
0
100
AcDbLine
 62
9
  6
CONTINUOUS
 10
10.7648113338
 20
11.3697707455
 11
10.9630750025
 21
11.3697724614
  0
LINE
  5
233
100
AcDbEntity
  8
0
100
AcDbLine
 62
9
  6
CONTINUOUS
 10
15.7048183384
 20
11.2197707509
 11
15.7048183383
 21
11.3097707399
  0
LINE
  5
234
100
AcDbEntity
  8
0
100
AcDbLine
 62
7
  6
CONTINUOUS
 10
15.7348183383
 20
11.2197707456
 11
15.7348183383
 21
11.3097707456
  0
LINE
  5
235
100
AcDbEntity
  8
0
100
AcDbLine
 62
9
  6
CONTINUOUS
 10
15.7648183383
 20
11.3697707456
 11
15.7648183383
 21
11.3397707456
  0
LINE
  5
236
100
AcDbEntity
  8
0
100
AcDbLine
 62
9
  6
CONTINUOUS
 10
15.7648183383
 20
11.1897707456
 11
15.7648183383
 21
11.1597707456
  0
LINE
  5
237
100
AcDbEntity
  8
0
100
AcDbLine
 62
9
  6
CONTINUOUS
 10
15.7948183383
 20
11.3397707456
 11
15.7948183383
 21
11.1897707456
  0
LINE
  5
238
100
AcDbEntity
  8
0
100
AcDbLine
 62
9
  6
CONTINUOUS
 10
15.9630760051
 20
11.1597707456
 11
15.9630760051
 21
11.1897707456
  0
LINE
  5
239
100
AcDbEntity
  8
0
100
AcDbLine
 62
9
  6
CONTINUOUS
 10
15.9630760051
 20
11.3397707456
 11
15.9630760051
 21
11.3697707456
  0
LINE
  5
23A
100
AcDbEntity
  8
0
100
AcDbLine
 62
9
  6
CONTINUOUS
 10
18.1598183383
 20
11.1897707456
 11
18.1598183383
 21
11.2197707456
  0
LINE
  5
23B
100
AcDbEntity
  8
0
100
AcDbLine
 62
9
  6
CONTINUOUS
 10
18.1598183383
 20
11.3097707456
 11
18.1598183383
 21
11.3397707456
  0
LINE
  5
23C
100
AcDbEntity
  8
0
100
AcDbLine
 62
7
  6
CONTINUOUS
 10
21.230241015
 20
11.0317252633
 11
21.2302861312
 21
11.0318148575
  0
LINE
  5
23D
100
AcDbEntity
  8
0
100
AcDbLine
 62
7
  6
CONTINUOUS
 10
20.2348183383
 20
5.2085704607
 11
20.2348183383
 21
10.6594093908
  0
LINE
  5
23E
100
AcDbEntity
  8
0
100
AcDbLine
 62
7
  6
CONTINUOUS
 10
20.2448183383
 20
10.9679474436
 11
20.2448183383
 21
10.8843850543
  0
LINE
  5
23F
100
AcDbEntity
  8
0
100
AcDbLine
 62
7
  6
CONTINUOUS
 10
20.2473183383
 20
10.996557393
 11
20.2473183383
 21
11.2647707456
  0
LINE
  5
240
100
AcDbEntity
  8
0
100
AcDbLine
 62
7
  6
CONTINUOUS
 10
20.2648183383
 20
10.7848392509
 11
20.2648183383
 21
10.990531286
  0
LINE
  5
241
100
AcDbEntity
  8
0
100
AcDbLine
 62
7
  6
CONTINUOUS
 10
20.2748183383
 20
5.2746263086
 11
20.2748183383
 21
5.2021425847
  0
LINE
  5
242
100
AcDbEntity
  8
0
100
AcDbLine
 62
7
  6
CONTINUOUS
 10
21.1948183383
 20
5.2749696042
 11
21.1948183383
 21
5.2021425847
  0
LINE
  5
243
100
AcDbEntity
  8
0
100
AcDbLine
 62
7
  6
CONTINUOUS
 10
21.2048183383
 20
10.990531286
 11
21.2048183383
 21
10.7848392509
  0
LINE
  5
244
100
AcDbEntity
  8
0
100
AcDbLine
 62
7
  6
CONTINUOUS
 10
21.2223183383
 20
10.9976151752
 11
21.2223183383
 21
11.2647707456
  0
LINE
  5
245
100
AcDbEntity
  8
0
100
AcDbLine
 62
7
  6
CONTINUOUS
 10
21.2248183383
 20
10.9679474436
 11
21.2248183383
 21
10.8843850543
  0
LINE
  5
246
100
AcDbEntity
  8
0
100
AcDbLine
 62
7
  6
CONTINUOUS
 10
21.2348183383
 20
5.2085704608
 11
21.2348183383
 21
10.6594093909
  0
ARC
  5
247
100
AcDbEntity
  8
0
100
AcDbCircle
 62
7
  6
CONTINUOUS
 10
6.7348183383
 20
3.0147707456
 40
0.4375
100
AcDbArc
 50
180.0
 51
360.0
  0
ARC
  5
248
100
AcDbEntity
  8
0
100
AcDbCircle
 62
9
  6
CONTINUOUS
 10
2.7048183383
 20
11.2197707456
 40
0.0599999992
100
AcDbArc
 50
270.0066888295
 51
0.0000054508
  0
ARC
  5
249
100
AcDbEntity
  8
0
100
AcDbCircle
 62
7
  6
CONTINUOUS
 10
2.4418139654
 20
11.1597707456
 40
0.03
100
AcDbArc
 50
19.7154670857
 51
89.9999999934
  0
ARC
  5
24A
100
AcDbEntity
  8
0
100
AcDbCircle
 62
7
  6
CONTINUOUS
 10
2.7048183383
 20
11.2197707456
 40
0.03
100
AcDbArc
 50
270.0
 51
359.9999999734
  0
ARC
  5
24B
100
AcDbEntity
  8
0
100
AcDbCircle
 62
7
  6
CONTINUOUS
 10
2.7348183383
 20
11.2647707456
 40
1.0
100
AcDbArc
 50
184.3105218964
 51
175.688828598
  0
ARC
  5
24C
100
AcDbEntity
  8
0
100
AcDbCircle
 62
9
  6
CONTINUOUS
 10
2.7348183383
 20
11.2647707456
 40
0.97
100
AcDbArc
 50
184.4515257136
 51
175.5472284936
  0
ARC
  5
24D
100
AcDbEntity
  8
0
100
AcDbCircle
 62
7
  6
CONTINUOUS
 10
2.7348183383
 20
11.2647707456
 40
0.375
100
AcDbArc
 50
191.5696893249
 51
168.4334620251
  0
ARC
  5
24E
100
AcDbEntity
  8
0
100
AcDbCircle
 62
9
  6
CONTINUOUS
 10
2.7348183383
 20
11.2647707456
 40
0.345
100
AcDbArc
 50
192.5961716857
 51
167.4096562816
  0
ARC
  5
24F
100
AcDbEntity
  8
0
100
AcDbCircle
 62
7
  6
CONTINUOUS
 10
2.7348183383
 20
11.2647707456
 40
0.28125
100
AcDbArc
 50
199.715467086
 51
160.2845329139
  0
ARC
  5
250
100
AcDbEntity
  8
0
100
AcDbCircle
 62
9
  6
CONTINUOUS
 10
2.7348183383
 20
11.2647707456
 40
0.25125
100
AcDbArc
 50
204.7031864562
 51
155.2967955339
  0
ARC
  5
251
100
AcDbEntity
  8
0
100
AcDbCircle
 62
7
  6
CONTINUOUS
 10
0.3098183383
 20
11.2647707456
 40
0.075
100
AcDbArc
 50
90.0
 51
270.0000000435
  0
ARC
  5
252
100
AcDbEntity
  8
0
100
AcDbCircle
 62
9
  6
CONTINUOUS
 10
2.7048183383
 20
11.3097707456
 40
0.0599999992
100
AcDbArc
 50
359.999994914
 51
90.0067061412
  0
ARC
  5
253
100
AcDbEntity
  8
0
100
AcDbCircle
 62
9
  6
CONTINUOUS
 10
0.3098183383
 20
11.2647707456
 40
0.045
100
AcDbArc
 50
90.0
 51
270.0
  0
ARC
  5
254
100
AcDbEntity
  8
0
100
AcDbCircle
 62
7
  6
CONTINUOUS
 10
2.7048183383
 20
11.3097707456
 40
0.03
100
AcDbArc
 50
0.0000002174
 51
90.0
  0
ARC
  5
255
100
AcDbEntity
  8
0
100
AcDbCircle
 62
7
  6
CONTINUOUS
 10
2.4418139654
 20
11.3697707456
 40
0.03
100
AcDbArc
 50
270.0000000072
 51
340.2845329143
  0
ARC
  5
256
100
AcDbEntity
  8
0
100
AcDbCircle
 62
7
  6
CONTINUOUS
 10
6.7348183383
 20
11.2647707456
 40
1.125
100
AcDbArc
 50
292.9418019211
 51
247.058973494
  0
ARC
  5
257
100
AcDbEntity
  8
0
100
AcDbCircle
 62
9
  6
CONTINUOUS
 10
6.7348183383
 20
11.2647707456
 40
1.095
100
AcDbArc
 50
293.6086430066
 51
246.3913438243
  0
ARC
  5
258
100
AcDbEntity
  8
0
100
AcDbCircle
 62
7
  6
CONTINUOUS
 10
6.7348183383
 20
11.2647707456
 40
0.675
100
AcDbArc
 50
310.5504381508
 51
229.4468476508
  0
ARC
  5
259
100
AcDbEntity
  8
0
100
AcDbCircle
 62
7
  6
CONTINUOUS
 10
6.7348183383
 20
11.2647707456
 40
0.6625
100
AcDbArc
 50
311.3732194769
 51
228.5878390951
  0
ARC
  5
25A
100
AcDbEntity
  8
0
100
AcDbCircle
 62
9
  6
CONTINUOUS
 10
6.7348183383
 20
11.2647707456
 40
0.6325
100
AcDbArc
 50
313.8835011267
 51
226.1633087638
  0
ARC
  5
25B
100
AcDbEntity
  8
0
100
AcDbCircle
 62
7
  6
CONTINUOUS
 10
6.7348183383
 20
11.2647707456
 40
0.442
100
AcDbArc
 50
353.3149196593
 51
186.7207001957
  0
ARC
  5
25C
100
AcDbEntity
  8
0
100
AcDbCircle
 62
7
  6
CONTINUOUS
 10
6.7348183383
 20
11.2647707456
 40
0.4375
100
AcDbArc
 50
0.0
 51
180.0
  0
ARC
  5
25D
100
AcDbEntity
  8
0
100
AcDbCircle
 62
7
  6
CONTINUOUS
 10
20.734818445
 20
5.4433446784
 40
0.5959220932
100
AcDbArc
 50
269.7815492738
 51
269.9999897362
  0
ARC
  5
25E
100
AcDbEntity
  8
0
100
AcDbCircle
 62
9
  6
CONTINUOUS
 10
20.7348183368
 20
5.4384258229
 40
0.5874311138
100
AcDbArc
 50
269.795516259
 51
270.0000001478
  0
ARC
  5
25F
100
AcDbEntity
  8
0
100
AcDbCircle
 62
9
  6
CONTINUOUS
 10
20.7348183398
 20
4.9530035942
 40
0.5874311138
100
AcDbArc
 50
89.795516259
 51
90.0000001478
  0
ARC
  5
260
100
AcDbEntity
  8
0
100
AcDbCircle
 62
7
  6
CONTINUOUS
 10
20.9374477856
 20
5.2086098291
 40
0.2973710579
100
AcDbArc
 50
356.6172988868
 51
358.5156696603
  0
ARC
  5
261
100
AcDbEntity
  8
0
100
AcDbCircle
 62
7
  6
CONTINUOUS
 10
20.530856536
 20
5.2085730649
 40
0.2960381977
100
AcDbArc
 50
180.0005040105
 51
181.4839812442
  0
ARC
  5
262
100
AcDbEntity
  8
0
100
AcDbCircle
 62
7
  6
CONTINUOUS
 10
20.9387802486
 20
5.2085730654
 40
0.2960380897
100
AcDbArc
 50
358.5161023898
 51
359.9994958944
  0
ARC
  5
263
100
AcDbEntity
  8
0
100
AcDbCircle
 62
9
  6
CONTINUOUS
 10
20.9371819677
 20
5.2021435711
 40
0.2876363705
100
AcDbArc
 50
358.018315405
 51
359.9998035107
  0
ARC
  5
264
100
AcDbEntity
  8
0
100
AcDbCircle
 62
9
  6
CONTINUOUS
 10
20.5324547088
 20
5.2021415982
 40
0.2876363705
100
AcDbArc
 50
178.018315405
 51
179.9998035107
  0
ARC
  5
265
100
AcDbEntity
  8
0
100
AcDbCircle
 62
7
  6
CONTINUOUS
 10
20.5518467253
 20
5.2002465674
 40
0.2872033296
100
AcDbArc
 50
164.4161763236
 51
164.6930475129
  0
ARC
  5
266
100
AcDbEntity
  8
0
100
AcDbCircle
 62
7
  6
CONTINUOUS
 10
20.9178561789
 20
5.2002630623
 40
0.2871351705
100
AcDbArc
 50
15.3070723055
 51
15.5123618688
  0
ARC
  5
267
100
AcDbEntity
  8
0
100
AcDbCircle
 62
7
  6
CONTINUOUS
 10
20.5449399492
 20
5.2018319031
 40
0.2801232102
100
AcDbArc
 50
164.6328675869
 51
179.6594292087
  0
ARC
  5
268
100
AcDbEntity
  8
0
100
AcDbCircle
 62
7
  6
CONTINUOUS
 10
20.9247034601
 20
5.201833135
 40
0.2801164644
100
AcDbArc
 50
0.3390685503
 51
15.367055299
  0
ARC
  5
269
100
AcDbEntity
  8
0
100
AcDbCircle
 62
7
  6
CONTINUOUS
 10
20.930942144
 20
5.2021426693
 40
0.2738761943
100
AcDbArc
 50
359.7166397011
 51
0.2820567597
  0
ARC
  5
26A
100
AcDbEntity
  8
0
100
AcDbCircle
 62
7
  6
CONTINUOUS
 10
20.5386945322
 20
5.2021425001
 40
0.2738761939
100
AcDbArc
 50
179.716639701
 51
180.2820567597
  0
ARC
  5
26B
100
AcDbEntity
  8
0
100
AcDbCircle
 62
7
  6
CONTINUOUS
 10
11.0278227111
 20
11.1597707456
 40
0.03
100
AcDbArc
 50
90.0000000072
 51
160.2845329143
  0
ARC
  5
26C
100
AcDbEntity
  8
0
100
AcDbCircle
 62
7
  6
CONTINUOUS
 10
10.7348183383
 20
11.2647707456
 40
1.0
100
AcDbArc
 50
4.3105218964
 51
355.688828598
  0
ARC
  5
26D
100
AcDbEntity
  8
0
100
AcDbCircle
 62
9
  6
CONTINUOUS
 10
10.7348183383
 20
11.2647707456
 40
0.97
100
AcDbArc
 50
4.4515257136
 51
355.5472284936
  0
ARC
  5
26E
100
AcDbEntity
  8
0
100
AcDbCircle
 62
7
  6
CONTINUOUS
 10
10.7348183383
 20
11.2647707456
 40
0.375
100
AcDbArc
 50
11.5696893249
 51
348.4334620251
  0
ARC
  5
26F
100
AcDbEntity
  8
0
100
AcDbCircle
 62
9
  6
CONTINUOUS
 10
10.7348183383
 20
11.2647707456
 40
0.345
100
AcDbArc
 50
12.5961716857
 51
347.4096562816
  0
ARC
  5
270
100
AcDbEntity
  8
0
100
AcDbCircle
 62
7
  6
CONTINUOUS
 10
10.7348183383
 20
11.2647707456
 40
0.28125
100
AcDbArc
 50
19.715467086
 51
340.2845329139
  0
ARC
  5
271
100
AcDbEntity
  8
0
100
AcDbCircle
 62
9
  6
CONTINUOUS
 10
10.7348183383
 20
11.2647707456
 40
0.25125
100
AcDbArc
 50
24.7031864562
 51
335.2967955339
  0
ARC
  5
272
100
AcDbEntity
  8
0
100
AcDbCircle
 62
7
  6
CONTINUOUS
 10
13.1598183383
 20
11.2647707456
 40
0.075
100
AcDbArc
 50
270.0
 51
90.0000000435
  0
ARC
  5
273
100
AcDbEntity
  8
0
100
AcDbCircle
 62
9
  6
CONTINUOUS
 10
10.7648183383
 20
11.2197707456
 40
0.0599999992
100
AcDbArc
 50
179.999994914
 51
270.0067061412
  0
ARC
  5
274
100
AcDbEntity
  8
0
100
AcDbCircle
 62
9
  6
CONTINUOUS
 10
13.1598183383
 20
11.2647707456
 40
0.045
100
AcDbArc
 50
270.0
 51
90.0
  0
ARC
  5
275
100
AcDbEntity
  8
0
100
AcDbCircle
 62
7
  6
CONTINUOUS
 10
10.7648183383
 20
11.2197707456
 40
0.03
100
AcDbArc
 50
180.0000002174
 51
270.0
  0
ARC
  5
276
100
AcDbEntity
  8
0
100
AcDbCircle
 62
9
  6
CONTINUOUS
 10
10.7648183383
 20
11.3097707456
 40
0.0599999992
100
AcDbArc
 50
90.0066888295
 51
180.0000054508
  0
ARC
  5
277
100
AcDbEntity
  8
0
100
AcDbCircle
 62
7
  6
CONTINUOUS
 10
11.0278227111
 20
11.3697707456
 40
0.03
100
AcDbArc
 50
199.7154670857
 51
269.9999999934
  0
ARC
  5
278
100
AcDbEntity
  8
0
100
AcDbCircle
 62
7
  6
CONTINUOUS
 10
10.7648183383
 20
11.3097707456
 40
0.03
100
AcDbArc
 50
90.0
 51
179.9999999734
  0
ARC
  5
279
100
AcDbEntity
  8
0
100
AcDbCircle
 62
7
  6
CONTINUOUS
 10
15.7348183383
 20
11.2647707456
 40
1.0
100
AcDbArc
 50
4.3105218964
 51
355.688828598
  0
ARC
  5
27A
100
AcDbEntity
  8
0
100
AcDbCircle
 62
9
  6
CONTINUOUS
 10
15.7348183383
 20
11.2647707456
 40
0.97
100
AcDbArc
 50
4.4515257136
 51
355.5472284936
  0
ARC
  5
27B
100
AcDbEntity
  8
0
100
AcDbCircle
 62
7
  6
CONTINUOUS
 10
15.7348183383
 20
11.2647707456
 40
0.375
100
AcDbArc
 50
11.5696893249
 51
348.4334620251
  0
ARC
  5
27C
100
AcDbEntity
  8
0
100
AcDbCircle
 62
9
  6
CONTINUOUS
 10
15.7348183383
 20
11.2647707456
 40
0.345
100
AcDbArc
 50
12.5961716857
 51
347.4096562816
  0
ARC
  5
27D
100
AcDbEntity
  8
0
100
AcDbCircle
 62
7
  6
CONTINUOUS
 10
15.7348183383
 20
11.2647707456
 40
0.28125
100
AcDbArc
 50
19.715467086
 51
340.2845329139
  0
ARC
  5
27E
100
AcDbEntity
  8
0
100
AcDbCircle
 62
9
  6
CONTINUOUS
 10
15.7348183383
 20
11.2647707456
 40
0.25125
100
AcDbArc
 50
24.7031864562
 51
335.2967955339
  0
ARC
  5
27F
100
AcDbEntity
  8
0
100
AcDbCircle
 62
9
  6
CONTINUOUS
 10
15.7648183383
 20
11.2197707456
 40
0.0599999992
100
AcDbArc
 50
179.999994914
 51
270.0067061412
  0
ARC
  5
280
100
AcDbEntity
  8
0
100
AcDbCircle
 62
7
  6
CONTINUOUS
 10
15.7648183383
 20
11.2197707456
 40
0.03
100
AcDbArc
 50
180.0000002174
 51
270.0
  0
ARC
  5
281
100
AcDbEntity
  8
0
100
AcDbCircle
 62
9
  6
CONTINUOUS
 10
15.7648183383
 20
11.3097707456
 40
0.0599999992
100
AcDbArc
 50
90.0066888295
 51
180.0000054508
  0
ARC
  5
282
100
AcDbEntity
  8
0
100
AcDbCircle
 62
7
  6
CONTINUOUS
 10
15.7648183383
 20
11.3097707456
 40
0.03
100
AcDbArc
 50
90.0
 51
179.9999999734
  0
ARC
  5
283
100
AcDbEntity
  8
0
100
AcDbCircle
 62
7
  6
CONTINUOUS
 10
20.9193291778
 20
10.9772449095
 40
0.303405341
100
AcDbArc
 50
17.0229862296
 51
18.1747997033
  0
ARC
  5
284
100
AcDbEntity
  8
0
100
AcDbCircle
 62
7
  6
CONTINUOUS
 10
20.5498942701
 20
10.9773759665
 40
0.3029718483
100
AcDbArc
 50
161.8377044367
 51
163.014815827
  0
ARC
  5
285
100
AcDbEntity
  8
0
100
AcDbCircle
 62
7
  6
CONTINUOUS
 10
20.9264472434
 20
10.9793073661
 40
0.2959953623
100
AcDbArc
 50
10.185812114
 51
17.0446189473
  0
ARC
  5
286
100
AcDbEntity
  8
0
100
AcDbCircle
 62
7
  6
CONTINUOUS
 10
20.5431588535
 20
10.97931409
 40
0.2959640771
100
AcDbArc
 50
162.9927472222
 51
169.8135596932
  0
ARC
  5
287
100
AcDbEntity
  8
0
100
AcDbCircle
 62
7
  6
CONTINUOUS
 10
20.9372688709
 20
10.9679474286
 40
0.2875494674
100
AcDbArc
 50
0.0000029746
 51
0.4902043384
  0
ARC
  5
288
100
AcDbEntity
  8
0
100
AcDbCircle
 62
7
  6
CONTINUOUS
 10
16.0278227111
 20
11.1597707456
 40
0.03
100
AcDbArc
 50
90.0000000072
 51
160.2845329143
  0
ARC
  5
289
100
AcDbEntity
  8
0
100
AcDbCircle
 62
7
  6
CONTINUOUS
 10
18.1598183383
 20
11.2647707456
 40
0.075
100
AcDbArc
 50
270.0
 51
90.0000000435
  0
ARC
  5
28A
100
AcDbEntity
  8
0
100
AcDbCircle
 62
9
  6
CONTINUOUS
 10
18.1598183383
 20
11.2647707456
 40
0.045
100
AcDbArc
 50
270.0
 51
90.0
  0
ARC
  5
28B
100
AcDbEntity
  8
0
100
AcDbCircle
 62
7
  6
CONTINUOUS
 10
16.0278227111
 20
11.3697707456
 40
0.03
100
AcDbArc
 50
199.7154670857
 51
269.9999999934
  0
ARC
  5
28C
100
AcDbEntity
  8
0
100
AcDbCircle
 62
7
  6
CONTINUOUS
 10
20.7348183383
 20
11.2647707456
 40
1.125
100
AcDbArc
 50
296.4107630701
 51
243.5832235742
  0
ARC
  5
28D
100
AcDbEntity
  8
0
100
AcDbCircle
 62
9
  6
CONTINUOUS
 10
20.7348183383
 20
11.2647707456
 40
1.105
100
AcDbArc
 50
296.9195783281
 51
243.0809552167
  0
ARC
  5
28E
100
AcDbEntity
  8
0
100
AcDbCircle
 62
7
  6
CONTINUOUS
 10
20.7348183383
 20
11.2647707456
 40
0.6225
100
AcDbArc
 50
322.0653089932
 51
217.9427026793
  0
ARC
  5
28F
100
AcDbEntity
  8
0
100
AcDbCircle
 62
7
  6
CONTINUOUS
 10
20.7348183383
 20
11.2647707456
 40
0.62
100
AcDbArc
 50
322.1749300889
 51
358.6136765213
  0
ARC
  5
290
100
AcDbEntity
  8
0
100
AcDbCircle
 62
7
  6
CONTINUOUS
 10
20.7348183383
 20
11.2647707456
 40
0.62
100
AcDbArc
 50
1.3863234787
 51
217.8268152368
  0
ARC
  5
291
100
AcDbEntity
  8
0
100
AcDbCircle
 62
7
  6
CONTINUOUS
 10
20.7348183383
 20
11.2647707456
 40
0.5475
100
AcDbArc
 50
333.0747381113
 51
206.9252618887
  0
ARC
  5
292
100
AcDbEntity
  8
0
100
AcDbCircle
 62
9
  6
CONTINUOUS
 10
20.7348183383
 20
11.2647707456
 40
0.5175
100
AcDbArc
 50
340.6469977057
 51
199.3530022943
  0
ARC
  5
293
100
AcDbEntity
  8
0
100
AcDbCircle
 62
7
  6
CONTINUOUS
 10
20.7348183383
 20
11.2647707456
 40
0.4875
100
AcDbArc
 50
0.0
 51
180.0
  0
SPLINE
  5
294
100
AcDbEntity
  8
0
100
AcDbSpline
 62
7
  6
CONTINUOUS
 70
0
 71
3
 72
11
 73
7
 74
0
 42
0.0000001
 43
0.0000001
 44
0.0000000001
 40
0.0
 40
0.0
 40
0.0
 40
0.0
 40
0.2528165065
 40
0.5032445638
 40
0.7520472989
 40
1.0
 40
1.0
 40
1.0
 40
1.0
 10
20.2634008473
 20
10.7819940705
 30
0.0
 10
20.2603418548
 20
10.7902592352
 30
0.0
 10
20.2549509822
 20
10.8069804156
 30
0.0
 10
20.2491143082
 20
10.8325724585
 30
0.0
 10
20.2456013236
 20
10.8584148623
 30
0.0
 10
20.2448183383
 20
10.8757415243
 30
0.0
 10
20.2448183383
 20
10.8843850543
 30
0.0
  0
SPLINE
  5
295
100
AcDbEntity
  8
0
100
AcDbSpline
 62
7
  6
CONTINUOUS
 70
0
 71
3
 72
11
 73
7
 74
0
 42
0.0000001
 43
0.0000001
 44
0.0000000001
 40
0.0
 40
0.0
 40
0.0
 40
0.0
 40
0.2479522991
 40
0.4967547923
 40
0.7471829582
 40
1.0
 40
1.0
 40
1.0
 40
1.0
 10
21.2248183383
 20
10.8843850543
 30
0.0
 10
21.2248183383
 20
10.8757406167
 30
0.0
 10
21.2240351881
 20
10.8584121276
 30
0.0
 10
21.2205214644
 20
10.8325670297
 30
0.0
 10
21.2146835672
 20
10.8069723738
 30
0.0
 10
21.2092915776
 20
10.7902495564
 30
0.0
 10
21.2062319549
 20
10.781983603
 30
0.0
  0
SPLINE
  5
296
100
AcDbEntity
  8
0
100
AcDbSpline
 62
7
  6
CONTINUOUS
 70
0
 71
3
 72
52
 73
48
 74
0
 42
0.0000001
 43
0.0000001
 44
0.0000000001
 40
0.0
 40
0.0
 40
0.0
 40
0.0
 40
0.0137349158
 40
0.0274951679
 40
0.0412963256
 40
0.0551554718
 40
0.0690911612
 40
0.083120921
 40
0.1115130055
 40
0.1404539236
 40
0.1551634056
 40
0.1700398806
 40
0.200307569
 40
0.2157160006
 40
0.2313060073
 40
0.2630176828
 40
0.2954249391
 40
0.3284762588
 40
0.3620981333
 40
0.3961981775
 40
0.4306690628
 40
0.4480099678
 40
0.4653983053
 40
0.5002469076
 40
0.5350910955
 40
0.5524739563
 40
0.5698072453
 40
0.6042567339
 40
0.6383277187
 40
0.6719137882
 40
0.6884993489
 40
0.7049311078
 40
0.7372927654
 40
0.7689562205
 40
0.7845217225
 40
0.7999056679
 40
0.830125383
 40
0.8449789024
 40
0.8596664339
 40
0.8885673277
 40
0.9169260412
 40
0.9309421237
 40
0.9448664294
 40
0.9587166488
 40
0.9725113696
 40
0.9862672993
 40
1.0
 40
1.0
 40
1.0
 40
1.0
 10
21.2248075027
 20
10.9704761243
 30
0.0
 10
21.2247537761
 20
10.9767458738
 30
0.0
 10
21.2242460196
 20
10.9892971287
 30
0.0
 10
21.2222910834
 20
11.0080592466
 30
0.0
 10
21.2191464593
 20
11.0267172698
 30
0.0
 10
21.2148205702
 20
11.045218938
 30
0.0
 10
21.2093294596
 20
11.0635182141
 30
0.0
 10
21.2004400903
 20
11.0876751782
 30
0.0
 10
21.1864416652
 20
11.117181574
 30
0.0
 10
21.1689737104
 20
11.1451324818
 30
0.0
 10
21.1529975541
 20
11.1665611121
 30
0.0
 10
21.1355057035
 20
11.1875654712
 30
0.0
 10
21.1161569029
 20
11.2073867111
 30
0.0
 10
21.0951840691
 20
11.2259017694
 30
0.0
 10
21.0728241558
 20
11.243793866
 30
0.0
 10
21.042819485
 20
11.2644783971
 30
0.0
 10
21.0041368578
 20
11.2863010066
 30
0.0
 10
20.9629306287
 20
11.3050812286
 30
0.0
 10
20.9195895429
 20
11.3206534956
 30
0.0
 10
20.874520922
 20
11.3328825242
 30
0.0
 10
20.8359451343
 20
11.3401848646
 30
0.0
 10
20.8046146961
 20
11.3442748839
 30
0.0
 10
20.7729796489
 20
11.3471889531
 30
0.0
 10
20.7332116319
 20
11.3485849122
 30
0.0
 10
20.6934536872
 20
11.346987441
 30
0.0
 10
20.6618418472
 20
11.3439128298
 30
0.0
 10
20.6305484534
 20
11.3396641864
 30
0.0
 10
20.5920366918
 20
11.332166744
 30
0.0
 10
20.5470728046
 20
11.319709431
 30
0.0
 10
20.5109088601
 20
11.3064921775
 30
0.0
 10
20.483052408
 20
11.2942886786
 30
0.0
 10
20.4562383946
 20
11.2811654807
 30
0.0
 10
20.4243134552
 20
11.2629048988
 30
0.0
 10
20.3944827113
 20
11.2420658049
 30
0.0
 10
20.3722728944
 20
11.2240578121
 30
0.0
 10
20.3514559934
 20
11.205433908
 30
0.0
 10
20.3322738777
 20
11.1855112877
 30
0.0
 10
20.3149595266
 20
11.1644151253
 30
0.0
 10
20.2991637851
 20
11.142901161
 30
0.0
 10
20.2819315186
 20
11.11485499
 30
0.0
 10
20.2681841968
 20
11.0852742212
 30
0.0
 10
20.2595013771
 20
11.0610705413
 30
0.0
 10
20.2541661554
 20
11.0427413355
 30
0.0
 10
20.2499981752
 20
11.024215931
 30
0.0
 10
20.2470133869
 20
11.0055407554
 30
0.0
 10
20.2452186716
 20
10.9867685799
 30
0.0
 10
20.2448183383
 20
10.9742164121
 30
0.0
 10
20.2448183383
 20
10.9679474436
 30
0.0
  0
SPLINE
  5
297
100
AcDbEntity
  8
0
100
AcDbSpline
 62
7
  6
CONTINUOUS
 70
0
 71
3
 72
11
 73
7
 74
0
 42
0.0000001
 43
0.0000001
 44
0.0000000001
 40
0.0
 40
0.0
 40
0.0
 40
0.0
 40
0.2530104036
 40
0.5034786368
 40
0.7521936922
 40
1.0
 40
1.0
 40
1.0
 40
1.0
 10
21.2048183383
 20
10.990531286
 30
0.0
 10
21.2081076728
 20
10.9819843735
 30
0.0
 10
21.213907009
 20
10.9646774394
 30
0.0
 10
21.2201914218
 20
10.9381481179
 30
0.0
 10
21.2239749677
 20
10.9113380579
 30
0.0
 10
21.2248183383
 20
10.8933547113
 30
0.0
 10
21.2248183383
 20
10.8843850543
 30
0.0
  0
SPLINE
  5
298
100
AcDbEntity
  8
0
100
AcDbSpline
 62
9
  6
CONTINUOUS
 70
0
 71
3
 72
32
 73
28
 74
0
 42
0.0000001
 43
0.0000001
 44
0.0000000001
 40
0.0
 40
0.0
 40
0.0
 40
0.0
 40
0.026978865
 40
0.0540231323
 40
0.0811653689
 40
0.1084415384
 40
0.1358945659
 40
0.1635661347
 40
0.2196831223
 40
0.2770583298
 40
0.3062873951
 40
0.3358938074
 40
0.3962636783
 40
0.4270594191
 40
0.4582572913
 40
0.5218255749
 40
0.5869164629
 40
0.6200043923
 40
0.6534233972
 40
0.7211511767
 40
0.7554227942
 40
0.7899247308
 40
0.8246269723
 40
0.85949813
 40
0.8945059905
 40
0.9296170929
 40
1.0
 40
1.0
 40
1.0
 40
1.0
 10
21.2248078141
 20
10.9704075798
 30
0.0
 10
21.224755493
 20
10.9765228026
 30
0.0
 10
21.2242585431
 20
10.9887682739
 30
0.0
 10
21.2223439887
 20
11.0070783738
 30
0.0
 10
21.2192635052
 20
11.0252978615
 30
0.0
 10
21.2150221947
 20
11.0433772101
 30
0.0
 10
21.2096332529
 20
11.061273976
 30
0.0
 10
21.2008952393
 20
11.0849414481
 30
0.0
 10
21.187107023
 20
11.1139057261
 30
0.0
 10
21.1698850301
 20
11.1413769033
 30
0.0
 10
21.154105243
 20
11.1624834553
 30
0.0
 10
21.1367801112
 20
11.1832331784
 30
0.0
 10
21.1175933454
 20
11.2028395837
 30
0.0
 10
21.0967751787
 20
11.2211803055
 30
0.0
 10
21.0745283242
 20
11.2389491121
 30
0.0
 10
21.0446351956
 20
11.2595257961
 30
0.0
 10
21.012653227
 20
11.277553755
 30
0.0
 10
20.9857776567
 20
11.2905148639
 30
0.0
 10
20.9578340759
 20
11.3025749111
 30
0.0
 10
20.9289127853
 20
11.3129801301
 30
0.0
 10
20.8992222567
 20
11.3217097023
 30
0.0
 10
20.8764704949
 20
11.3274381711
 30
0.0
 10
20.8533815935
 20
11.3323089008
 30
0.0
 10
20.8300100084
 20
11.3363104939
 30
0.0
 10
20.8064106479
 20
11.3394316668
 30
0.0
 10
20.7746972453
 20
11.3424145161
 30
0.0
 10
20.7507713791
 20
11.3433089402
 30
0.0
 10
20.7348173012
 20
11.3433088833
 30
0.0
  0
SPLINE
  5
299
100
AcDbEntity
  8
0
100
AcDbSpline
 62
9
  6
CONTINUOUS
 70
0
 71
3
 72
32
 73
28
 74
0
 42
0.0000001
 43
0.0000001
 44
0.0000000001
 40
0.0
 40
0.0
 40
0.0
 40
0.0
 40
0.0704227742
 40
0.1055530675
 40
0.1405792219
 40
0.1754674576
 40
0.2101852822
 40
0.2447011064
 40
0.2789846331
 40
0.3467294902
 40
0.3801534732
 40
0.4132438463
 40
0.4783317273
 40
0.5418869531
 40
0.5730749072
 40
0.6038587343
 40
0.6641996729
 40
0.6937900988
 40
0.7230026599
 40
0.780345223
 40
0.8364345041
 40
0.8640958579
 40
0.891541818
 40
0.9188147527
 40
0.9459582936
 40
0.9730090438
 40
1.0
 40
1.0
 40
1.0
 40
1.0
 10
20.7348173012
 20
11.3433088833
 30
0.0
 10
20.7187965379
 20
11.3433088261
 30
0.0
 10
20.6947707108
 20
11.3424070131
 30
0.0
 10
20.6629264165
 20
11.3393989421
 30
0.0
 10
20.6392312265
 20
11.3362516268
 30
0.0
 10
20.6157666425
 20
11.332216808
 30
0.0
 10
20.5925883411
 20
11.3273054955
 30
0.0
 10
20.5697513381
 20
11.321529812
 30
0.0
 10
20.5399550973
 20
11.3127288865
 30
0.0
 10
20.5109376337
 20
11.3022392005
 30
0.0
 10
20.4829101592
 20
11.2900820274
 30
0.0
 10
20.4559632489
 20
11.2770184379
 30
0.0
 10
20.4239111183
 20
11.258850409
 30
0.0
 10
20.3939739017
 20
11.2381161996
 30
0.0
 10
20.3717118403
 20
11.2202144467
 30
0.0
 10
20.3508932953
 20
11.2017401828
 30
0.0
 10
20.3317256198
 20
11.1819939248
 30
0.0
 10
20.3144417461
 20
11.1611009701
 30
0.0
 10
20.2987177375
 20
11.1398526158
 30
0.0
 10
20.2815923492
 20
11.1122028076
 30
0.0
 10
20.2679408519
 20
11.0830625162
 30
0.0
 10
20.2593350505
 20
11.059260468
 30
0.0
 10
20.2540557717
 20
11.0412654095
 30
0.0
 10
20.2499351361
 20
11.0230913673
 30
0.0
 10
20.2469861605
 20
11.0047813544
 30
0.0
 10
20.2452136758
 20
10.9863854992
 30
0.0
 10
20.2448183383
 20
10.974087726
 30
0.0
 10
20.2448183383
 20
10.9679474436
 30
0.0
  0
SPLINE
  5
29A
100
AcDbEntity
  8
0
100
AcDbSpline
 62
9
  6
CONTINUOUS
 70
0
 71
3
 72
31
 73
27
 74
0
 42
0.0000001
 43
0.0000001
 44
0.0000000001
 40
0.0
 40
0.0
 40
0.0
 40
0.0
 40
0.0275018256
 40
0.055503529
 40
0.0840494874
 40
0.1131648032
 40
0.1730948332
 40
0.2039339464
 40
0.2353139473
 40
0.2672005841
 40
0.2995500849
 40
0.3653964715
 40
0.4323973826
 40
0.4999936742
 40
0.5675902539
 40
0.6345920123
 40
0.7004397536
 40
0.7327900956
 40
0.7646776644
 40
0.796058673
 40
0.8268988507
 40
0.8868311002
 40
0.9159475215
 40
0.9444945546
 40
0.9724972638
 40
1.0
 40
1.0
 40
1.0
 40
1.0
 10
20.2827937933
 20
10.8235814043
 30
0.0
 10
20.2874604228
 20
10.8321260278
 30
0.0
 10
20.297639144
 20
10.8489660317
 30
0.0
 10
20.3151256763
 20
10.873078445
 30
0.0
 10
20.3348720284
 20
10.8961381982
 30
0.0
 10
20.3643364096
 20
10.9255913948
 30
0.0
 10
20.3976759335
 20
10.9521345218
 30
0.0
 10
20.434101162
 20
10.9754790839
 30
0.0
 10
20.4633040454
 20
10.9915651098
 30
0.0
 10
20.4939628572
 20
11.0059645857
 30
0.0
 10
20.5368074523
 20
11.0229139056
 30
0.0
 10
20.5930716193
 20
11.0394092452
 30
0.0
 10
20.6631664682
 20
11.0513767457
 30
0.0
 10
20.7347838779
 20
11.0553973175
 30
0.0
 10
20.8064020171
 20
11.0513844346
 30
0.0
 10
20.8764990403
 20
11.039424464
 30
0.0
 10
20.9327661004
 20
11.0229352019
 30
0.0
 10
20.9756137252
 20
11.0059905372
 30
0.0
 10
21.006275173
 20
10.9915943629
 30
0.0
 10
21.0354810054
 20
10.9755114926
 30
0.0
 10
21.0719105401
 20
10.9521708383
 30
0.0
 10
21.1052549068
 20
10.9256313314
 30
0.0
 10
21.1347246789
 20
10.8961813308
 30
0.0
 10
21.1544752609
 20
10.8731237201
 30
0.0
 10
21.1719662119
 20
10.8490132082
 30
0.0
 10
21.1821480427
 20
10.8321742947
 30
0.0
 10
21.1868162477
 20
10.8236301646
 30
0.0
  0
SPLINE
  5
29B
100
AcDbEntity
  8
0
100
AcDbSpline
 62
7
  6
CONTINUOUS
 70
0
 71
3
 72
11
 73
7
 74
0
 42
0.0000001
 43
0.0000001
 44
0.0000000001
 40
0.0
 40
0.0
 40
0.0
 40
0.0
 40
0.2478063078
 40
0.4965213632
 40
0.7469895964
 40
1.0
 40
1.0
 40
1.0
 40
1.0
 10
20.2448183383
 20
10.8843850543
 30
0.0
 10
20.2448183383
 20
10.8933547113
 30
0.0
 10
20.2456617089
 20
10.9113380579
 30
0.0
 10
20.2494452547
 20
10.9381481179
 30
0.0
 10
20.2557296675
 20
10.9646774394
 30
0.0
 10
20.2615290037
 20
10.9819843735
 30
0.0
 10
20.2648183383
 20
10.990531286
 30
0.0
  0
SPLINE
  5
29C
100
AcDbEntity
  8
0
100
AcDbSpline
 62
7
  6
CONTINUOUS
 70
0
 71
3
 72
25
 73
21
 74
0
 42
0.0000001
 43
0.0000001
 44
0.0000000001
 40
0.0
 40
0.0
 40
0.0
 40
0.0
 40
0.0269931198
 40
0.0541897067
 40
0.0816144845
 40
0.1092879647
 40
0.1654367618
 40
0.2227757168
 40
0.2813896888
 40
0.3413258822
 40
0.4025914311
 40
0.4651588932
 40
0.5289670609
 40
0.593926617
 40
0.6599225585
 40
0.726813102
 40
0.7944377694
 40
0.8626390345
 40
0.9312439573
 40
1.0
 40
1.0
 40
1.0
 40
1.0
 10
20.2620172722
 20
11.0718152323
 30
0.0
 10
20.2636619605
 20
11.0768290308
 30
0.0
 10
20.2672262209
 20
11.0868104045
 30
0.0
 10
20.2733556762
 20
11.1015471058
 30
0.0
 10
20.2802772368
 20
11.11607689
 30
0.0
 10
20.2905911801
 20
11.1352305421
 30
0.0
 10
20.3054401784
 20
11.158543652
 30
0.0
 10
20.3261093302
 20
11.185145875
 30
0.0
 10
20.3495712115
 20
11.2103405447
 30
0.0
 10
20.3756642862
 20
11.2339539387
 30
0.0
 10
20.4042081134
 20
11.2558285685
 30
0.0
 10
20.4350069403
 20
11.2758166035
 30
0.0
 10
20.4678503824
 20
11.2937829134
 30
0.0
 10
20.5025135982
 20
11.3096081922
 30
0.0
 10
20.5387612518
 20
11.323182083
 30
0.0
 10
20.576343372
 20
11.3344174971
 30
0.0
 10
20.615006338
 20
11.3432349501
 30
0.0
 10
20.6544906722
 20
11.3495782083
 30
0.0
 10
20.6945185208
 20
11.3533966247
 30
0.0
 10
20.7213777842
 20
11.3542498618
 30
0.0
 10
20.7348183383
 20
11.3542498618
 30
0.0
  0
SPLINE
  5
29D
100
AcDbEntity
  8
0
100
AcDbSpline
 62
7
  6
CONTINUOUS
 70
0
 71
3
 72
25
 73
21
 74
0
 42
0.0000001
 43
0.0000001
 44
0.0000000001
 40
0.0
 40
0.0
 40
0.0
 40
0.0
 40
0.0687547072
 40
0.1373583577
 40
0.2055584698
 40
0.2731821417
 40
0.3400718965
 40
0.4060673
 40
0.4710265884
 40
0.5348347731
 40
0.5974025321
 40
0.6586686435
 40
0.7186056227
 40
0.7772205517
 40
0.8345605531
 40
0.8907103974
 40
0.9183843652
 40
0.9458095922
 40
0.9730065714
 40
1.0
 40
1.0
 40
1.0
 40
1.0
 10
20.7348183383
 20
11.3542498618
 30
0.0
 10
20.7482570171
 20
11.3542498618
 30
0.0
 10
20.7751125427
 20
11.3533968617
 30
0.0
 10
20.8151348953
 20
11.3495795075
 30
0.0
 10
20.854613961
 20
11.3432380041
 30
0.0
 10
20.8932719974
 20
11.3344229763
 30
0.0
 10
20.9308496306
 20
11.3231906182
 30
0.0
 10
20.9670933464
 20
11.3096203851
 30
0.0
 10
21.0017532645
 20
11.2937993002
 30
0.0
 10
21.0345941441
 20
11.2758376806
 30
0.0
 10
21.0653912126
 20
11.2558547468
 30
0.0
 10
21.0939341731
 20
11.2339855822
 30
0.0
 10
21.1200273141
 20
11.2103779133
 30
0.0
 10
21.1434902697
 20
11.1851891738
 30
0.0
 10
21.1641615168
 20
11.1585929718
 30
0.0
 10
21.179013181
 20
11.1352849206
 30
0.0
 10
21.1893297968
 20
11.1161352382
 30
0.0
 10
21.196253621
 20
11.1016083893
 30
0.0
 10
21.2023856156
 20
11.08687458
 30
0.0
 10
21.2059517533
 20
11.0768950853
 30
0.0
 10
21.2075974241
 20
11.0718822126
 30
0.0
  0
SPLINE
  5
29E
100
AcDbEntity
  8
0
100
AcDbSpline
 62
9
  6
CONTINUOUS
 70
0
 71
3
 72
26
 73
22
 74
0
 42
0.0000001
 43
0.0000001
 44
0.0000000001
 40
0.0
 40
0.0
 40
0.0
 40
0.0
 40
0.0269887899
 40
0.0540413802
 40
0.0811906021
 40
0.1084698568
 40
0.1635570599
 40
0.2196499447
 40
0.2769986609
 40
0.3357864403
 40
0.3657699567
 40
0.3961531292
 40
0.4581125429
 40
0.521674461
 40
0.5867685113
 40
0.6532746965
 40
0.7210277798
 40
0.7898180393
 40
0.8594148552
 40
0.9295848322
 40
1.0
 40
1.0
 40
1.0
 40
1.0
 10
21.2223183383
 20
11.1126996336
 30
0.0
 10
21.2223183383
 20
11.1188074952
 30
0.0
 10
21.2219247439
 20
11.1310412741
 30
0.0
 10
21.2201608546
 20
11.1493424733
 30
0.0
 10
21.2172275102
 20
11.167560964
 30
0.0
 10
21.2117455575
 20
11.1917457354
 30
0.0
 10
21.201952335
 20
11.2216025425
 30
0.0
 10
21.1857295251
 20
11.2562171338
 30
0.0
 10
21.1651669062
 20
11.2894269956
 30
0.0
 10
21.144708809
 20
11.3154956472
 30
0.0
 10
21.1264450999
 20
11.3353484453
 30
0.0
 10
21.1066736725
 20
11.3547411303
 30
0.0
 10
21.0796524145
 20
11.3775236794
 30
0.0
 10
21.0441391439
 20
11.4021177484
 30
0.0
 10
21.0056653995
 20
11.4239260484
 30
0.0
 10
20.9646005833
 20
11.4427393981
 30
0.0
 10
20.9213375071
 20
11.4583783819
 30
0.0
 10
20.8762927718
 20
11.4707010161
 30
0.0
 10
20.8298898942
 20
11.4795873049
 30
0.0
 10
20.7825829677
 20
11.4849489165
 30
0.0
 10
20.7507540694
 20
11.4861462997
 30
0.0
 10
20.7348183383
 20
11.4861462997
 30
0.0
  0
SPLINE
  5
29F
100
AcDbEntity
  8
0
100
AcDbSpline
 62
9
  6
CONTINUOUS
 70
0
 71
3
 72
26
 73
22
 74
0
 42
0.0000001
 43
0.0000001
 44
0.0000000001
 40
0.0
 40
0.0
 40
0.0
 40
0.0
 40
0.0704151678
 40
0.1405851448
 40
0.2101819607
 40
0.2789722202
 40
0.3467253035
 40
0.4132314887
 40
0.478325539
 40
0.5418874571
 40
0.6038468708
 40
0.6342300433
 40
0.6642135597
 40
0.7230013391
 40
0.7803500553
 40
0.8364429401
 40
0.8915301432
 40
0.9188093979
 40
0.9459586198
 40
0.9730112101
 40
1.0
 40
1.0
 40
1.0
 40
1.0
 10
20.7348183383
 20
11.4861462997
 30
0.0
 10
20.7188826072
 20
11.4861462997
 30
0.0
 10
20.6870537088
 20
11.4849489165
 30
0.0
 10
20.6397467824
 20
11.4795873049
 30
0.0
 10
20.5933439048
 20
11.4707010161
 30
0.0
 10
20.5482991695
 20
11.4583783819
 30
0.0
 10
20.5050360932
 20
11.4427393981
 30
0.0
 10
20.4639712771
 20
11.4239260484
 30
0.0
 10
20.4254975327
 20
11.4021177484
 30
0.0
 10
20.3899842621
 20
11.3775236794
 30
0.0
 10
20.3629630041
 20
11.3547411303
 30
0.0
 10
20.3431915767
 20
11.3353484453
 30
0.0
 10
20.3249278676
 20
11.3154956472
 30
0.0
 10
20.3044697703
 20
11.2894269956
 30
0.0
 10
20.2839071514
 20
11.2562171338
 30
0.0
 10
20.2676843416
 20
11.2216025425
 30
0.0
 10
20.257891119
 20
11.1917457354
 30
0.0
 10
20.2524091664
 20
11.167560964
 30
0.0
 10
20.2494758219
 20
11.1493424733
 30
0.0
 10
20.2477119327
 20
11.1310412741
 30
0.0
 10
20.2473183383
 20
11.1188074952
 30
0.0
 10
20.2473183383
 20
11.1126996336
 30
0.0
  0
SPLINE
  5
2A0
100
AcDbEntity
  8
0
100
AcDbSpline
 62
9
  6
CONTINUOUS
 70
0
 71
3
 72
18
 73
14
 74
0
 42
0.0000001
 43
0.0000001
 44
0.0000000001
 40
0.0
 40
0.0
 40
0.0
 40
0.0
 40
0.1934753199
 40
0.378316119
 40
0.5491082537
 40
0.7002227797
 40
0.8259909459
 40
0.8776321931
 40
0.9208556037
 40
0.9550353549
 40
0.9798134385
 40
0.994898744
 40
1.0
 40
1.0
 40
1.0
 40
1.0
 10
2.5065621437
 20
11.3697708413
 30
0.0
 10
2.5042367204
 20
11.369019235
 30
0.0
 10
2.4996767825
 20
11.3675891217
 30
0.0
 10
2.4930263105
 20
11.3656184793
 30
0.0
 10
2.4868615885
 20
11.3638947511
 30
0.0
 10
2.4813962952
 20
11.3624426629
 30
0.0
 10
2.4773740809
 20
11.3614215588
 30
0.0
 10
2.4746681725
 20
11.3607545067
 30
0.0
 10
2.4730840992
 20
11.3603702269
 30
0.0
 10
2.4718291456
 20
11.3600685773
 30
0.0
 10
2.4709190353
 20
11.3598530946
 30
0.0
 10
2.4703665059
 20
11.3597215697
 30
0.0
 10
2.4701178481
 20
11.3596650738
 30
0.0
 10
2.4700552226
 20
11.3596499057
 30
0.0
  0
SPLINE
  5
2A1
100
AcDbEntity
  8
0
100
AcDbSpline
 62
9
  6
CONTINUOUS
 70
0
 71
3
 72
18
 73
14
 74
0
 42
0.0000001
 43
0.0000001
 44
0.0000000001
 40
0.0
 40
0.0
 40
0.0
 40
0.0
 40
0.0051013273
 40
0.0201875514
 40
0.04496694
 40
0.0791479216
 40
0.1223722294
 40
0.1740145876
 40
0.299788612
 40
0.4509149522
 40
0.6217113869
 40
0.8065385833
 40
1.0
 40
1.0
 40
1.0
 40
1.0
 10
2.4700552222
 20
11.1698915863
 30
0.0
 10
2.4701178597
 20
11.1698764644
 30
0.0
 10
2.4703665024
 20
11.1698198542
 30
0.0
 10
2.4709190848
 20
11.1696884286
 30
0.0
 10
2.4718292218
 20
11.1694728768
 30
0.0
 10
2.4730842223
 20
11.1691712448
 30
0.0
 10
2.4746683314
 20
11.1687869492
 30
0.0
 10
2.4773743341
 20
11.1681198815
 30
0.0
 10
2.48139677
 20
11.1670987104
 30
0.0
 10
2.4868623156
 20
11.1656465236
 30
0.0
 10
2.4930270555
 20
11.1639227773
 30
0.0
 10
2.4996772388
 20
11.1619522283
 30
0.0
 10
2.5042368375
 20
11.160522218
 30
0.0
 10
2.5065620907
 20
11.159770668
 30
0.0
  0
SPLINE
  5
2A2
100
AcDbEntity
  8
0
100
AcDbSpline
 62
9
  6
CONTINUOUS
 70
0
 71
3
 72
18
 73
14
 74
0
 42
0.0000001
 43
0.0000001
 44
0.0000000001
 40
0.0
 40
0.0
 40
0.0
 40
0.0
 40
0.1934753199
 40
0.378316119
 40
0.5491082537
 40
0.7002227797
 40
0.8259909459
 40
0.8776321931
 40
0.9208556037
 40
0.9550353549
 40
0.9798134385
 40
0.994898744
 40
1.0
 40
1.0
 40
1.0
 40
1.0
 10
15.9630745328
 20
11.1597706499
 30
0.0
 10
15.9653999562
 20
11.1605222562
 30
0.0
 10
15.9699598941
 20
11.1619523695
 30
0.0
 10
15.9766103661
 20
11.1639230119
 30
0.0
 10
15.982775088
 20
11.1656467401
 30
0.0
 10
15.9882403813
 20
11.1670988284
 30
0.0
 10
15.9922625957
 20
11.1681199324
 30
0.0
 10
15.9949685041
 20
11.1687869845
 30
0.0
 10
15.9965525774
 20
11.1691712643
 30
0.0
 10
15.997807531
 20
11.1694729139
 30
0.0
 10
15.9987176413
 20
11.1696883966
 30
0.0
 10
15.9992701707
 20
11.1698199216
 30
0.0
 10
15.9995188285
 20
11.1698764174
 30
0.0
 10
15.999581454
 20
11.1698915855
 30
0.0
  0
SPLINE
  5
2A3
100
AcDbEntity
  8
0
100
AcDbSpline
 62
9
  6
CONTINUOUS
 70
0
 71
3
 72
18
 73
14
 74
0
 42
0.0000001
 43
0.0000001
 44
0.0000000001
 40
0.0
 40
0.0
 40
0.0
 40
0.0
 40
0.0051013273
 40
0.0201875514
 40
0.04496694
 40
0.0791479216
 40
0.1223722294
 40
0.1740145876
 40
0.299788612
 40
0.4509149522
 40
0.6217113869
 40
0.8065385833
 40
1.0
 40
1.0
 40
1.0
 40
1.0
 10
15.9995814543
 20
11.3596499049
 30
0.0
 10
15.9995188169
 20
11.3596650268
 30
0.0
 10
15.9992701742
 20
11.359721637
 30
0.0
 10
15.9987175918
 20
11.3598530626
 30
0.0
 10
15.9978074548
 20
11.3600686144
 30
0.0
 10
15.9965524542
 20
11.3603702464
 30
0.0
 10
15.9949683452
 20
11.360754542
 30
0.0
 10
15.9922623425
 20
11.3614216097
 30
0.0
 10
15.9882399066
 20
11.3624427808
 30
0.0
 10
15.9827743609
 20
11.3638949676
 30
0.0
 10
15.976609621
 20
11.3656187139
 30
0.0
 10
15.9699594377
 20
11.367589263
 30
0.0
 10
15.9653998391
 20
11.3690192732
 30
0.0
 10
15.9630745858
 20
11.3697708232
 30
0.0
  0
SPLINE
  5
2A4
100
AcDbEntity
  8
0
100
AcDbSpline
 62
9
  6
CONTINUOUS
 70
0
 71
3
 72
18
 73
14
 74
0
 42
0.0000001
 43
0.0000001
 44
0.0000000001
 40
0.0
 40
0.0
 40
0.0
 40
0.0
 40
0.1934753199
 40
0.378316119
 40
0.5491082537
 40
0.7002227797
 40
0.8259909459
 40
0.8776321931
 40
0.9208556037
 40
0.9550353549
 40
0.9798134385
 40
0.994898744
 40
1.0
 40
1.0
 40
1.0
 40
1.0
 10
10.9630745328
 20
11.1597706499
 30
0.0
 10
10.9653999562
 20
11.1605222562
 30
0.0
 10
10.9699598941
 20
11.1619523695
 30
0.0
 10
10.9766103661
 20
11.1639230119
 30
0.0
 10
10.982775088
 20
11.1656467401
 30
0.0
 10
10.9882403813
 20
11.1670988284
 30
0.0
 10
10.9922625957
 20
11.1681199324
 30
0.0
 10
10.9949685041
 20
11.1687869845
 30
0.0
 10
10.9965525774
 20
11.1691712643
 30
0.0
 10
10.997807531
 20
11.1694729139
 30
0.0
 10
10.9987176413
 20
11.1696883966
 30
0.0
 10
10.9992701707
 20
11.1698199216
 30
0.0
 10
10.9995188285
 20
11.1698764174
 30
0.0
 10
10.999581454
 20
11.1698915855
 30
0.0
  0
SPLINE
  5
2A5
100
AcDbEntity
  8
0
100
AcDbSpline
 62
9
  6
CONTINUOUS
 70
0
 71
3
 72
18
 73
14
 74
0
 42
0.0000001
 43
0.0000001
 44
0.0000000001
 40
0.0
 40
0.0
 40
0.0
 40
0.0
 40
0.0051013273
 40
0.0201875514
 40
0.04496694
 40
0.0791479216
 40
0.1223722294
 40
0.1740145876
 40
0.299788612
 40
0.4509149522
 40
0.6217113869
 40
0.8065385833
 40
1.0
 40
1.0
 40
1.0
 40
1.0
 10
10.9995814543
 20
11.3596499049
 30
0.0
 10
10.9995188169
 20
11.3596650268
 30
0.0
 10
10.9992701742
 20
11.359721637
 30
0.0
 10
10.9987175918
 20
11.3598530626
 30
0.0
 10
10.9978074548
 20
11.3600686144
 30
0.0
 10
10.9965524542
 20
11.3603702464
 30
0.0
 10
10.9949683452
 20
11.360754542
 30
0.0
 10
10.9922623425
 20
11.3614216097
 30
0.0
 10
10.9882399066
 20
11.3624427808
 30
0.0
 10
10.9827743609
 20
11.3638949676
 30
0.0
 10
10.976609621
 20
11.3656187139
 30
0.0
 10
10.9699594377
 20
11.367589263
 30
0.0
 10
10.9653998391
 20
11.3690192732
 30
0.0
 10
10.9630745858
 20
11.3697708232
 30
0.0
  0
SPLINE
  5
2A6
100
AcDbEntity
  8
0
100
AcDbSpline
 62
7
  6
CONTINUOUS
 70
0
 71
3
 72
30
 73
26
 74
0
 42
0.0000001
 43
0.0000001
 44
0.0000000001
 40
0.0
 40
0.0
 40
0.0
 40
0.0
 40
0.0700324572
 40
0.1398095723
 40
0.209043451
 40
0.2775038159
 40
0.344962097
 40
0.4112254927
 40
0.4761393418
 40
0.5080618801
 40
0.5396098119
 40
0.6015436571
 40
0.6319474407
 40
0.6619753894
 40
0.6916368391
 40
0.7209446232
 40
0.7785482223
 40
0.806912438
 40
0.8350128698
 40
0.8628798876
 40
0.8905479904
 40
0.9180557675
 40
0.9454437074
 40
0.9727477324
 40
1.0
 40
1.0
 40
1.0
 40
1.0
 10
20.7348183383
 20
4.8474225853
 30
0.0
 10
20.749816205
 20
4.8474225853
 30
0.0
 10
20.7797695509
 20
4.8485508285
 30
0.0
 10
20.8242918017
 20
4.8536109391
 30
0.0
 10
20.8679701072
 20
4.8619960955
 30
0.0
 10
20.9103848145
 20
4.8736252041
 30
0.0
 10
20.9511374663
 20
4.8883955471
 30
0.0
 10
20.9898388716
 20
4.9061704676
 30
0.0
 10
21.0202500131
 20
4.9234519301
 30
0.0
 10
21.0431819643
 20
4.9386357469
 30
0.0
 10
21.0648716141
 20
4.9544848129
 30
0.0
 10
21.0851711745
 20
4.9716451288
 30
0.0
 10
21.1038606233
 20
4.9900270117
 30
0.0
 10
21.1169102493
 20
5.0042505626
 30
0.0
 10
21.1290454054
 20
5.0189598413
 30
0.0
 10
21.1438748955
 20
5.0390536589
 30
0.0
 10
21.1568789499
 20
5.0601126771
 30
0.0
 10
21.1678512033
 20
5.0819506664
 30
0.0
 10
21.1749951569
 20
5.098550105
 30
0.0
 10
21.1810737172
 20
5.1154097926
 30
0.0
 10
21.1860696084
 20
5.1324896531
 30
0.0
 10
21.189971136
 20
5.1497471822
 30
0.0
 10
21.1927646758
 20
5.1671397657
 30
0.0
 10
21.1944438312
 20
5.18461939
 30
0.0
 10
21.1948183383
 20
5.1963063497
 30
0.0
 10
21.1948183383
 20
5.2021425847
 30
0.0
  0
SPLINE
  5
2A7
100
AcDbEntity
  8
0
100
AcDbSpline
 62
7
  6
CONTINUOUS
 70
0
 71
3
 72
30
 73
26
 74
0
 42
0.0000001
 43
0.0000001
 44
0.0000000001
 40
0.0
 40
0.0
 40
0.0
 40
0.0
 40
0.0272648976
 40
0.0545812989
 40
0.0819811804
 40
0.1095002089
 40
0.1371786408
 40
0.1650548768
 40
0.1931632953
 40
0.2215341541
 40
0.2791467847
 40
0.3084567782
 40
0.3381189708
 40
0.3681462592
 40
0.3985480617
 40
0.4293297769
 40
0.4604929243
 40
0.5239358817
 40
0.5888376633
 40
0.6550895776
 40
0.6886828153
 40
0.7225531181
 40
0.7910100995
 40
0.8602481318
 40
1.0
 40
1.0
 40
1.0
 40
1.0
 10
20.2748183383
 20
5.2021425847
 30
0.0
 10
20.2748183383
 20
5.1963247722
 30
0.0
 10
20.2751904792
 20
5.1846747837
 30
0.0
 10
20.2768590551
 20
5.1672501202
 30
0.0
 10
20.2796349983
 20
5.1499116509
 30
0.0
 10
20.2835120472
 20
5.1327069599
 30
0.0
 10
20.2884767124
 20
5.1156782801
 30
0.0
 10
20.2945174288
 20
5.0988677098
 30
0.0
 10
20.3016172103
 20
5.0823149864
 30
0.0
 10
20.3125217069
 20
5.060536363
 30
0.0
 10
20.325446585
 20
5.0395296032
 30
0.0
 10
20.3401874782
 20
5.0194796697
 30
0.0
 10
20.3522506952
 20
5.0047998128
 30
0.0
 10
20.3652233979
 20
4.990601709
 30
0.0
 10
20.3790756712
 20
4.97691846
 30
0.0
 10
20.3937731411
 20
4.9637808503
 30
0.0
 10
20.4145692047
 20
4.9469332999
 30
0.0
 10
20.442521234
 20
4.92741963
 30
0.0
 10
20.4786123506
 20
4.9067838204
 30
0.0
 10
20.5105577582
 20
4.8920028647
 30
0.0
 10
20.5371491798
 20
4.8816408455
 30
0.0
 10
20.564584423
 20
4.8722144278
 30
0.0
 10
20.5999031367
 20
4.8624131287
 30
0.0
 10
20.6580439782
 20
4.8510515964
 30
0.0
 10
20.7027262039
 20
4.8475406068
 30
0.0
 10
20.7325463877
 20
4.8474269166
 30
0.0
  0
SPLINE
  5
2A8
100
AcDbEntity
  8
0
100
AcDbSpline
 62
9
  6
CONTINUOUS
 70
0
 71
3
 72
23
 73
19
 74
0
 42
0.0000001
 43
0.0000001
 44
0.0000000001
 40
0.0
 40
0.0
 40
0.0
 40
0.0
 40
0.0676145354
 40
0.1351045878
 40
0.2022802724
 40
0.2690098818
 40
0.3351704696
 40
0.4006344565
 40
0.4652860266
 40
0.529025685
 40
0.5917688105
 40
0.6534465864
 40
0.7140106929
 40
0.7734332629
 40
0.8317107185
 40
0.8888625252
 40
0.944935258
 40
1.0
 40
1.0
 40
1.0
 40
1.0
 10
20.7369148268
 20
5.5404309669
 30
0.0
 10
20.7477829555
 20
5.5403921792
 30
0.0
 10
20.7695018448
 20
5.5397106552
 30
0.0
 10
20.8019092128
 20
5.5368876623
 30
0.0
 10
20.833967864
 20
5.5322724406
 30
0.0
 10
20.8655045794
 20
5.5258929818
 30
0.0
 10
20.8963568307
 20
5.5177809552
 30
0.0
 10
20.9263642339
 20
5.5079800297
 30
0.0
 10
20.9553683889
 20
5.4965392971
 30
0.0
 10
20.9832176925
 20
5.4835194425
 30
0.0
 10
21.0097663971
 20
5.4689879045
 30
0.0
 10
21.0348749626
 20
5.453019567
 30
0.0
 10
21.0584121409
 20
5.435698368
 30
0.0
 10
21.0802530269
 20
5.4171125675
 30
0.0
 10
21.1002840905
 20
5.3973608162
 30
0.0
 10
21.1183974311
 20
5.376542678
 30
0.0
 10
21.1344983377
 20
5.3547712476
 30
0.0
 10
21.1439140094
 20
5.3395608216
 30
0.0
 10
21.1482450795
 20
5.3318419111
 30
0.0
  0
SPLINE
  5
2A9
100
AcDbEntity
  8
0
100
AcDbSpline
 62
9
  6
CONTINUOUS
 70
0
 71
3
 72
38
 73
34
 74
0
 42
0.0000001
 43
0.0000001
 44
0.0000000001
 40
0.0
 40
0.0
 40
0.0
 40
0.0
 40
0.0289549248
 40
0.05754213
 40
0.0858160951
 40
0.1138373331
 40
0.1416724369
 40
0.1693918166
 40
0.1970688381
 40
0.2247775812
 40
0.2525916697
 40
0.2805819838
 40
0.3088158219
 40
0.3373546022
 40
0.366253742
 40
0.3955607743
 40
0.4253155837
 40
0.4555494033
 40
0.4862848801
 40
0.5175363464
 40
0.5493092693
 40
0.5816018042
 40
0.61440365
 40
0.6476982733
 40
0.6814614731
 40
0.7156638373
 40
0.750270403
 40
0.7852418037
 40
0.8205330261
 40
0.8560944177
 40
0.9278137284
 40
0.9638878385
 40
1.0
 40
1.0
 40
1.0
 40
1.0
 10
21.1482450795
 20
5.3318419111
 30
0.0
 10
21.1518782687
 20
5.3253667766
 30
0.0
 10
21.1586374633
 20
5.3122329726
 30
0.0
 10
21.1672245696
 20
5.2919503747
 30
0.0
 10
21.1741624935
 20
5.271296556
 30
0.0
 10
21.1794200233
 20
5.2503508982
 30
0.0
 10
21.1829787579
 20
5.2291944114
 30
0.0
 10
21.1848233539
 20
5.2079084283
 30
0.0
 10
21.1849463687
 20
5.1865753621
 30
0.0
 10
21.1833486636
 20
5.1652775379
 30
0.0
 10
21.1800341226
 20
5.1440976177
 30
0.0
 10
21.1750193249
 20
5.1231166651
 30
0.0
 10
21.1683201965
 20
5.1024165057
 30
0.0
 10
21.159967323
 20
5.082075209
 30
0.0
 10
21.1499896068
 20
5.0621722331
 30
0.0
 10
21.138429356
 20
5.0427818697
 30
0.0
 10
21.1253289791
 20
5.0239792939
 30
0.0
 10
21.1107407615
 20
5.0058348681
 30
0.0
 10
21.0947202254
 20
4.9884177156
 30
0.0
 10
21.0773287402
 20
4.9717940964
 30
0.0
 10
21.0586338104
 20
4.9560257045
 30
0.0
 10
21.0387054798
 20
4.9411740601
 30
0.0
 10
21.0176215331
 20
4.9272927081
 30
0.0
 10
20.995460508
 20
4.9144372007
 30
0.0
 10
20.9723087073
 20
4.9026528389
 30
0.0
 10
20.948252728
 20
4.8919872975
 30
0.0
 10
20.9233850418
 20
4.882478202
 30
0.0
 10
20.897799669
 20
4.8741638773
 30
0.0
 10
20.8715939924
 20
4.8670741615
 30
0.0
 10
20.8358663878
 20
4.8592694328
 30
0.0
 10
20.7994099908
 20
4.8540505197
 30
0.0
 10
20.7625924239
 20
4.8514336215
 30
0.0
 10
20.7440784221
 20
4.8509947092
 30
0.0
 10
20.7348183383
 20
4.8509947092
 30
0.0
  0
SPLINE
  5
2AA
100
AcDbEntity
  8
0
100
AcDbSpline
 62
9
  6
CONTINUOUS
 70
0
 71
3
 72
30
 73
26
 74
0
 42
0.0000001
 43
0.0000001
 44
0.0000000001
 40
0.0
 40
0.0
 40
0.0
 40
0.0
 40
0.0270010769
 40
0.054047776
 40
0.0811851995
 40
0.1084568469
 40
0.1359046443
 40
0.1635678148
 40
0.1914825163
 40
0.2196820391
 40
0.2481953814
 40
0.2770478869
 40
0.3062611348
 40
0.3358517848
 40
0.3961935084
 40
0.4581474237
 40
0.5217032948
 40
0.5867921934
 40
0.6532921978
 40
0.7210380093
 40
0.755322707
 40
0.7898386149
 40
0.8594286042
 40
0.9295836863
 40
1.0
 40
1.0
 40
1.0
 40
1.0
 10
20.2748187572
 20
5.2021425847
 30
0.0
 10
20.2748187572
 20
5.2079090386
 30
0.0
 10
20.2751885549
 20
5.2194551122
 30
0.0
 10
20.2768531528
 20
5.236724538
 30
0.0
 10
20.2796229807
 20
5.2539105802
 30
0.0
 10
20.2834897257
 20
5.2709709996
 30
0.0
 10
20.2884464215
 20
5.2878640856
 30
0.0
 10
20.2944790177
 20
5.3045492823
 30
0.0
 10
20.3015724442
 20
5.3209865838
 30
0.0
 10
20.3097113515
 20
5.3371353157
 30
0.0
 10
20.3188736107
 20
5.3529576879
 30
0.0
 10
20.329037605
 20
5.3684152334
 30
0.0
 10
20.3401800091
 20
5.3834703559
 30
0.0
 10
20.3564046512
 20
5.4030852185
 30
0.0
 10
20.3790428645
 20
5.426404171
 30
0.0
 10
20.4094356823
 20
5.4520258755
 30
0.0
 10
20.4429460899
 20
5.4752357871
 30
0.0
 10
20.4792499921
 20
5.4958125449
 30
0.0
 10
20.5179975077
 20
5.5135637376
 30
0.0
 10
20.5518854936
 20
5.5258158716
 30
0.0
 10
20.5798590654
 20
5.5340765726
 30
0.0
 10
20.6085181749
 20
5.5413262551
 30
0.0
 10
20.6451098204
 20
5.5483335988
 30
0.0
 10
20.6897464764
 20
5.5533942425
 30
0.0
 10
20.7197799592
 20
5.5545230285
 30
0.0
 10
20.7348183383
 20
5.5545230285
 30
0.0
  0
SPLINE
  5
2AB
100
AcDbEntity
  8
0
100
AcDbSpline
 62
9
  6
CONTINUOUS
 70
0
 71
3
 72
30
 73
26
 74
0
 42
0.0000001
 43
0.0000001
 44
0.0000000001
 40
0.0
 40
0.0
 40
0.0
 40
0.0
 40
0.0704163137
 40
0.1405713958
 40
0.2101613851
 40
0.244677293
 40
0.2789619907
 40
0.3467078022
 40
0.4132078066
 40
0.4782967052
 40
0.5418525763
 40
0.6038064916
 40
0.6641482152
 40
0.6937388652
 40
0.7229521131
 40
0.7518046186
 40
0.7803179609
 40
0.8085174837
 40
0.8364321852
 40
0.8640953557
 40
0.8915431531
 40
0.9188148005
 40
0.945952224
 40
0.9729989231
 40
1.0
 40
1.0
 40
1.0
 40
1.0
 10
20.7348183383
 20
5.5545230285
 30
0.0
 10
20.7498567174
 20
5.5545230285
 30
0.0
 10
20.7798902001
 20
5.5533942425
 30
0.0
 10
20.8245268562
 20
5.5483335988
 30
0.0
 10
20.8611185017
 20
5.5413262551
 30
0.0
 10
20.8897776112
 20
5.5340765726
 30
0.0
 10
20.917751183
 20
5.5258158716
 30
0.0
 10
20.9516391688
 20
5.5135637376
 30
0.0
 10
20.9903866845
 20
5.4958125449
 30
0.0
 10
21.0266905867
 20
5.4752357871
 30
0.0
 10
21.0602009942
 20
5.4520258755
 30
0.0
 10
21.0905938121
 20
5.426404171
 30
0.0
 10
21.1132320253
 20
5.4030852185
 30
0.0
 10
21.1294566675
 20
5.3834703559
 30
0.0
 10
21.1405990715
 20
5.3684152334
 30
0.0
 10
21.1507630659
 20
5.3529576879
 30
0.0
 10
21.1599253251
 20
5.3371353157
 30
0.0
 10
21.1680642323
 20
5.3209865838
 30
0.0
 10
21.1751576589
 20
5.3045492823
 30
0.0
 10
21.1811902551
 20
5.2878640856
 30
0.0
 10
21.1861469508
 20
5.2709709996
 30
0.0
 10
21.1900136959
 20
5.2539105802
 30
0.0
 10
21.1927835238
 20
5.236724538
 30
0.0
 10
21.1944481216
 20
5.2194551122
 30
0.0
 10
21.1948179194
 20
5.2079090386
 30
0.0
 10
21.1948179194
 20
5.2021425847
 30
0.0
  0
SPLINE
  5
2AC
100
AcDbEntity
  8
0
100
AcDbSpline
 62
9
  6
CONTINUOUS
 70
0
 71
3
 72
38
 73
34
 74
0
 42
0.0000001
 43
0.0000001
 44
0.0000000001
 40
0.0
 40
0.0
 40
0.0
 40
0.0
 40
0.0361231821
 40
0.0722042248
 40
0.1439267201
 40
0.1794850069
 40
0.2147705357
 40
0.2497340826
 40
0.2843310659
 40
0.3185225613
 40
0.352274041
 40
0.3855565252
 40
0.4183462186
 40
0.4506269822
 40
0.4823888879
 40
0.5136304254
 40
0.5443574002
 40
0.5745843836
 40
0.6043342856
 40
0.6336384598
 40
0.6625369251
 40
0.6910772039
 40
0.7193146868
 40
0.7473106533
 40
0.7751322179
 40
0.8028500117
 40
0.8305373711
 40
0.8582680487
 40
0.8861150843
 40
0.9141485395
 40
0.9424347009
 40
0.9710337832
 40
1.0
 40
1.0
 40
1.0
 40
1.0
 10
20.7327218498
 20
4.8509984503
 30
0.0
 10
20.7234841059
 20
4.8510314192
 30
0.0
 10
20.7050173836
 20
4.8515341084
 30
0.0
 10
20.6683033821
 20
4.8542696136
 30
0.0
 10
20.631961491
 20
4.8595936415
 30
0.0
 10
20.5963569879
 20
4.8674897235
 30
0.0
 10
20.5702485321
 20
4.8746400971
 30
0.0
 10
20.5447634786
 20
4.8830075583
 30
0.0
 10
20.5199983819
 20
4.8925622188
 30
0.0
 10
20.496046422
 20
4.9032657558
 30
0.0
 10
20.472999264
 20
4.9150805984
 30
0.0
 10
20.4509426913
 20
4.927959161
 30
0.0
 10
20.4299622325
 20
4.9418562727
 30
0.0
 10
20.4101356873
 20
4.9567165998
 30
0.0
 10
20.3915400524
 20
4.9724867364
 30
0.0
 10
20.3742447778
 20
4.989105563
 30
0.0
 10
20.3583165253
 20
5.0065115118
 30
0.0
 10
20.3438162509
 20
5.0246388792
 30
0.0
 10
20.3307986148
 20
5.0434187068
 30
0.0
 10
20.3193156329
 20
5.0627812509
 30
0.0
 10
20.3094089414
 20
5.0826516132
 30
0.0
 10
20.3011205986
 20
5.1029560875
 30
0.0
 10
20.2944790205
 20
5.1236156604
 30
0.0
 10
20.2895143469
 20
5.1445527673
 30
0.0
 10
20.2862425082
 20
5.1656861721
 30
0.0
 10
20.2846793537
 20
5.1869353086
 30
0.0
 10
20.2848292535
 20
5.2082181233
 30
0.0
 10
20.2866921983
 20
5.229452889
 30
0.0
 10
20.2902614984
 20
5.2505577128
 30
0.0
 10
20.2955210913
 20
5.2714519735
 30
0.0
 10
20.3024532923
 20
5.2920551034
 30
0.0
 10
20.311026618
 20
5.3122884224
 30
0.0
 10
20.3177717023
 20
5.3253910507
 30
0.0
 10
20.3213967006
 20
5.3318510159
 30
0.0
  0
SPLINE
  5
2AD
100
AcDbEntity
  8
0
100
AcDbSpline
 62
9
  6
CONTINUOUS
 70
0
 71
3
 72
23
 73
19
 74
0
 42
0.0000001
 43
0.0000001
 44
0.0000000001
 40
0.0
 40
0.0
 40
0.0
 40
0.0
 40
0.0550485668
 40
0.1111091576
 40
0.1682532504
 40
0.2265274901
 40
0.2859511111
 40
0.3465201089
 40
0.4082059009
 40
0.4709593382
 40
0.5347105059
 40
0.5993735837
 40
0.6648477381
 40
0.7310158124
 40
0.7977487285
 40
0.8649220951
 40
0.9324029618
 40
1.0
 40
1.0
 40
1.0
 40
1.0
 10
20.3213967006
 20
5.3318510159
 30
0.0
 10
20.325745513
 20
5.3396008614
 30
0.0
 10
20.3352027009
 20
5.3548714048
 30
0.0
 10
20.351381335
 20
5.3767239943
 30
0.0
 10
20.369587624
 20
5.3976147403
 30
0.0
 10
20.3897257527
 20
5.4174291161
 30
0.0
 10
20.4116862036
 20
5.436066648
 30
0.0
 10
20.435354099
 20
5.4534274096
 30
0.0
 10
20.4606026886
 20
5.4694224893
 30
0.0
 10
20.4872991003
 20
5.4839669156
 30
0.0
 10
20.5153018018
 20
5.4969853517
 30
0.0
 10
20.5444631581
 20
5.508409657
 30
0.0
 10
20.5746294772
 20
5.5181788794
 30
0.0
 10
20.6056402951
 20
5.5262435857
 30
0.0
 10
20.6373330659
 20
5.5325600868
 30
0.0
 10
20.6695431524
 20
5.5370967338
 30
0.0
 10
20.7020951399
 20
5.5398257526
 30
0.0
 10
20.723905971
 20
5.540434708
 30
0.0
 10
20.7348183383
 20
5.540434708
 30
0.0
  0
SPLINE
  5
2AE
100
AcDbEntity
  8
0
100
AcDbSpline
 62
7
  6
CONTINUOUS
 70
0
 71
3
 72
32
 73
28
 74
0
 42
0.0000001
 43
0.0000001
 44
0.0000000001
 40
0.0
 40
0.0
 40
0.0
 40
0.0
 40
0.0272000232
 40
0.0546100152
 40
0.0823524943
 40
0.110563429
 40
0.1393602119
 40
0.168826195
 40
0.2298769977
 40
0.2615572352
 40
0.2939536846
 40
0.3606032494
 40
0.4292254169
 40
0.4989277096
 40
0.5686984042
 40
0.6375183899
 40
0.7044729332
 40
0.7370503019
 40
0.7689239813
 40
0.8000574086
 40
0.8304419181
 40
0.8600946481
 40
0.8890617878
 40
0.917417319
 40
0.9452708155
 40
0.9727559078
 40
1.0
 40
1.0
 40
1.0
 40
1.0
 10
20.2349176282
 20
5.2009064266
 30
0.0
 10
20.2352393231
 20
5.1884850216
 30
0.0
 10
20.237457306
 20
5.1635600868
 30
0.0
 10
20.2454126366
 20
5.1266978003
 30
0.0
 10
20.2579526282
 20
5.0906409264
 30
0.0
 10
20.2749097119
 20
5.0557416376
 30
0.0
 10
20.2961292909
 20
5.0223224325
 30
0.0
 10
20.3301695539
 20
4.9796463234
 30
0.0
 10
20.3716443233
 20
4.9416509198
 30
0.0
 10
20.4187200535
 20
4.9091367696
 30
0.0
 10
20.4707169577
 20
4.8796206618
 30
0.0
 10
20.5419396817
 20
4.8504527703
 30
0.0
 10
20.633403337
 20
4.8288167739
 30
0.0
 10
20.7284840147
 20
4.8208975818
 30
0.0
 10
20.8237902812
 20
4.8269709107
 30
0.0
 10
20.9159202125
 20
4.8468228674
 30
0.0
 10
20.9880370881
 20
4.87458065
 30
0.0
 10
21.0409548508
 20
4.9030542889
 30
0.0
 10
21.077513085
 20
4.9270412853
 30
0.0
 10
21.110940175
 20
4.9536510029
 30
0.0
 10
21.1409401323
 20
4.9826385606
 30
0.0
 10
21.1672110813
 20
5.0137665203
 30
0.0
 10
21.1895183025
 20
5.0467411371
 30
0.0
 10
21.2076200035
 20
5.0812798188
 30
0.0
 10
21.2213460462
 20
5.1170622183
 30
0.0
 10
21.2305240444
 20
5.1537470476
 30
0.0
 10
21.2335665335
 20
5.1786394289
 30
0.0
 10
21.2343007304
 20
5.1910634558
 30
0.0
  0
SPLINE
  5
2AF
100
AcDbEntity
  8
0
100
AcDbSpline
 62
7
  6
CONTINUOUS
 70
0
 71
3
 72
11
 73
7
 74
0
 42
0.0000001
 43
0.0000001
 44
0.0000000001
 40
0.0
 40
0.0
 40
0.0
 40
0.0
 40
0.2471837876
 40
0.4956970472
 40
0.746338599
 40
1.0
 40
1.0
 40
1.0
 40
1.0
 10
21.2348183383
 20
10.6594093909
 30
0.0
 10
21.2348183383
 20
10.6701199338
 30
0.0
 10
21.2336477482
 20
10.6916159927
 30
0.0
 10
21.2284326046
 20
10.7235916193
 30
0.0
 10
21.2197835864
 20
10.7551046243
 30
0.0
 10
21.2118250652
 20
10.7755034248
 30
0.0
 10
21.2073251443
 20
10.7855312672
 30
0.0
  0
SPLINE
  5
2B0
100
AcDbEntity
  8
0
100
AcDbSpline
 62
7
  6
CONTINUOUS
 70
0
 71
3
 72
29
 73
25
 74
0
 42
0.0000001
 43
0.0000001
 44
0.0000000001
 40
0.0
 40
0.0
 40
0.0
 40
0.0
 40
0.0275063455
 40
0.0554761083
 40
0.0839625983
 40
0.113002889
 40
0.1426213132
 40
0.1728264003
 40
0.2349270854
 40
0.3648646627
 40
0.3983754576
 40
0.4321256244
 40
0.5000009918
 40
0.5678763202
 40
0.6016264115
 40
0.6351371299
 40
0.7650741547
 40
0.8271745113
 40
0.8573794141
 40
0.8869976624
 40
0.9160377922
 40
0.9445241344
 40
0.9724937744
 40
1.0
 40
1.0
 40
1.0
 40
1.0
 10
21.2073251443
 20
10.7855312672
 30
0.0
 10
21.203063066
 20
10.7950290898
 30
0.0
 10
21.193556287
 20
10.813789361
 30
0.0
 10
21.1766504919
 20
10.8407435108
 30
0.0
 10
21.157107606
 20
10.8665833262
 30
0.0
 10
21.1350497685
 20
10.8911537533
 30
0.0
 10
21.1106066705
 20
10.9143059589
 30
0.0
 10
21.0747222924
 20
10.9433859272
 30
0.0
 10
21.0036275456
 20
10.9888153356
 30
0.0
 10
20.9226234413
 20
11.0193375479
 30
0.0
 10
20.8496243691
 20
11.0348786977
 30
0.0
 10
20.799014763
 20
11.0424897963
 30
0.0
 10
20.7348177398
 20
11.0462917135
 30
0.0
 10
20.6706207332
 20
11.0424897795
 30
0.0
 10
20.6200112347
 20
11.0348784579
 30
0.0
 10
20.547012438
 20
11.0193373064
 30
0.0
 10
20.4660087268
 20
10.9888151053
 30
0.0
 10
20.3949143198
 20
10.9433859216
 30
0.0
 10
20.3590301596
 20
10.9143060962
 30
0.0
 10
20.334587215
 20
10.8911540207
 30
0.0
 10
20.3125294068
 20
10.8665838133
 30
0.0
 10
20.292986627
 20
10.8407441208
 30
0.0
 10
20.2760808435
 20
10.8137901424
 30
0.0
 10
20.2665740362
 20
10.7950299882
 30
0.0
 10
20.2623119472
 20
10.7855322201
 30
0.0
  0
SPLINE
  5
2B1
100
AcDbEntity
  8
0
100
AcDbSpline
 62
7
  6
CONTINUOUS
 70
0
 71
3
 72
11
 73
7
 74
0
 42
0.0000001
 43
0.0000001
 44
0.0000000001
 40
0.0
 40
0.0
 40
0.0
 40
0.0
 40
0.2536609264
 40
0.5043023298
 40
0.7528158765
 40
1.0
 40
1.0
 40
1.0
 40
1.0
 10
20.2623119472
 20
10.7855322201
 30
0.0
 10
20.2578119679
 20
10.7755043302
 30
0.0
 10
20.2498533442
 20
10.7551054106
 30
0.0
 10
20.2412041791
 20
10.7235921894
 30
0.0
 10
20.2359889508
 20
10.6916162918
 30
0.0
 10
20.2348183383
 20
10.670120034
 30
0.0
 10
20.2348183383
 20
10.6594093909
 30
0.0
  0
SPLINE
  5
2B2
100
AcDbEntity
  8
0
100
AcDbSpline
 62
7
  6
CONTINUOUS
 70
0
 71
3
 72
39
 73
35
 74
0
 42
0.0000001
 43
0.0000001
 44
0.0000000001
 40
0.0
 40
0.0
 40
0.0
 40
0.0
 40
0.0270310592
 40
0.0544806064
 40
0.0824502788
 40
0.111016363
 40
0.1402273709
 40
0.170114384
 40
0.2006864986
 40
0.2319355817
 40
0.2638338274
 40
0.2963352431
 40
0.3293820387
 40
0.3629012062
 40
0.3968112499
 40
0.4310220863
 40
0.4654363645
 40
0.4999542514
 40
0.5344726663
 40
0.5688885529
 40
0.6031020449
 40
0.6370157374
 40
0.6705395784
 40
0.7035919569
 40
0.7360998694
 40
0.7680054099
 40
0.7992623213
 40
0.8298427805
 40
0.8597382489
 40
0.888957552
 40
0.9175314724
 40
0.9455081977
 40
0.9729639253
 40
1.0
 40
1.0
 40
1.0
 40
1.0
 10
21.1945318113
 20
5.277056295
 30
0.0
 10
21.1917432773
 20
5.2871030139
 30
0.0
 10
21.1850136167
 20
5.3070606214
 30
0.0
 10
21.1717321066
 20
5.3360163463
 30
0.0
 10
21.1552867842
 20
5.3639898173
 30
0.0
 10
21.1358056419
 20
5.3907795484
 30
0.0
 10
21.113437069
 20
5.4162002927
 30
0.0
 10
21.0883329719
 20
5.4400566836
 30
0.0
 10
21.0606891512
 20
5.4621929152
 30
0.0
 10
21.0306965855
 20
5.4824419037
 30
0.0
 10
20.9985761772
 20
5.5006648464
 30
0.0
 10
20.9645601376
 20
5.5167357871
 30
0.0
 10
20.9288889704
 20
5.5305283143
 30
0.0
 10
20.8918251085
 20
5.5419599383
 30
0.0
 10
20.8536305571
 20
5.5509350773
 30
0.0
 10
20.814582632
 20
5.5573976977
 30
0.0
 10
20.7749613089
 20
5.5613028549
 30
0.0
 10
20.7350512545
 20
5.5626127459
 30
0.0
 10
20.6951395903
 20
5.5613331825
 30
0.0
 10
20.655513484
 20
5.5574579319
 30
0.0
 10
20.6164575301
 20
5.5510252369
 30
0.0
 10
20.5782518724
 20
5.5420789453
 30
0.0
 10
20.5411736403
 20
5.530675838
 30
0.0
 10
20.505485001
 20
5.5169106299
 30
0.0
 10
20.4714485461
 20
5.5008655192
 30
0.0
 10
20.4393044383
 20
5.48266752
 30
0.0
 10
20.4092857967
 20
5.4624410474
 30
0.0
 10
20.3816129424
 20
5.4403259735
 30
0.0
 10
20.3564776034
 20
5.4164884578
 30
0.0
 10
20.3340759514
 20
5.3910842759
 30
0.0
 10
20.314559576
 20
5.3643091795
 30
0.0
 10
20.2980779218
 20
5.3363476957
 30
0.0
 10
20.2847587402
 20
5.3074015736
 30
0.0
 10
20.278003015
 20
5.2874482301
 30
0.0
 10
20.2752014345
 20
5.277403133
 30
0.0
  0
SPLINE
  5
2B3
100
AcDbEntity
  8
0
100
AcDbSpline
 62
9
  6
CONTINUOUS
 70
0
 71
3
 72
32
 73
28
 74
0
 42
0.0000001
 43
0.0000001
 44
0.0000000001
 40
0.0
 40
0.0
 40
0.0
 40
0.0
 40
0.0270073766
 40
0.0542709562
 40
0.0819146054
 40
0.1100791193
 40
0.1388908331
 40
0.1684346421
 40
0.1987589504
 40
0.2298828545
 40
0.2617957094
 40
0.2944594523
 40
0.3617025818
 40
0.4309252858
 40
0.501153986
 40
0.5713078021
 40
0.6403138426
 40
0.7072226972
 40
0.7713241052
 40
0.8022305234
 40
0.8323395153
 40
0.8616788551
 40
0.8903056538
 40
0.918313809
 40
0.9458374417
 40
0.9730235089
 40
1.0
 40
1.0
 40
1.0
 40
1.0
 10
20.2449903644
 20
5.2120880713
 30
0.0
 10
20.245411948
 20
5.2242726128
 30
0.0
 10
20.2478322206
 20
5.2487298452
 30
0.0
 10
20.2560691657
 20
5.2848725309
 30
0.0
 10
20.2688751427
 20
5.3202185409
 30
0.0
 10
20.286096668
 20
5.3544125565
 30
0.0
 10
20.3075723112
 20
5.3871326057
 30
0.0
 10
20.3330777733
 20
5.4180848331
 30
0.0
 10
20.3623777949
 20
5.446971948
 30
0.0
 10
20.3951852781
 20
5.4735287031
 30
0.0
 10
20.4311930519
 20
5.4975101142
 30
0.0
 10
20.4834989662
 20
5.5260203255
 30
0.0
 10
20.5549985618
 20
5.5538468532
 30
0.0
 10
20.6465189375
 20
5.5737494449
 30
0.0
 10
20.74129862
 20
5.5798232891
 30
0.0
 10
20.8358346174
 20
5.5718450641
 30
0.0
 10
20.9266640479
 20
5.5500950784
 30
0.0
 10
21.0104261117
 20
5.5153525449
 30
0.0
 10
21.072572868
 20
5.4760542984
 30
0.0
 10
21.1155894303
 20
5.439333081
 30
0.0
 10
21.1438861822
 20
5.4098554042
 30
0.0
 10
21.1683163502
 20
5.3783910615
 30
0.0
 10
21.1886557062
 20
5.3452394724
 30
0.0
 10
21.2046897393
 20
5.3107006116
 30
0.0
 10
21.2162677128
 20
5.2751001437
 30
0.0
 10
21.2232487918
 20
5.2387981375
 30
0.0
 10
21.2248183383
 20
5.2143204748
 30
0.0
 10
21.2248183383
 20
5.2021425847
 30
0.0
  0
SPLINE
  5
2B4
100
AcDbEntity
  8
0
100
AcDbSpline
 62
7
  6
CONTINUOUS
 70
0
 71
3
 72
33
 73
29
 74
0
 42
0.0000001
 43
0.0000001
 44
0.0000000001
 40
0.0
 40
0.0
 40
0.0
 40
0.0
 40
0.0270027494
 40
0.0542224394
 40
0.0817890713
 40
0.1098516766
 40
0.1385444215
 40
0.1679595814
 40
0.1981529571
 40
0.2291501185
 40
0.2609460153
 40
0.2935069246
 40
0.360597902
 40
0.4297523685
 40
0.4999975355
 40
0.5702424864
 40
0.639396436
 40
0.7064871092
 40
0.7390481948
 40
0.7708444097
 40
0.8018422348
 40
0.8320363386
 40
0.8614523059
 40
0.8901457231
 40
0.9182091494
 40
0.9457766975
 40
0.9729970369
 40
1.0
 40
1.0
 40
1.0
 40
1.0
 10
20.264821657
 20
5.2007943533
 30
0.0
 10
20.2648795178
 20
5.189040151
 30
0.0
 10
20.2665194607
 20
5.1654182048
 30
0.0
 10
20.2734690379
 20
5.1304086876
 30
0.0
 10
20.2848781181
 20
5.0960992255
 30
0.0
 10
20.3006046505
 20
5.0628388655
 30
0.0
 10
20.320500705
 20
5.0309455444
 30
0.0
 10
20.3443529709
 20
5.0007094488
 30
0.0
 10
20.3719399364
 20
4.9724256538
 30
0.0
 10
20.4029860496
 20
4.9463560833
 30
0.0
 10
20.4371976894
 20
4.9227450904
 30
0.0
 10
20.4870704947
 20
4.8945657026
 30
0.0
 10
20.5555250432
 20
4.8668545977
 30
0.0
 10
20.6434635669
 20
4.8466420132
 30
0.0
 10
20.7348118659
 20
4.8398182905
 30
0.0
 10
20.8261600533
 20
4.8466401308
 30
0.0
 10
20.9140986431
 20
4.8668505463
 30
0.0
 10
20.9825534017
 20
4.8945601821
 30
0.0
 10
21.0324274311
 20
4.9227376111
 30
0.0
 10
21.0666398208
 20
4.9463483879
 30
0.0
 10
21.0976876956
 20
4.9724170222
 30
0.0
 10
21.1252757868
 20
5.0007010655
 30
0.0
 10
21.1491299394
 20
5.0309368795
 30
0.0
 10
21.1690273946
 20
5.0628305289
 30
0.0
 10
21.1847554173
 20
5.0960913424
 30
0.0
 10
21.1961656823
 20
5.1304015203
 30
0.0
 10
21.2031162387
 20
5.1654116282
 30
0.0
 10
21.2047568603
 20
5.1890339069
 30
0.0
 10
21.204814989
 20
5.2007882008
 30
0.0
  0
SPLINE
  5
2B5
100
AcDbEntity
  8
0
100
AcDbSpline
 62
9
  6
CONTINUOUS
 70
0
 71
3
 72
31
 73
27
 74
0
 42
0.0000001
 43
0.0000001
 44
0.0000000001
 40
0.0
 40
0.0
 40
0.0
 40
0.0
 40
0.027009667
 40
0.0542322493
 40
0.0817980932
 40
0.1098567258
 40
0.1385438634
 40
0.1679537791
 40
0.1981436802
 40
0.2291398317
 40
0.2934361811
 40
0.3605427798
 40
0.4297230147
 40
0.5
 40
0.5702769853
 40
0.6394572202
 40
0.7065638189
 40
0.7708601683
 40
0.8018563198
 40
0.8320462209
 40
0.8614561366
 40
0.8901432742
 40
0.9182019068
 40
0.9457677507
 40
0.972990333
 40
1.0
 40
1.0
 40
1.0
 40
1.0
 10
20.2348183383
 20
5.2085704607
 30
0.0
 10
20.2348183383
 20
5.2211024721
 30
0.0
 10
20.2364474738
 20
5.2462938159
 30
0.0
 10
20.2436926969
 20
5.2836466721
 30
0.0
 10
20.2557076166
 20
5.3202646737
 30
0.0
 10
20.2723431389
 20
5.3557716966
 30
0.0
 10
20.2934406583
 20
5.3898271652
 30
0.0
 10
20.3187734855
 20
5.4221186825
 30
0.0
 10
20.3481069117
 20
5.4523323321
 30
0.0
 10
20.3926819456
 20
5.4899120899
 30
0.0
 10
20.4570286202
 20
5.5299843159
 30
0.0
 10
20.5436408365
 20
5.5651313692
 30
0.0
 10
20.6374124158
 20
5.5867438304
 30
0.0
 10
20.7348183382
 20
5.5940332637
 30
0.0
 10
20.8322242607
 20
5.5867438305
 30
0.0
 10
20.9259958399
 20
5.5651313692
 30
0.0
 10
21.0126080563
 20
5.5299843159
 30
0.0
 10
21.0769547309
 20
5.4899120899
 30
0.0
 10
21.1215297648
 20
5.4523323321
 30
0.0
 10
21.150863191
 20
5.4221186826
 30
0.0
 10
21.1761960182
 20
5.3898271653
 30
0.0
 10
21.1972935376
 20
5.3557716966
 30
0.0
 10
21.2139290599
 20
5.3202646738
 30
0.0
 10
21.2259439796
 20
5.2836466721
 30
0.0
 10
21.2331892027
 20
5.246293816
 30
0.0
 10
21.2348183383
 20
5.2211024721
 30
0.0
 10
21.2348183383
 20
5.2085704608
 30
0.0
  0
SPLINE
  5
2B6
100
AcDbEntity
  8
0
100
AcDbSpline
 62
9
  6
CONTINUOUS
 70
0
 71
3
 72
11
 73
7
 74
0
 42
0.0000001
 43
0.0000001
 44
0.0000000001
 40
0.0
 40
0.0
 40
0.0
 40
0.0
 40
0.2468531694
 40
0.4952206507
 40
0.7459498411
 40
1.0
 40
1.0
 40
1.0
 40
1.0
 10
21.2348183383
 20
10.6594093909
 30
0.0
 10
21.2348183383
 20
10.6701004673
 30
0.0
 10
21.2336346905
 20
10.6915659494
 30
0.0
 10
21.2283610437
 20
10.7235005354
 30
0.0
 10
21.219610331
 20
10.7549854414
 30
0.0
 10
21.2115583894
 20
10.7753594949
 30
0.0
 10
21.2070049724
 20
10.7853758531
 30
0.0
  0
SPLINE
  5
2B7
100
AcDbEntity
  8
0
100
AcDbSpline
 62
9
  6
CONTINUOUS
 70
0
 71
3
 72
27
 73
23
 74
0
 42
0.0000001
 43
0.0000001
 44
0.0000000001
 40
0.0
 40
0.0
 40
0.0
 40
0.0
 40
0.027322369
 40
0.0551414738
 40
0.1124148022
 40
0.1419784112
 40
0.1721566915
 40
0.2342776252
 40
0.3644697096
 40
0.3980715709
 40
0.4319191597
 40
0.5
 40
0.5680808403
 40
0.6019284291
 40
0.6355302904
 40
0.7657223748
 40
0.8278433085
 40
0.8580215888
 40
0.8875851978
 40
0.9448585262
 40
0.972677631
 40
1.0
 40
1.0
 40
1.0
 40
1.0
 10
21.2070049724
 20
10.7853758531
 30
0.0
 10
21.2027388768
 20
10.7947601772
 30
0.0
 10
21.1932285615
 20
10.8133048734
 30
0.0
 10
21.1705089852
 20
10.8491704583
 30
0.0
 10
21.1426017042
 20
10.8825426193
 30
0.0
 10
21.1104163752
 20
10.9128063379
 30
0.0
 10
21.0745658756
 20
10.9416684697
 30
0.0
 10
21.003491074
 20
10.9868066806
 30
0.0
 10
20.9225624814
 20
11.0171331335
 30
0.0
 10
20.8496116751
 20
11.0325878679
 30
0.0
 10
20.7990072595
 20
11.0401615134
 30
0.0
 10
20.7348183383
 20
11.0439446462
 30
0.0
 10
20.6706294171
 20
11.0401615134
 30
0.0
 10
20.6200250015
 20
11.0325878679
 30
0.0
 10
20.5470741951
 20
11.0171331335
 30
0.0
 10
20.4661456025
 20
10.9868066806
 30
0.0
 10
20.3950708009
 20
10.9416684697
 30
0.0
 10
20.3592203014
 20
10.9128063379
 30
0.0
 10
20.3270349723
 20
10.8825426193
 30
0.0
 10
20.2991276913
 20
10.8491704583
 30
0.0
 10
20.276408115
 20
10.8133048734
 30
0.0
 10
20.2668977998
 20
10.7947601772
 30
0.0
 10
20.2626317042
 20
10.7853758531
 30
0.0
  0
SPLINE
  5
2B8
100
AcDbEntity
  8
0
100
AcDbSpline
 62
9
  6
CONTINUOUS
 70
0
 71
3
 72
11
 73
7
 74
0
 42
0.0000001
 43
0.0000001
 44
0.0000000001
 40
0.0
 40
0.0
 40
0.0
 40
0.0
 40
0.2540501589
 40
0.5047793493
 40
0.7531468306
 40
1.0
 40
1.0
 40
1.0
 40
1.0
 10
20.2626317042
 20
10.7853758531
 30
0.0
 10
20.2580782872
 20
10.7753594949
 30
0.0
 10
20.2500263455
 20
10.7549854414
 30
0.0
 10
20.2412756329
 20
10.7235005354
 30
0.0
 10
20.2360019861
 20
10.6915659493
 30
0.0
 10
20.2348183383
 20
10.6701004673
 30
0.0
 10
20.2348183383
 20
10.6594093908
 30
0.0
  0
SPLINE
  5
2B9
100
AcDbEntity
  8
0
100
AcDbSpline
 62
9
  6
CONTINUOUS
 70
0
 71
3
 72
32
 73
28
 74
0
 42
0.0000001
 43
0.0000001
 44
0.0000000001
 40
0.0
 40
0.0
 40
0.0
 40
0.0
 40
0.0270073766
 40
0.0542709562
 40
0.0819146054
 40
0.1100791193
 40
0.1388908331
 40
0.1684346421
 40
0.1987589504
 40
0.2298828545
 40
0.2617957094
 40
0.2944594523
 40
0.3617025818
 40
0.4309252858
 40
0.501153986
 40
0.5713078021
 40
0.6403138426
 40
0.7072226972
 40
0.7713241052
 40
0.8022305234
 40
0.8323395153
 40
0.8616788551
 40
0.8903056538
 40
0.918313809
 40
0.9458374417
 40
0.9730235089
 40
1.0
 40
1.0
 40
1.0
 40
1.0
 10
21.2246463122
 20
5.192197098
 30
0.0
 10
21.2242247286
 20
5.1800125565
 30
0.0
 10
21.2218044559
 20
5.1555553241
 30
0.0
 10
21.2135675109
 20
5.1194126385
 30
0.0
 10
21.2007615338
 20
5.0840666284
 30
0.0
 10
21.1835400085
 20
5.0498726129
 30
0.0
 10
21.1620643653
 20
5.0171525636
 30
0.0
 10
21.1365589033
 20
4.9862003362
 30
0.0
 10
21.1072588817
 20
4.9573132213
 30
0.0
 10
21.0744513985
 20
4.9307564662
 30
0.0
 10
21.0384436246
 20
4.9067750551
 30
0.0
 10
20.9861377104
 20
4.8782648439
 30
0.0
 10
20.9146381147
 20
4.8504383162
 30
0.0
 10
20.8231177391
 20
4.8305357245
 30
0.0
 10
20.7283380565
 20
4.8244618802
 30
0.0
 10
20.6338020592
 20
4.8324401052
 30
0.0
 10
20.5429726286
 20
4.8541900909
 30
0.0
 10
20.4592105649
 20
4.8889326244
 30
0.0
 10
20.3970638086
 20
4.928230871
 30
0.0
 10
20.3540472463
 20
4.9649520883
 30
0.0
 10
20.3257504944
 20
4.9944297652
 30
0.0
 10
20.3013203264
 20
5.0258941079
 30
0.0
 10
20.2809809703
 20
5.059045697
 30
0.0
 10
20.2649469373
 20
5.0935845577
 30
0.0
 10
20.2533689637
 20
5.1291850256
 30
0.0
 10
20.2463878848
 20
5.1654870318
 30
0.0
 10
20.2448183383
 20
5.1899646945
 30
0.0
 10
20.2448183383
 20
5.2021425847
 30
0.0
  0
ENDSEC
  0
SECTION
  2
OBJECTS
  0
DICTIONARY
  5
C
100
AcDbDictionary
280
0
281
1
  3
ACAD_GROUP
350
D
  3
ACAD_MLINESTYLE
350
17
  3
ACAD_LAYOUT
350
1A
  3
ACAD_PLOTSETTINGS
350
19
  3
ACAD_PLOTSTYLENAME
350
E
  0
DICTIONARY
  5
D
102
{ACAD_REACTORS
330
C
102
}
100
AcDbDictionary
280
0
281
1
  0
ACDBDICTIONARYWDFLT
  5
E
102
{ACAD_REACTORS
330
C
102
}
100
AcDbDictionary
281
1
  3
Normal
350
F
100
AcDbDictionaryWithDefault
340
F
  0
DICTIONARY
  5
17
102
{ACAD_REACTORS
330
C
102
}
100
AcDbDictionary
280
0
281
1
  3
Standard
350
18
  0
DICTIONARY
  5
19
102
{ACAD_REACTORS
330
C
102
}
100
AcDbDictionary
281
1
  0
DICTIONARY
  5
1A
102
{ACAD_REACTORS
330
C
102
}
100
AcDbDictionary
281
1
  3
Model
350
2BA
  3
Layout1
350
2BB
  0
ACDBPLACEHOLDER
  5
F
102
{ACAD_REACTORS
330
E
102
}
  0
MLINESTYLE
  5
18
102
{ACAD_REACTORS
330
17
102
}
100
AcDbMlineStyle
  2
STANDARD
 70
0
  3

 62
256
 51
90.0
 52
90.0
 71
2
 49
0.5
 62
256
  6
BYLAYER
 49
-0.5
 62
256
  6
BYLAYER
  0
LAYOUT
  5
2BA
102
{ACAD_REACTORS
330
1A
102
}
100
AcDbPlotSettings
  1

  2
none_device
  4
ANSI_C_(22.00_x_17.00_Inches)
  6

 40
0.0
 41
0.0
 42
0.0
 43
0.0
 44
558.8
 45
431.8
 46
0.0
 47
0.0
 48
0.0
 49
0.0
140
0.0
141
0.0
142
1.0
143
1.0
 70
1024
 72
0
 73
0
 74
0
  7

 75
0
147
1.0
148
0.0
149
0.0
100
AcDbLayout
  1
Model
 70
0
 71
0
 10
0.0
 20
0.0
 11
22.0
 21
17.0
 12
0.0
 22
0.0
 32
0.0
 14
0.0
 24
0.0
 34
0.0
 15
0.0
 25
0.0
 35
0.0
146
0.0
 13
0.0
 23
0.0
 33
0.0
 16
1.0
 26
0.0
 36
0.0
 17
0.0
 27
1.0
 37
0.0
 76
0
330
202
345
0
346
0
  0
LAYOUT
  5
2BB
102
{ACAD_REACTORS
330
1A
102
}
100
AcDbPlotSettings
  1

  2
none_device
  4
ANSI_C_(22.00_x_17.00_Inches)
  6

 40
0.0
 41
0.0
 42
0.0
 43
0.0
 44
558.8
 45
431.8
 46
0.0
 47
0.0
 48
0.0
 49
0.0
140
0.0
141
0.0
142
1.0
143
1.0
 70
0
 72
0
 73
0
 74
0
  7

 75
0
147
1.0
148
0.0
149
0.0
100
AcDbLayout
  1
Layout1
 70
0
 71
1
 10
0.0
 20
0.0
 11
22.0
 21
17.0
 12
0.0
 22
0.0
 32
0.0
 14
0.0
 24
0.0
 34
0.0
 15
0.0
 25
0.0
 35
0.0
146
0.0
 13
0.0
 23
0.0
 33
0.0
 16
1.0
 26
0.0
 36
0.0
 17
0.0
 27
1.0
 37
0.0
 76
0
330
203
345
0
346
0
  0
ENDSEC
  0
EOF
