999
DXF file: E:\BRASSTECH\JOE\EN-3XXX\EN-3934\Webdata\1\CAD\3-3333tr_TOP.dxf
999
Pro/ENGINEER 2018400 by Parametric Technology Corporation
  0
SECTION
  2
HEADER
  9
$ACADVER
  1
AC1018
  9
$DWGCODEPAGE
  3
ANSI_1252
  9
$EXTMAX
 10
22.0
 20
17.0
 30
0.0
  9
$EXTMIN
 10
0.0
 20
0.0
 30
0.0
  9
$LIMMIN
 10
0.0
 20
0.0
  9
$LIMMAX
 10
22.0
 20
17.0
  9
$VIEWCTR
 10
11.0
 20
8.5
  9
$VIEWSIZE
 40
17.0
  9
$CLAYER
  8
0
  9
$LTSCALE
 40
1.21
  9
$CELTYPE
  6
BYLAYER
  9
$DIMSCALE
 40
1.0
  9
$DIMASZ
 40
0.1
  9
$DIMEXO
 40
0.0625
  9
$DIMDLI
 40
0.836
  9
$DIMEXE
 40
0.125
  9
$DIMCEN
 40
0.198
  9
$DIMLFAC
 40
1.0
  9
$DIMBLK
  1
_FILLED
  9
$DIMALT
 70
1
  9
$DIMALTD
 70
2
  9
$DIMALTTD
 70
2
  9
$DIMALTF
 40
25.4
  9
$DIMTXT
 40
0.08
  9
$DIMTOL
 70
1
  9
$DIMLIM
 70
0
  9
$DIMTFAC
 40
1.0
  9
$DIMTP
 40
0.001
  9
$DIMTM
 40
0.001
  9
$DIMGAP
 40
0.09
  9
$DIMDSEP
 70
46
  9
$AUNITS
 70
0
  9
$PDMODE
 70
3
  9
$PDSIZE
 40
0.06
  9
$HANDSEED
  5
262
  9
$TILEMODE
 70
1
  9
$MEASUREMENT
 70
0
  9
$INSUNITS
 70
1
  0
ENDSEC
  0
SECTION
  2
CLASSES
  0
CLASS
  1
ACDBDICTIONARYWDFLT
  2
AcDbDictionaryWithDefault
  3
AutoCAD 2000
 90
0
 91
1
280
0
281
0
  0
CLASS
  1
ACDBPLACEHOLDER
  2
AcDbPlaceHolder
  3
AutoCAD 2000
 90
0
 91
1
280
0
281
0
  0
CLASS
  1
LAYOUT
  2
AcDbLayout
  3
AutoCAD 2000
 90
0
 91
0
280
0
281
0
  0
ENDSEC
  0
SECTION
  2
TABLES
  0
TABLE
  2
VPORT
  5
8
100
AcDbSymbolTable
 70
2
  0
VPORT
  5
1F4
100
AcDbSymbolTableRecord
100
AcDbViewportTableRecord
  2
*ACTIVE
 70
0
 10
0.0
 20
0.0
 11
1.0
 21
1.0
 12
11.0
 22
8.5
 13
0.0
 23
0.0
 14
1.0
 24
1.0
 15
0.0
 25
0.0
 16
0.0
 26
0.0
 36
1.0
 17
0.0
 27
0.0
 37
0.0
 40
17.0
 41
1.2941176471
 42
50.0
 43
0.0
 44
0.0
 50
0.0
 51
0.0
 71
0
 72
100
 73
1
 74
1
 75
0
 76
0
 77
0
 78
0
  0
ENDTAB
  0
TABLE
  2
LTYPE
  5
5
100
AcDbSymbolTable
 70
6
  0
LTYPE
  5
14
100
AcDbSymbolTableRecord
100
AcDbLinetypeTableRecord
  2
BYBLOCK
 70
0
  3

 72
65
 73
0
 40
0.0
  0
LTYPE
  5
15
100
AcDbSymbolTableRecord
100
AcDbLinetypeTableRecord
  2
BYLAYER
 70
0
  3

 72
65
 73
0
 40
0.0
  0
LTYPE
  5
16
100
AcDbSymbolTableRecord
100
AcDbLinetypeTableRecord
  2
CONTINUOUS
 70
64
  3
Solid line
 72
65
 73
0
 40
0.0
  0
LTYPE
  5
1F5
100
AcDbSymbolTableRecord
100
AcDbLinetypeTableRecord
  2
CENTER
 70
64
  3
____ _ ____ _ ____ _ ____ _ ____ _ ____ _ ____
 72
65
 73
4
 40
0.6
 49
0.375
 74
0
 49
-0.075
 74
0
 49
0.075
 74
0
 49
-0.075
 74
0
  0
LTYPE
  5
1F6
100
AcDbSymbolTableRecord
100
AcDbLinetypeTableRecord
  2
HIDDEN
 70
64
  3
- - - - - - - - - - - - - - - - - - - -
 72
65
 73
2
 40
0.2
 49
0.1
 74
0
 49
-0.1
 74
0
  0
LTYPE
  5
1F7
100
AcDbSymbolTableRecord
100
AcDbLinetypeTableRecord
  2
PHANTOM
 70
64
  3
_____ _ _ _____ _ _ _____ _ _ _____
 72
65
 73
6
 40
0.8
 49
0.45
 74
0
 49
-0.05
 74
0
 49
0.1
 74
0
 49
-0.05
 74
0
 49
0.1
 74
0
 49
-0.05
 74
0
  0
LTYPE
  5
1F8
100
AcDbSymbolTableRecord
100
AcDbLinetypeTableRecord
  2
DOT
 70
64
  3
. . . . . . . . . . . . . . . . . . . .
 72
65
 73
2
 40
0.2
 49
0.1
 74
0
 49
-0.1
 74
0
  0
LTYPE
  5
1F9
100
AcDbSymbolTableRecord
100
AcDbLinetypeTableRecord
  2
DASHED
 70
64
  3
- - - - - - - - - - - - - - - - - - - -
 72
65
 73
2
 40
0.2
 49
0.1
 74
0
 49
-0.1
 74
0
  0
ENDTAB
  0
TABLE
  2
LAYER
  5
2
100
AcDbSymbolTable
 70
36
  0
LAYER
  5
10
100
AcDbSymbolTableRecord
100
AcDbLayerTableRecord
  2
0
 70
0
 62
7
  6
CONTINUOUS
370
-3
390
F
  0
LAYER
  5
1FA
100
AcDbSymbolTableRecord
100
AcDbLayerTableRecord
  2
DEFAULT_1
 70
0
 62
7
  6
CENTER
370
-3
390
F
  0
LAYER
  5
1FB
100
AcDbSymbolTableRecord
100
AcDbLayerTableRecord
  2
DEFAULT_2
 70
0
 62
8
  6
HIDDEN
370
-3
390
F
  0
LAYER
  5
1FC
100
AcDbSymbolTableRecord
100
AcDbLayerTableRecord
  2
DEFAULT_3
 70
0
 62
7
  6
PHANTOM
370
-3
390
F
  0
LAYER
  5
1FD
100
AcDbSymbolTableRecord
100
AcDbLayerTableRecord
  2
ALL_FEATURES
 70
0
 62
7
  6
CONTINUOUS
370
-3
390
F
  0
LAYER
  5
1FE
100
AcDbSymbolTableRecord
100
AcDbLayerTableRecord
  2
AXES_FEATURES
 70
0
 62
7
  6
CONTINUOUS
370
-3
390
F
  0
LAYER
  5
1FF
100
AcDbSymbolTableRecord
100
AcDbLayerTableRecord
  2
DIMENSIONS
 70
0
 62
7
  6
CONTINUOUS
370
-3
390
F
  0
ENDTAB
  0
TABLE
  2
STYLE
  5
3
100
AcDbSymbolTable
 70
1
  0
STYLE
  5
11
100
AcDbSymbolTableRecord
100
AcDbTextStyleTableRecord
  2
STANDARD
 70
0
 40
0.0
 41
0.8
 50
0.0
 71
0
 42
0.2
  3
txt
  4

  0
STYLE
  5
200
100
AcDbSymbolTableRecord
100
AcDbTextStyleTableRecord
  2
TEXTSTYLE_1
 70
0
 40
0.0
 41
0.8
 50
0.0
 71
0
 42
0.2
  3
gdt
  4

  0
ENDTAB
  0
TABLE
  2
VIEW
  5
6
100
AcDbSymbolTable
 70
0
  0
ENDTAB
  0
TABLE
  2
UCS
  5
7
100
AcDbSymbolTable
 70
0
  0
ENDTAB
  0
TABLE
  2
APPID
  5
9
100
AcDbSymbolTable
 70
1
  0
APPID
  5
201
100
AcDbSymbolTableRecord
100
AcDbRegAppTableRecord
  2
ACAD
 70
0
  0
ENDTAB
  0
TABLE
  2
BLOCK_RECORD
  5
1
100
AcDbSymbolTable
 70
0
  0
BLOCK_RECORD
  5
202
100
AcDbSymbolTableRecord
100
AcDbBlockTableRecord
  2
*Model_Space
  0
BLOCK_RECORD
  5
203
100
AcDbSymbolTableRecord
100
AcDbBlockTableRecord
  2
*Paper_Space
  0
BLOCK_RECORD
  5
204
100
AcDbSymbolTableRecord
100
AcDbBlockTableRecord
  2
_FILLED
  0
ENDTAB
  0
TABLE
  2
DIMSTYLE
  5
A
100
AcDbSymbolTable
 70
1
100
AcDbDimStyleTable
 71
0
  0
DIMSTYLE
105
205
100
AcDbSymbolTableRecord
100
AcDbDimStyleTableRecord
  2
STANDARD
 70
0
  3

  4

 40
1.0
 41
0.1
 42
0.0625
 43
0.38
 44
0.125
 45
0.0
 46
0.0
 47
0.001
 48
0.001
140
0.08
141
0.09
142
0.0
143
25.4
144
1.0
145
0.0
146
1.0
147
0.09
 71
1.0
 72
0.0
 73
1
 74
1
 75
0
 76
0
 77
0
 78
4
 79
1
170
1
171
2
172
0
173
0
174
0
175
0
176
0
177
0
178
0
270
2
179
3
271
3
272
3
273
2
274
2
275
0
280
0
281
0
282
0
283
1
284
4
285
0
286
0
287
3
288
0
340
11
278
46
341
204
342
204
343
204
344
204
  0
ENDTAB
  0
ENDSEC
  0
SECTION
  2
BLOCKS
  0
BLOCK
  5
20
100
AcDbEntity
  8
0
100
AcDbBlockBegin
  2
*Model_Space
 70
0
 10
0.0
 20
0.0
 30
0.0
  3
*Model_Space
  1

  0
ENDBLK
  5
21
100
AcDbEntity
  8
0
100
AcDbBlockEnd
  0
BLOCK
  5
1C
100
AcDbEntity
  8
0
100
AcDbBlockBegin
  2
*Paper_Space
 70
0
 10
0.0
 20
0.0
 30
0.0
  3
*Paper_Space
  1

  0
ENDBLK
  5
1D
100
AcDbEntity
  8
0
100
AcDbBlockEnd
  0
BLOCK
  5
206
100
AcDbEntity
  8
0
100
AcDbBlockBegin
  2
_FILLED
 70
64
 10
0.0
 20
0.0
  3
_FILLED
  1

  0
SOLID
  5
207
100
AcDbEntity
  8
0
  6
BYBLOCK
 62
0
100
AcDbTrace
 10
0.0
 20
0.0
 11
-1.0
 21
0.2
 12
-1.0
 22
-0.2
 13
-1.0
 23
-0.2
  0
ENDBLK
  5
208
100
AcDbEntity
  8
0
  6
BYBLOCK
 62
0
100
AcDbBlockEnd
  0
ENDSEC
  0
SECTION
  2
ENTITIES
  0
LINE
  5
209
100
AcDbEntity
  8
0
100
AcDbLine
 62
7
  6
CONTINUOUS
 10
7.5023183383
 20
8.7250720179
 11
7.5023183383
 21
9.1130720179
  0
LINE
  5
20A
100
AcDbEntity
  8
0
100
AcDbLine
 62
7
  6
CONTINUOUS
 10
10.2023183383
 20
5.8515917029
 11
11.8923183383
 21
5.8515917029
  0
LINE
  5
20B
100
AcDbEntity
  8
0
100
AcDbLine
 62
9
  6
CONTINUOUS
 10
10.1723183383
 20
5.8815917029
 11
11.9223183383
 21
5.8815917029
  0
LINE
  5
20C
100
AcDbEntity
  8
0
100
AcDbLine
 62
7
  6
CONTINUOUS
 10
10.2023183383
 20
6.1310405218
 11
11.8923183383
 21
6.1310405218
  0
LINE
  5
20D
100
AcDbEntity
  8
0
100
AcDbLine
 62
9
  6
CONTINUOUS
 10
10.1723183383
 20
6.1610405218
 11
11.9223183383
 21
6.1610405218
  0
LINE
  5
20E
100
AcDbEntity
  8
0
100
AcDbLine
 62
7
  6
CONTINUOUS
 10
10.1723183383
 20
6.5390405218
 11
10.1723183383
 21
5.8815917029
  0
LINE
  5
20F
100
AcDbEntity
  8
0
100
AcDbLine
 62
7
  6
CONTINUOUS
 10
10.2205466847
 20
7.0315917029
 11
10.2205483383
 21
8.6750720179
  0
LINE
  5
210
100
AcDbEntity
  8
0
100
AcDbLine
 62
9
  6
CONTINUOUS
 10
10.2473183383
 20
6.5690405218
 11
10.2473183383
 21
5.8515917029
  0
LINE
  5
211
100
AcDbEntity
  8
0
100
AcDbLine
 62
9
  6
CONTINUOUS
 10
11.9223183383
 20
6.5390405218
 11
11.3473750437
 21
6.5390405218
  0
LINE
  5
212
100
AcDbEntity
  8
0
100
AcDbLine
 62
9
  6
CONTINUOUS
 10
11.1431879035
 20
6.5390405218
 11
10.9514487731
 21
6.5390405218
  0
LINE
  5
213
100
AcDbEntity
  8
0
100
AcDbLine
 62
9
  6
CONTINUOUS
 10
10.7472616329
 20
6.5390405218
 11
10.1723183383
 21
6.5390405218
  0
LINE
  5
214
100
AcDbEntity
  8
0
100
AcDbLine
 62
7
  6
CONTINUOUS
 10
11.8923122239
 20
6.5690405218
 11
11.3893709207
 21
6.5690405218
  0
LINE
  5
215
100
AcDbEntity
  8
0
100
AcDbLine
 62
7
  6
CONTINUOUS
 10
11.0923183383
 20
6.5690405218
 11
11.0023183383
 21
6.5690405218
  0
LINE
  5
216
100
AcDbEntity
  8
0
100
AcDbLine
 62
7
  6
CONTINUOUS
 10
10.7052657459
 20
6.5690405218
 11
10.2023183383
 21
6.5690405218
  0
LINE
  5
217
100
AcDbEntity
  8
0
100
AcDbLine
 62
9
  6
CONTINUOUS
 10
10.7323183383
 20
6.5990405218
 11
10.7350094175
 21
6.5990405218
  0
LINE
  5
218
100
AcDbEntity
  8
0
100
AcDbLine
 62
9
  6
CONTINUOUS
 10
11.0062313818
 20
6.5990405218
 11
11.0884052949
 21
6.5990405218
  0
LINE
  5
219
100
AcDbEntity
  8
0
100
AcDbLine
 62
9
  6
CONTINUOUS
 10
11.3596272591
 20
6.5990405218
 11
11.3623183383
 21
6.5990405218
  0
LINE
  5
21A
100
AcDbEntity
  8
0
100
AcDbLine
 62
7
  6
CONTINUOUS
 10
10.3923183383
 20
6.7815917029
 11
10.3923183383
 21
7.0315917029
  0
LINE
  5
21B
100
AcDbEntity
  8
0
100
AcDbLine
 62
7
  6
CONTINUOUS
 10
10.3998183383
 20
7.0610405218
 11
10.3998183383
 21
7.3630720179
  0
LINE
  5
21C
100
AcDbEntity
  8
0
100
AcDbLine
 62
7
  6
CONTINUOUS
 10
10.3923190481
 20
6.7815917029
 11
10.7323183383
 21
6.7815917029
  0
LINE
  5
21D
100
AcDbEntity
  8
0
100
AcDbLine
 62
7
  6
CONTINUOUS
 10
11.3623183383
 20
6.7815917029
 11
11.7023176285
 21
6.7815917029
  0
LINE
  5
21E
100
AcDbEntity
  8
0
100
AcDbLine
 62
9
  6
CONTINUOUS
 10
10.7186848038
 20
5.8515917029
 11
10.7186848038
 21
6.5390405218
  0
LINE
  5
21F
100
AcDbEntity
  8
0
100
AcDbLine
 62
7
  6
CONTINUOUS
 10
10.7323183383
 20
7.0110405218
 11
10.7323183383
 21
6.5990405218
  0
LINE
  5
220
100
AcDbEntity
  8
0
100
AcDbLine
 62
9
  6
CONTINUOUS
 10
10.7472616329
 20
5.8815917029
 11
10.7472616329
 21
6.1310405218
  0
LINE
  5
221
100
AcDbEntity
  8
0
100
AcDbLine
 62
9
  6
CONTINUOUS
 10
10.7472616329
 20
6.1610405218
 11
10.7472616329
 21
6.5390405218
  0
LINE
  5
222
100
AcDbEntity
  8
0
100
AcDbLine
 62
7
  6
CONTINUOUS
 10
11.3623179123
 20
7.0110405218
 11
10.7323187642
 21
7.0110405218
  0
LINE
  5
223
100
AcDbEntity
  8
0
100
AcDbLine
 62
7
  6
CONTINUOUS
 10
10.2205572346
 20
7.0315917029
 11
10.8623183383
 21
7.0315917029
  0
LINE
  5
224
100
AcDbEntity
  8
0
100
AcDbLine
 62
7
  6
CONTINUOUS
 10
11.2323183383
 20
7.0315917029
 11
11.874079442
 21
7.0315917029
  0
LINE
  5
225
100
AcDbEntity
  8
0
100
AcDbLine
 62
7
  6
CONTINUOUS
 10
10.3998183383
 20
7.0610405218
 11
11.6948183383
 21
7.0610405218
  0
LINE
  5
226
100
AcDbEntity
  8
0
100
AcDbLine
 62
7
  6
CONTINUOUS
 10
10.8623183383
 20
7.0610405218
 11
10.8623183383
 21
7.0110405218
  0
LINE
  5
227
100
AcDbEntity
  8
0
100
AcDbLine
 62
9
  6
CONTINUOUS
 10
10.9514487731
 20
6.5390405218
 11
10.9514487731
 21
6.1610405218
  0
LINE
  5
228
100
AcDbEntity
  8
0
100
AcDbLine
 62
9
  6
CONTINUOUS
 10
10.9514487731
 20
6.1310405218
 11
10.9514487731
 21
5.8815917029
  0
LINE
  5
229
100
AcDbEntity
  8
0
100
AcDbLine
 62
7
  6
CONTINUOUS
 10
10.9723183383
 20
5.8815917029
 11
10.9723183383
 21
6.1310405218
  0
LINE
  5
22A
100
AcDbEntity
  8
0
100
AcDbLine
 62
7
  6
CONTINUOUS
 10
10.9723183383
 20
6.1610405218
 11
10.9723183383
 21
6.5390405218
  0
LINE
  5
22B
100
AcDbEntity
  8
0
100
AcDbLine
 62
7
  6
CONTINUOUS
 10
10.2205483383
 20
7.3630720179
 11
11.8740883383
 21
7.3630720179
  0
LINE
  5
22C
100
AcDbEntity
  8
0
100
AcDbLine
 62
7
  6
CONTINUOUS
 10
11.1223183383
 20
6.5390405218
 11
11.1223183383
 21
6.1610405218
  0
LINE
  5
22D
100
AcDbEntity
  8
0
100
AcDbLine
 62
7
  6
CONTINUOUS
 10
11.1223183383
 20
6.1310405218
 11
11.1223183383
 21
5.8815917029
  0
LINE
  5
22E
100
AcDbEntity
  8
0
100
AcDbLine
 62
9
  6
CONTINUOUS
 10
11.1431879035
 20
5.8815917029
 11
11.1431879035
 21
6.1310405218
  0
LINE
  5
22F
100
AcDbEntity
  8
0
100
AcDbLine
 62
9
  6
CONTINUOUS
 10
11.1431879035
 20
6.1610405218
 11
11.1431879035
 21
6.5390405218
  0
LINE
  5
230
100
AcDbEntity
  8
0
100
AcDbLine
 62
7
  6
CONTINUOUS
 10
11.2323183383
 20
7.0610405218
 11
11.2323183383
 21
7.0110405218
  0
LINE
  5
231
100
AcDbEntity
  8
0
100
AcDbLine
 62
9
  6
CONTINUOUS
 10
11.3473750437
 20
6.5390405218
 11
11.3473750437
 21
6.1610405218
  0
LINE
  5
232
100
AcDbEntity
  8
0
100
AcDbLine
 62
9
  6
CONTINUOUS
 10
11.3473750437
 20
6.1310405218
 11
11.3473750437
 21
5.8815917029
  0
LINE
  5
233
100
AcDbEntity
  8
0
100
AcDbLine
 62
7
  6
CONTINUOUS
 10
11.3623183383
 20
7.0110405218
 11
11.3623183383
 21
6.5990405218
  0
LINE
  5
234
100
AcDbEntity
  8
0
100
AcDbLine
 62
9
  6
CONTINUOUS
 10
11.3759518728
 20
6.5390405218
 11
11.3759518728
 21
5.8515917029
  0
LINE
  5
235
100
AcDbEntity
  8
0
100
AcDbLine
 62
7
  6
CONTINUOUS
 10
11.6948183383
 20
7.0610405218
 11
11.6948183383
 21
7.3630720179
  0
LINE
  5
236
100
AcDbEntity
  8
0
100
AcDbLine
 62
7
  6
CONTINUOUS
 10
11.7023183383
 20
6.7815917029
 11
11.7023183383
 21
7.0315917029
  0
LINE
  5
237
100
AcDbEntity
  8
0
100
AcDbLine
 62
9
  6
CONTINUOUS
 10
11.8473183383
 20
5.8515917029
 11
11.8473183383
 21
6.5690405218
  0
LINE
  5
238
100
AcDbEntity
  8
0
100
AcDbLine
 62
7
  6
CONTINUOUS
 10
11.8740899918
 20
7.0315917029
 11
11.8740883383
 21
8.6750720179
  0
LINE
  5
239
100
AcDbEntity
  8
0
100
AcDbLine
 62
7
  6
CONTINUOUS
 10
11.9223183383
 20
5.8815917029
 11
11.9223183383
 21
6.5390405218
  0
LINE
  5
23A
100
AcDbEntity
  8
0
100
AcDbLine
 62
7
  6
CONTINUOUS
 10
7.5523183383
 20
8.6750720179
 11
14.5423183383
 21
8.6750720179
  0
LINE
  5
23B
100
AcDbEntity
  8
0
100
AcDbLine
 62
9
  6
CONTINUOUS
 10
7.5023183383
 20
8.7250720179
 11
14.5923183383
 21
8.7250720179
  0
LINE
  5
23C
100
AcDbEntity
  8
0
100
AcDbLine
 62
7
  6
CONTINUOUS
 10
14.5923183383
 20
9.1130720179
 11
7.5023183383
 21
9.1130720179
  0
LINE
  5
23D
100
AcDbEntity
  8
0
100
AcDbLine
 62
7
  6
CONTINUOUS
 10
14.5923183383
 20
8.7250720179
 11
14.5923183383
 21
9.1130720179
  0
ARC
  5
23E
100
AcDbEntity
  8
0
100
AcDbCircle
 62
7
  6
CONTINUOUS
 10
14.5423183383
 20
8.7250720179
 40
0.05
100
AcDbArc
 50
270.0
 51
360.0
  0
ARC
  5
23F
100
AcDbEntity
  8
0
100
AcDbCircle
 62
7
  6
CONTINUOUS
 10
7.5523183383
 20
8.7250720179
 40
0.05
100
AcDbArc
 50
180.0
 51
270.0
  0
ARC
  5
240
100
AcDbEntity
  8
0
100
AcDbCircle
 62
7
  6
CONTINUOUS
 10
11.0023183383
 20
5.8815917029
 40
0.03
100
AcDbArc
 50
180.0
 51
270.0
  0
ARC
  5
241
100
AcDbEntity
  8
0
100
AcDbCircle
 62
7
  6
CONTINUOUS
 10
11.0923183383
 20
5.8815917029
 40
0.03
100
AcDbArc
 50
270.0
 51
360.0
  0
ARC
  5
242
100
AcDbEntity
  8
0
100
AcDbCircle
 62
7
  6
CONTINUOUS
 10
11.8923183383
 20
5.8815917029
 40
0.03
100
AcDbArc
 50
270.0
 51
360.0
  0
ARC
  5
243
100
AcDbEntity
  8
0
100
AcDbCircle
 62
7
  6
CONTINUOUS
 10
10.2023183383
 20
5.8815917029
 40
0.03
100
AcDbArc
 50
180.0
 51
270.0
  0
ARC
  5
244
100
AcDbEntity
  8
0
100
AcDbCircle
 62
7
  6
CONTINUOUS
 10
11.0023183383
 20
6.1610405218
 40
0.03
100
AcDbArc
 50
180.0
 51
270.0
  0
ARC
  5
245
100
AcDbEntity
  8
0
100
AcDbCircle
 62
7
  6
CONTINUOUS
 10
11.0923183383
 20
6.1610405218
 40
0.03
100
AcDbArc
 50
270.0
 51
360.0
  0
ARC
  5
246
100
AcDbEntity
  8
0
100
AcDbCircle
 62
7
  6
CONTINUOUS
 10
11.0923183383
 20
6.5390405218
 40
0.03
100
AcDbArc
 50
0.0
 51
90.0
  0
ARC
  5
247
100
AcDbEntity
  8
0
100
AcDbCircle
 62
7
  6
CONTINUOUS
 10
11.0023183383
 20
6.5390405218
 40
0.03
100
AcDbArc
 50
90.0
 51
180.0
  0
ARC
  5
248
100
AcDbEntity
  8
0
100
AcDbCircle
 62
7
  6
CONTINUOUS
 10
10.7023183383
 20
6.5990405218
 40
0.03
100
AcDbArc
 50
275.5827597696
 51
360.0
  0
ARC
  5
249
100
AcDbEntity
  8
0
100
AcDbCircle
 62
7
  6
CONTINUOUS
 10
11.8923183383
 20
6.1610405218
 40
0.03
100
AcDbArc
 50
270.0
 51
360.0
  0
ARC
  5
24A
100
AcDbEntity
  8
0
100
AcDbCircle
 62
7
  6
CONTINUOUS
 10
10.2023183383
 20
6.1610405218
 40
0.03
100
AcDbArc
 50
180.0
 51
270.0
  0
ARC
  5
24B
100
AcDbEntity
  8
0
100
AcDbCircle
 62
7
  6
CONTINUOUS
 10
10.2023183383
 20
6.5390405218
 40
0.03
100
AcDbArc
 50
90.0
 51
180.0
  0
ARC
  5
24C
100
AcDbEntity
  8
0
100
AcDbCircle
 62
7
  6
CONTINUOUS
 10
11.3923183383
 20
6.5990405218
 40
0.03
100
AcDbArc
 50
180.0
 51
264.4172214067
  0
ARC
  5
24D
100
AcDbEntity
  8
0
100
AcDbCircle
 62
7
  6
CONTINUOUS
 10
11.8923183383
 20
6.5390405218
 40
0.03
100
AcDbArc
 50
0.0
 51
90.0
  0
SPLINE
  5
24E
100
AcDbEntity
  8
0
100
AcDbSpline
 62
9
  6
CONTINUOUS
 70
0
 71
3
 72
17
 73
13
 74
0
 42
0.0000001
 43
0.0000001
 44
0.0000000001
 40
0.0
 40
0.0
 40
0.0
 40
0.0
 40
0.1278186337
 40
0.1917979415
 40
0.2555712872
 40
0.3822076526
 40
0.5077691133
 40
0.6321497022
 40
0.7554146964
 40
0.8168367438
 40
0.8781305602
 40
1.0
 40
1.0
 40
1.0
 40
1.0
 10
11.3473750437
 20
5.8815917029
 30
0.0
 10
11.3473750437
 20
5.8796338507
 30
0.0
 10
11.3470963363
 20
5.8766867185
 30
0.0
 10
11.3461900107
 20
5.8728741409
 30
0.0
 10
11.3449321736
 20
5.8691806571
 30
0.0
 10
11.3427257374
 20
5.864837177
 30
0.0
 10
11.3391525008
 20
5.8602636077
 30
0.0
 10
11.334799782
 20
5.8565014456
 30
0.0
 10
11.3306421413
 20
5.8541650542
 30
0.0
 10
11.327109342
 20
5.8528380066
 30
0.0
 10
11.3234810499
 20
5.8518863461
 30
0.0
 10
11.3206649405
 20
5.8515917029
 30
0.0
 10
11.3187982146
 20
5.8515917029
 30
0.0
  0
SPLINE
  5
24F
100
AcDbEntity
  8
0
100
AcDbSpline
 62
9
  6
CONTINUOUS
 70
0
 71
3
 72
19
 73
15
 74
0
 42
0.0000001
 43
0.0000001
 44
0.0000000001
 40
0.0
 40
0.0
 40
0.0
 40
0.0
 40
0.1775930384
 40
0.3493441395
 40
0.5088274137
 40
0.651028911
 40
0.7143560008
 40
0.7719052667
 40
0.8234176731
 40
0.8688605709
 40
0.9084044317
 40
0.9425932815
 40
0.9725379322
 40
1.0
 40
1.0
 40
1.0
 40
1.0
 10
11.1431879035
 20
5.8815917029
 30
0.0
 10
11.1431879035
 20
5.8796415669
 30
0.0
 10
11.1430739962
 20
5.8758044881
 30
0.0
 10
11.1425708155
 20
5.8702360453
 30
0.0
 10
11.141752356
 20
5.8650978687
 30
0.0
 10
11.1408037422
 20
5.8611966743
 30
0.0
 10
11.1398916938
 20
5.8584539473
 30
0.0
 10
11.1391792694
 20
5.8566984027
 30
0.0
 10
11.1384179179
 20
5.8551797874
 30
0.0
 10
11.1376149521
 20
5.8539104291
 30
0.0
 10
11.1367750387
 20
5.8529005604
 30
0.0
 10
11.135899588
 20
5.852160708
 30
0.0
 10
11.1349928509
 20
5.8517002192
 30
0.0
 10
11.1343590277
 20
5.8515917029
 30
0.0
 10
11.1340574687
 20
5.8515917029
 30
0.0
  0
SPLINE
  5
250
100
AcDbEntity
  8
0
100
AcDbSpline
 62
9
  6
CONTINUOUS
 70
0
 71
3
 72
19
 73
15
 74
0
 42
0.0000001
 43
0.0000001
 44
0.0000000001
 40
0.0
 40
0.0
 40
0.0
 40
0.0
 40
0.1775930384
 40
0.3493441395
 40
0.5088274137
 40
0.651028911
 40
0.7143560008
 40
0.7719052667
 40
0.8234176731
 40
0.8688605709
 40
0.9084044317
 40
0.9425932815
 40
0.9725379322
 40
1.0
 40
1.0
 40
1.0
 40
1.0
 10
10.9514487731
 20
5.8815917029
 30
0.0
 10
10.9514487731
 20
5.8796415669
 30
0.0
 10
10.9515626804
 20
5.8758044881
 30
0.0
 10
10.9520658611
 20
5.8702360453
 30
0.0
 10
10.9528843206
 20
5.8650978687
 30
0.0
 10
10.9538329344
 20
5.8611966743
 30
0.0
 10
10.9547449827
 20
5.8584539473
 30
0.0
 10
10.9554574071
 20
5.8566984027
 30
0.0
 10
10.9562187586
 20
5.8551797874
 30
0.0
 10
10.9570217245
 20
5.8539104291
 30
0.0
 10
10.9578616379
 20
5.8529005604
 30
0.0
 10
10.9587370886
 20
5.852160708
 30
0.0
 10
10.9596438256
 20
5.8517002192
 30
0.0
 10
10.9602776489
 20
5.8515917029
 30
0.0
 10
10.9605792078
 20
5.8515917029
 30
0.0
  0
SPLINE
  5
251
100
AcDbEntity
  8
0
100
AcDbSpline
 62
9
  6
CONTINUOUS
 70
0
 71
3
 72
17
 73
13
 74
0
 42
0.0000001
 43
0.0000001
 44
0.0000000001
 40
0.0
 40
0.0
 40
0.0
 40
0.0
 40
0.1278186337
 40
0.1917979415
 40
0.2555712872
 40
0.3822076526
 40
0.5077691133
 40
0.6321497022
 40
0.7554146964
 40
0.8168367438
 40
0.8781305602
 40
1.0
 40
1.0
 40
1.0
 40
1.0
 10
10.7472616329
 20
5.8815917029
 30
0.0
 10
10.7472616329
 20
5.8796338507
 30
0.0
 10
10.7475403403
 20
5.8766867185
 30
0.0
 10
10.7484466659
 20
5.8728741409
 30
0.0
 10
10.749704503
 20
5.8691806571
 30
0.0
 10
10.7519109391
 20
5.864837177
 30
0.0
 10
10.7554841757
 20
5.8602636077
 30
0.0
 10
10.7598368946
 20
5.8565014456
 30
0.0
 10
10.7639945353
 20
5.8541650542
 30
0.0
 10
10.7675273346
 20
5.8528380066
 30
0.0
 10
10.7711556267
 20
5.8518863461
 30
0.0
 10
10.773971736
 20
5.8515917029
 30
0.0
 10
10.775838462
 20
5.8515917029
 30
0.0
  0
SPLINE
  5
252
100
AcDbEntity
  8
0
100
AcDbSpline
 62
9
  6
CONTINUOUS
 70
0
 71
3
 72
22
 73
18
 74
0
 42
0.0000001
 43
0.0000001
 44
0.0000000001
 40
0.0
 40
0.0
 40
0.0
 40
0.0
 40
0.0888603481
 40
0.177097296
 40
0.2635975798
 40
0.3474410936
 40
0.4281388266
 40
0.5051982186
 40
0.6465488211
 40
0.7102491172
 40
0.7688170842
 40
0.8219241955
 40
0.8692906795
 40
0.9107059671
 40
0.9460832422
 40
0.9755929167
 40
1.0
 40
1.0
 40
1.0
 40
1.0
 10
10.7186848038
 20
6.5390405218
 30
0.0
 10
10.7186847128
 20
6.5400624603
 30
0.0
 10
10.7186154487
 20
6.5420997383
 30
0.0
 10
10.7183191641
 20
6.5451186185
 30
0.0
 10
10.7178428851
 20
6.5480561232
 30
0.0
 10
10.7171998392
 20
6.5508725821
 30
0.0
 10
10.7164180404
 20
6.5535407074
 30
0.0
 10
10.7152576814
 20
6.5567803893
 30
0.0
 10
10.7139066092
 20
6.5597397971
 30
0.0
 10
10.7124037459
 20
6.5623744526
 30
0.0
 10
10.7113003917
 20
6.5640644319
 30
0.0
 10
10.7102002259
 20
6.5655275306
 30
0.0
 10
10.7091198621
 20
6.5667531277
 30
0.0
 10
10.7080762332
 20
6.5677314815
 30
0.0
 10
10.7070841104
 20
6.5684534308
 30
0.0
 10
10.7061589015
 20
6.5689119844
 30
0.0
 10
10.7055392704
 20
6.5690404546
 30
0.0
 10
10.7052585767
 20
6.5690405218
 30
0.0
  0
SPLINE
  5
253
100
AcDbEntity
  8
0
100
AcDbSpline
 62
9
  6
CONTINUOUS
 70
0
 71
3
 72
23
 73
19
 74
0
 42
0.0000001
 43
0.0000001
 44
0.0000000001
 40
0.0
 40
0.0
 40
0.0
 40
0.0
 40
0.1777248663
 40
0.3592965366
 40
0.534415661
 40
0.6159182015
 40
0.6913766298
 40
0.7594582557
 40
0.8194639144
 40
0.8708673115
 40
0.9131804837
 40
0.9461874054
 40
0.9594057706
 40
0.9706069222
 40
0.9799668359
 40
0.9877265635
 40
0.9942362292
 40
1.0
 40
1.0
 40
1.0
 40
1.0
 10
11.0062313818
 20
6.5990405218
 30
0.0
 10
11.0062313818
 20
6.597219163
 30
0.0
 10
11.0061873937
 20
6.5935368759
 30
0.0
 10
11.0059872919
 20
6.5880631433
 30
0.0
 10
11.0056895368
 20
6.5835813958
 30
0.0
 10
11.0053706521
 20
6.5801929546
 30
0.0
 10
11.005105065
 20
6.5779017877
 30
0.0
 10
11.0048085021
 20
6.575836682
 30
0.0
 10
11.0044880525
 20
6.5740249893
 30
0.0
 10
11.0041507652
 20
6.5724854764
 30
0.0
 10
11.0038034773
 20
6.5712334191
 30
0.0
 10
11.0034894339
 20
6.5703798567
 30
0.0
 10
11.0032281775
 20
6.5698518585
 30
0.0
 10
11.0030471714
 20
6.5695560661
 30
0.0
 10
11.0028666383
 20
6.5693276333
 30
0.0
 10
11.0026859687
 20
6.5691640825
 30
0.0
 10
11.002503899
 20
6.5690640106
 30
0.0
 10
11.0023774065
 20
6.5690405244
 30
0.0
 10
11.0023183383
 20
6.5690405218
 30
0.0
  0
SPLINE
  5
254
100
AcDbEntity
  8
0
100
AcDbSpline
 62
9
  6
CONTINUOUS
 70
0
 71
3
 72
26
 73
22
 74
0
 42
0.0000001
 43
0.0000001
 44
0.0000000001
 40
0.0
 40
0.0
 40
0.0
 40
0.0
 40
0.0062846771
 40
0.0138713168
 40
0.0232473468
 40
0.0346461291
 40
0.0481744524
 40
0.0638689777
 40
0.081704788
 40
0.1016314775
 40
0.1474999524
 40
0.2009154592
 40
0.2612272684
 40
0.327754917
 40
0.3998000859
 40
0.4766459531
 40
0.5575799599
 40
0.64193226
 40
0.7290625816
 40
0.8183156977
 40
1.0
 40
1.0
 40
1.0
 40
1.0
 10
11.3596272591
 20
6.5990405218
 30
0.0
 10
11.3594966185
 20
6.5990404138
 30
0.0
 10
11.3592079441
 20
6.5989712179
 30
0.0
 10
11.3587944476
 20
6.5987125256
 30
0.0
 10
11.3583644957
 20
6.5983054288
 30
0.0
 10
11.3579161476
 20
6.5977491362
 30
0.0
 10
11.3574493666
 20
6.597044426
 30
0.0
 10
11.3569663824
 20
6.5961930994
 30
0.0
 10
11.3564692593
 20
6.5951988345
 30
0.0
 10
11.35575752
 20
6.5936123247
 30
0.0
 10
11.3548639242
 20
6.5912992371
 30
0.0
 10
11.3538221772
 20
6.5881485196
 30
0.0
 10
11.3527906175
 20
6.5845453667
 30
0.0
 10
11.3517931639
 20
6.5805324724
 30
0.0
 10
11.3508524566
 20
6.57615373
 30
0.0
 10
11.3499883185
 20
6.5714544329
 30
0.0
 10
11.3492216514
 20
6.5664792247
 30
0.0
 10
11.3485688925
 20
6.5612722979
 30
0.0
 10
11.3480438565
 20
6.5558770576
 30
0.0
 10
11.3475317016
 20
6.5484508508
 30
0.0
 10
11.3473751524
 20
6.5428172219
 30
0.0
 10
11.3473750437
 20
6.5390405218
 30
0.0
  0
SPLINE
  5
255
100
AcDbEntity
  8
0
100
AcDbSpline
 62
9
  6
CONTINUOUS
 70
0
 71
3
 72
17
 73
13
 74
0
 42
0.0000001
 43
0.0000001
 44
0.0000000001
 40
0.0
 40
0.0
 40
0.0
 40
0.0
 40
0.1170868529
 40
0.2408718275
 40
0.3049371879
 40
0.3700043028
 40
0.5013500817
 40
0.6324651417
 40
0.6972630296
 40
0.7609757471
 40
0.8838783552
 40
1.0
 40
1.0
 40
1.0
 40
1.0
 10
11.3596272591
 20
6.5990405218
 30
0.0
 10
11.359627259
 20
6.5972117081
 30
0.0
 10
11.3599741714
 20
6.5934423024
 30
0.0
 10
11.3612808265
 20
6.5888295414
 30
0.0
 10
11.3629183676
 20
6.5852276596
 30
0.0
 10
11.3649618195
 20
6.5817035489
 30
0.0
 10
11.3681788278
 20
6.5776752593
 30
0.0
 10
11.3721755525
 20
6.5744252751
 30
0.0
 10
11.3756726644
 20
6.5723618127
 30
0.0
 10
11.3792423451
 20
6.570710233
 30
0.0
 10
11.3838164782
 20
6.5693909681
 30
0.0
 10
11.387557228
 20
6.5690405321
 30
0.0
 10
11.3893709658
 20
6.5690405217
 30
0.0
  0
SPLINE
  5
256
100
AcDbEntity
  8
0
100
AcDbSpline
 62
9
  6
CONTINUOUS
 70
0
 71
3
 72
22
 73
18
 74
0
 42
0.0000001
 43
0.0000001
 44
0.0000000001
 40
0.0
 40
0.0
 40
0.0
 40
0.0
 40
0.0244059717
 40
0.0539065537
 40
0.08926925
 40
0.1306687455
 40
0.1780227639
 40
0.2311209842
 40
0.2896824753
 40
0.3533748424
 40
0.4947253039
 40
0.5717870356
 40
0.6524839149
 40
0.736344172
 40
0.8228781836
 40
0.9111341754
 40
1.0
 40
1.0
 40
1.0
 40
1.0
 10
11.3893779845
 20
6.5690405218
 30
0.0
 10
11.3890973045
 20
6.5690404535
 30
0.0
 10
11.3884777799
 20
6.5689121286
 30
0.0
 10
11.387552752
 20
6.5684538338
 30
0.0
 10
11.3865609879
 20
6.5677321592
 30
0.0
 10
11.3855178448
 20
6.5667540117
 30
0.0
 10
11.3844378519
 20
6.565528671
 30
0.0
 10
11.3833378201
 20
6.5640658916
 30
0.0
 10
11.3822341044
 20
6.5623764803
 30
0.0
 10
11.3807309476
 20
6.5597421788
 30
0.0
 10
11.3793800245
 20
6.5567827818
 30
0.0
 10
11.3782193948
 20
6.5535432004
 30
0.0
 10
11.377437327
 20
6.5508749381
 30
0.0
 10
11.3767943552
 20
6.5480578777
 30
0.0
 10
11.3763181935
 20
6.5451195628
 30
0.0
 10
11.3760214141
 20
6.5421000761
 30
0.0
 10
11.3759519607
 20
6.5400625201
 30
0.0
 10
11.3759518728
 20
6.5390405218
 30
0.0
  0
SPLINE
  5
257
100
AcDbEntity
  8
0
100
AcDbSpline
 62
9
  6
CONTINUOUS
 70
0
 71
3
 72
17
 73
13
 74
0
 42
0.0000001
 43
0.0000001
 44
0.0000000001
 40
0.0
 40
0.0
 40
0.0
 40
0.0
 40
0.1278186337
 40
0.1917979415
 40
0.2555712872
 40
0.3822076526
 40
0.5077691133
 40
0.6321497022
 40
0.7554146964
 40
0.8168367438
 40
0.8781305602
 40
1.0
 40
1.0
 40
1.0
 40
1.0
 10
11.3473750437
 20
6.1610405218
 30
0.0
 10
11.3473750437
 20
6.1590826696
 30
0.0
 10
11.3470963363
 20
6.1561355374
 30
0.0
 10
11.3461900107
 20
6.1523229598
 30
0.0
 10
11.3449321736
 20
6.1486294759
 30
0.0
 10
11.3427257374
 20
6.1442859959
 30
0.0
 10
11.3391525008
 20
6.1397124266
 30
0.0
 10
11.334799782
 20
6.1359502645
 30
0.0
 10
11.3306421413
 20
6.1336138731
 30
0.0
 10
11.327109342
 20
6.1322868255
 30
0.0
 10
11.3234810499
 20
6.131335165
 30
0.0
 10
11.3206649405
 20
6.1310405218
 30
0.0
 10
11.3187982146
 20
6.1310405218
 30
0.0
  0
SPLINE
  5
258
100
AcDbEntity
  8
0
100
AcDbSpline
 62
9
  6
CONTINUOUS
 70
0
 71
3
 72
19
 73
15
 74
0
 42
0.0000001
 43
0.0000001
 44
0.0000000001
 40
0.0
 40
0.0
 40
0.0
 40
0.0
 40
0.1775930384
 40
0.3493441395
 40
0.5088274137
 40
0.651028911
 40
0.7143560008
 40
0.7719052667
 40
0.8234176731
 40
0.8688605709
 40
0.9084044317
 40
0.9425932815
 40
0.9725379322
 40
1.0
 40
1.0
 40
1.0
 40
1.0
 10
11.1431879035
 20
6.1610405218
 30
0.0
 10
11.1431879035
 20
6.1590903858
 30
0.0
 10
11.1430739962
 20
6.155253307
 30
0.0
 10
11.1425708155
 20
6.1496848642
 30
0.0
 10
11.141752356
 20
6.1445466876
 30
0.0
 10
11.1408037422
 20
6.1406454932
 30
0.0
 10
11.1398916938
 20
6.1379027662
 30
0.0
 10
11.1391792694
 20
6.1361472216
 30
0.0
 10
11.1384179179
 20
6.1346286063
 30
0.0
 10
11.1376149521
 20
6.133359248
 30
0.0
 10
11.1367750387
 20
6.1323493793
 30
0.0
 10
11.135899588
 20
6.1316095269
 30
0.0
 10
11.1349928509
 20
6.1311490381
 30
0.0
 10
11.1343590277
 20
6.1310405218
 30
0.0
 10
11.1340574687
 20
6.1310405218
 30
0.0
  0
SPLINE
  5
259
100
AcDbEntity
  8
0
100
AcDbSpline
 62
9
  6
CONTINUOUS
 70
0
 71
3
 72
26
 73
22
 74
0
 42
0.0000001
 43
0.0000001
 44
0.0000000001
 40
0.0
 40
0.0
 40
0.0
 40
0.0
 40
0.1816619254
 40
0.2708903273
 40
0.3580036096
 40
0.4423531781
 40
0.5232975174
 40
0.6001585832
 40
0.6722182332
 40
0.738756533
 40
0.799075844
 40
0.8524963922
 40
0.8983682234
 40
0.9182963865
 40
0.9361337541
 40
0.9518300522
 40
0.9653591801
 40
0.9767567777
 40
0.9861307081
 40
0.9937155587
 40
1.0
 40
1.0
 40
1.0
 40
1.0
 10
10.7472616329
 20
6.5390405218
 30
0.0
 10
10.7472615202
 20
6.5428167649
 30
0.0
 10
10.7471057716
 20
6.5484494477
 30
0.0
 10
10.7465935076
 20
6.5558743364
 30
0.0
 10
10.7460682837
 20
6.5612686387
 30
0.0
 10
10.7454154573
 20
6.566475371
 30
0.0
 10
10.7446485515
 20
6.571451031
 30
0.0
 10
10.7437845658
 20
6.576151208
 30
0.0
 10
10.7428440748
 20
6.5805308663
 30
0.0
 10
10.7418465264
 20
6.5845444484
 30
0.0
 10
10.7408147766
 20
6.5881480579
 30
0.0
 10
10.7397728154
 20
6.591299061
 30
0.0
 10
10.7388790718
 20
6.5936123164
 30
0.0
 10
10.7381672569
 20
6.5951989415
 30
0.0
 10
10.7376700961
 20
6.5961933015
 30
0.0
 10
10.7371871116
 20
6.5970447278
 30
0.0
 10
10.7367203808
 20
6.5977495081
 30
0.0
 10
10.7362720884
 20
6.5983057839
 30
0.0
 10
10.7358421947
 20
6.5987127939
 30
0.0
 10
10.7354287105
 20
6.5989713633
 30
0.0
 10
10.7351400534
 20
6.5990404446
 30
0.0
 10
10.7350094175
 20
6.5990405218
 30
0.0
  0
SPLINE
  5
25A
100
AcDbEntity
  8
0
100
AcDbSpline
 62
9
  6
CONTINUOUS
 70
0
 71
3
 72
17
 73
13
 74
0
 42
0.0000001
 43
0.0000001
 44
0.0000000001
 40
0.0
 40
0.0
 40
0.0
 40
0.0
 40
0.1170865417
 40
0.2408713646
 40
0.3049367146
 40
0.3700038557
 40
0.5013497655
 40
0.6324649971
 40
0.6972629655
 40
0.760975751
 40
0.8838784078
 40
1.0
 40
1.0
 40
1.0
 40
1.0
 10
10.7350095453
 20
6.5990405218
 30
0.0
 10
10.7350095325
 20
6.5972117092
 30
0.0
 10
10.7346625945
 20
6.5934423057
 30
0.0
 10
10.7333559106
 20
6.5888295508
 30
0.0
 10
10.7317183483
 20
6.5852276722
 30
0.0
 10
10.7296748751
 20
6.5817035618
 30
0.0
 10
10.7264578436
 20
6.5776752716
 30
0.0
 10
10.7224611001
 20
6.5744252852
 30
0.0
 10
10.7189639744
 20
6.5723618203
 30
0.0
 10
10.715394283
 20
6.5707102377
 30
0.0
 10
10.71082014
 20
6.5693909694
 30
0.0
 10
10.7070793828
 20
6.5690405324
 30
0.0
 10
10.7052656421
 20
6.5690405217
 30
0.0
  0
SPLINE
  5
25B
100
AcDbEntity
  8
0
100
AcDbSpline
 62
9
  6
CONTINUOUS
 70
0
 71
3
 72
19
 73
15
 74
0
 42
0.0000001
 43
0.0000001
 44
0.0000000001
 40
0.0
 40
0.0
 40
0.0
 40
0.0
 40
0.1775930384
 40
0.3493441395
 40
0.5088274137
 40
0.651028911
 40
0.7143560008
 40
0.7719052667
 40
0.8234176731
 40
0.8688605709
 40
0.9084044317
 40
0.9425932815
 40
0.9725379322
 40
1.0
 40
1.0
 40
1.0
 40
1.0
 10
10.9514487731
 20
6.1610405218
 30
0.0
 10
10.9514487731
 20
6.1590903858
 30
0.0
 10
10.9515626804
 20
6.155253307
 30
0.0
 10
10.9520658611
 20
6.1496848642
 30
0.0
 10
10.9528843206
 20
6.1445466876
 30
0.0
 10
10.9538329344
 20
6.1406454932
 30
0.0
 10
10.9547449827
 20
6.1379027662
 30
0.0
 10
10.9554574071
 20
6.1361472216
 30
0.0
 10
10.9562187586
 20
6.1346286063
 30
0.0
 10
10.9570217245
 20
6.133359248
 30
0.0
 10
10.9578616379
 20
6.1323493793
 30
0.0
 10
10.9587370886
 20
6.1316095269
 30
0.0
 10
10.9596438256
 20
6.1311490381
 30
0.0
 10
10.9602776489
 20
6.1310405218
 30
0.0
 10
10.9605792078
 20
6.1310405218
 30
0.0
  0
SPLINE
  5
25C
100
AcDbEntity
  8
0
100
AcDbSpline
 62
9
  6
CONTINUOUS
 70
0
 71
3
 72
17
 73
13
 74
0
 42
0.0000001
 43
0.0000001
 44
0.0000000001
 40
0.0
 40
0.0
 40
0.0
 40
0.0
 40
0.1278186337
 40
0.1917979415
 40
0.2555712872
 40
0.3822076526
 40
0.5077691133
 40
0.6321497022
 40
0.7554146964
 40
0.8168367438
 40
0.8781305602
 40
1.0
 40
1.0
 40
1.0
 40
1.0
 10
10.7472616329
 20
6.1610405218
 30
0.0
 10
10.7472616329
 20
6.1590826696
 30
0.0
 10
10.7475403403
 20
6.1561355374
 30
0.0
 10
10.7484466659
 20
6.1523229598
 30
0.0
 10
10.749704503
 20
6.148629476
 30
0.0
 10
10.7519109391
 20
6.1442859959
 30
0.0
 10
10.7554841757
 20
6.1397124266
 30
0.0
 10
10.7598368946
 20
6.1359502645
 30
0.0
 10
10.7639945353
 20
6.1336138731
 30
0.0
 10
10.7675273346
 20
6.1322868255
 30
0.0
 10
10.7711556267
 20
6.131335165
 30
0.0
 10
10.773971736
 20
6.1310405218
 30
0.0
 10
10.775838462
 20
6.1310405218
 30
0.0
  0
SPLINE
  5
25D
100
AcDbEntity
  8
0
100
AcDbSpline
 62
9
  6
CONTINUOUS
 70
0
 71
3
 72
24
 73
20
 74
0
 42
0.0000001
 43
0.0000001
 44
0.0000000001
 40
0.0
 40
0.0
 40
0.0
 40
0.0
 40
0.0063375551
 40
0.0134940491
 40
0.0220323336
 40
0.0322778644
 40
0.0444092569
 40
0.0585250291
 40
0.0928725092
 40
0.1353502684
 40
0.1857158806
 40
0.2436413116
 40
0.3086302684
 40
0.3800629545
 40
0.4573030408
 40
0.5396610885
 40
0.6263832022
 40
0.8097799758
 40
1.0
 40
1.0
 40
1.0
 40
1.0
 10
11.0923214457
 20
6.5690405218
 30
0.0
 10
11.0922564965
 20
6.5690405218
 30
0.0
 10
11.0921173547
 20
6.5690689408
 30
0.0
 10
11.0919214132
 20
6.5691868542
 30
0.0
 10
11.0917305574
 20
6.5693742379
 30
0.0
 10
11.0915425492
 20
6.5696304035
 30
0.0
 10
11.0913565329
 20
6.5699555089
 30
0.0
 10
11.0910941052
 20
6.5705189127
 30
0.0
 10
11.0907848011
 20
6.5714000335
 30
0.0
 10
11.090445339
 20
6.5726591165
 30
0.0
 10
11.0901218403
 20
6.5741706117
 30
0.0
 10
11.0898181561
 20
6.5759205974
 30
0.0
 10
11.0895373867
 20
6.5778926936
 30
0.0
 10
11.089282183
 20
6.580067627
 30
0.0
 10
11.0890556562
 20
6.5824245942
 30
0.0
 10
11.0888601721
 20
6.5849415069
 30
0.0
 10
11.0886389071
 20
6.5885471525
 30
0.0
 10
11.0884568653
 20
6.5932619903
 30
0.0
 10
11.088408132
 20
6.5970910871
 30
0.0
 10
11.088408132
 20
6.5990405218
 30
0.0
  0
SPLINE
  5
25E
100
AcDbEntity
  8
0
100
AcDbSpline
 62
9
  6
CONTINUOUS
 70
0
 71
3
 72
23
 73
19
 74
0
 42
0.0000001
 43
0.0000001
 44
0.0000000001
 40
0.0
 40
0.0
 40
0.0
 40
0.0
 40
0.1248090528
 40
0.187130124
 40
0.2493165188
 40
0.3114087547
 40
0.3734634936
 40
0.4355569723
 40
0.4977385726
 40
0.5600283867
 40
0.6224422705
 40
0.6850264978
 40
0.7477881843
 40
0.8106889513
 40
0.8421920209
 40
0.8737262485
 40
0.9368650927
 40
1.0
 40
1.0
 40
1.0
 40
1.0
 10
11.0884052949
 20
6.5990405218
 30
0.0
 10
11.0921553682
 20
6.5990352905
 30
0.0
 10
11.0978036501
 20
6.5983985785
 30
0.0
 10
11.105013314
 20
6.5963263857
 30
0.0
 10
11.1102111319
 20
6.5941930207
 30
0.0
 10
11.1151433552
 20
6.5915224539
 30
0.0
 10
11.1197681005
 20
6.5883542652
 30
0.0
 10
11.1240485411
 20
6.5847310903
 30
0.0
 10
11.1279531195
 20
6.580696489
 30
0.0
 10
11.1314553211
 20
6.5762961993
 30
0.0
 10
11.1345308042
 20
6.571573829
 30
0.0
 10
11.1371672375
 20
6.5665775751
 30
0.0
 10
11.1393541409
 20
6.561353378
 30
0.0
 10
11.1407803835
 20
6.5568441338
 30
0.0
 10
11.1416695114
 20
6.5531648581
 30
0.0
 10
11.1423872438
 20
6.5494410085
 30
0.0
 10
11.1429781766
 20
6.5447306381
 30
0.0
 10
11.1431605948
 20
6.5409373092
 30
0.0
 10
11.1431879035
 20
6.5390405218
 30
0.0
  0
SPLINE
  5
25F
100
AcDbEntity
  8
0
100
AcDbSpline
 62
9
  6
CONTINUOUS
 70
0
 71
3
 72
17
 73
13
 74
0
 42
0.0000001
 43
0.0000001
 44
0.0000000001
 40
0.0
 40
0.0
 40
0.0
 40
0.0
 40
0.1248431455
 40
0.1872201544
 40
0.2494481571
 40
0.3115932789
 40
0.3736972021
 40
0.4979069037
 40
0.6225710736
 40
0.7478292461
 40
0.8737984121
 40
1.0
 40
1.0
 40
1.0
 40
1.0
 10
11.0062313818
 20
6.5990405218
 30
0.0
 10
11.0024827413
 20
6.5990401094
 30
0.0
 10
10.9968357421
 20
6.5983951144
 30
0.0
 10
10.9896269666
 20
6.5963249715
 30
0.0
 10
10.9844277405
 20
6.5941929859
 30
0.0
 10
10.9794933644
 20
6.5915241089
 30
0.0
 10
10.9733302255
 20
6.5872998225
 30
0.0
 10
10.9664714019
 20
6.580865164
 30
0.0
 10
10.9598667373
 20
6.5716975451
 30
0.0
 10
10.9550456714
 20
6.561421799
 30
0.0
 10
10.9521141804
 20
6.5504175973
 30
0.0
 10
10.9514490754
 20
6.5428299519
 30
0.0
 10
10.9514487731
 20
6.5390405218
 30
0.0
  0
ENDSEC
  0
SECTION
  2
OBJECTS
  0
DICTIONARY
  5
C
100
AcDbDictionary
280
0
281
1
  3
ACAD_GROUP
350
D
  3
ACAD_MLINESTYLE
350
17
  3
ACAD_LAYOUT
350
1A
  3
ACAD_PLOTSETTINGS
350
19
  3
ACAD_PLOTSTYLENAME
350
E
  0
DICTIONARY
  5
D
102
{ACAD_REACTORS
330
C
102
}
100
AcDbDictionary
280
0
281
1
  0
ACDBDICTIONARYWDFLT
  5
E
102
{ACAD_REACTORS
330
C
102
}
100
AcDbDictionary
281
1
  3
Normal
350
F
100
AcDbDictionaryWithDefault
340
F
  0
DICTIONARY
  5
17
102
{ACAD_REACTORS
330
C
102
}
100
AcDbDictionary
280
0
281
1
  3
Standard
350
18
  0
DICTIONARY
  5
19
102
{ACAD_REACTORS
330
C
102
}
100
AcDbDictionary
281
1
  0
DICTIONARY
  5
1A
102
{ACAD_REACTORS
330
C
102
}
100
AcDbDictionary
281
1
  3
Model
350
260
  3
Layout1
350
261
  0
ACDBPLACEHOLDER
  5
F
102
{ACAD_REACTORS
330
E
102
}
  0
MLINESTYLE
  5
18
102
{ACAD_REACTORS
330
17
102
}
100
AcDbMlineStyle
  2
STANDARD
 70
0
  3

 62
256
 51
90.0
 52
90.0
 71
2
 49
0.5
 62
256
  6
BYLAYER
 49
-0.5
 62
256
  6
BYLAYER
  0
LAYOUT
  5
260
102
{ACAD_REACTORS
330
1A
102
}
100
AcDbPlotSettings
  1

  2
none_device
  4
ANSI_C_(22.00_x_17.00_Inches)
  6

 40
0.0
 41
0.0
 42
0.0
 43
0.0
 44
558.8
 45
431.8
 46
0.0
 47
0.0
 48
0.0
 49
0.0
140
0.0
141
0.0
142
1.0
143
1.0
 70
1024
 72
0
 73
0
 74
0
  7

 75
0
147
1.0
148
0.0
149
0.0
100
AcDbLayout
  1
Model
 70
0
 71
0
 10
0.0
 20
0.0
 11
22.0
 21
17.0
 12
0.0
 22
0.0
 32
0.0
 14
0.0
 24
0.0
 34
0.0
 15
0.0
 25
0.0
 35
0.0
146
0.0
 13
0.0
 23
0.0
 33
0.0
 16
1.0
 26
0.0
 36
0.0
 17
0.0
 27
1.0
 37
0.0
 76
0
330
202
345
0
346
0
  0
LAYOUT
  5
261
102
{ACAD_REACTORS
330
1A
102
}
100
AcDbPlotSettings
  1

  2
none_device
  4
ANSI_C_(22.00_x_17.00_Inches)
  6

 40
0.0
 41
0.0
 42
0.0
 43
0.0
 44
558.8
 45
431.8
 46
0.0
 47
0.0
 48
0.0
 49
0.0
140
0.0
141
0.0
142
1.0
143
1.0
 70
0
 72
0
 73
0
 74
0
  7

 75
0
147
1.0
148
0.0
149
0.0
100
AcDbLayout
  1
Layout1
 70
0
 71
1
 10
0.0
 20
0.0
 11
22.0
 21
17.0
 12
0.0
 22
0.0
 32
0.0
 14
0.0
 24
0.0
 34
0.0
 15
0.0
 25
0.0
 35
0.0
146
0.0
 13
0.0
 23
0.0
 33
0.0
 16
1.0
 26
0.0
 36
0.0
 17
0.0
 27
1.0
 37
0.0
 76
0
330
203
345
0
346
0
  0
ENDSEC
  0
EOF
