999
DXF file: 3-3335_top.dxf
999
Pro/ENGINEER 2019352 by Parametric Technology Corporation
  0
SECTION
  2
HEADER
  9
$ACADVER
  1
AC1032
  9
$DWGCODEPAGE
  3
ANSI_1252
  9
$EXTMAX
 10
11.0
 20
8.5
 30
0.0
  9
$EXTMIN
 10
0.0
 20
0.0
 30
0.0
  9
$LIMMIN
 10
0.0
 20
0.0
  9
$LIMMAX
 10
11.0
 20
8.5
  9
$VIEWCTR
 10
5.5
 20
4.25
  9
$VIEWSIZE
 40
8.5
  9
$CLAYER
  8
0
  9
$LTSCALE
 40
0.605
  9
$CELTYPE
  6
BYLAYER
  9
$DIMSCALE
 40
1.0
  9
$DIMASZ
 40
0.1
  9
$DIMEXO
 40
0.0625
  9
$DIMDLI
 40
0.418
  9
$DIMEXE
 40
0.125
  9
$DIMCEN
 40
0.099
  9
$DIMLFAC
 40
1.0
  9
$DIMBLK
  1
_FILLED
  9
$DIMALT
 70
1
  9
$DIMALTD
 70
2
  9
$DIMALTTD
 70
2
  9
$DIMALTF
 40
25.4
  9
$DIMTXT
 40
0.08
  9
$DIMTOL
 70
1
  9
$DIMLIM
 70
0
  9
$DIMTFAC
 40
1.0
  9
$DIMTP
 40
0.001
  9
$DIMTM
 40
0.001
  9
$DIMGAP
 40
0.09
  9
$DIMDSEP
 70
46
  9
$AUNITS
 70
0
  9
$PDMODE
 70
3
  9
$PDSIZE
 40
0.3125
  9
$HANDSEED
  5
29D
  9
$TILEMODE
 70
1
  9
$MEASUREMENT
 70
0
  9
$INSUNITS
 70
1
  0
ENDSEC
  0
SECTION
  2
CLASSES
  0
CLASS
  1
ACDBDICTIONARYWDFLT
  2
AcDbDictionaryWithDefault
  3
AutoCAD 2000
 90
0
 91
1
280
0
281
0
  0
CLASS
  1
ACDBPLACEHOLDER
  2
AcDbPlaceHolder
  3
AutoCAD 2000
 90
0
 91
1
280
0
281
0
  0
CLASS
  1
LAYOUT
  2
AcDbLayout
  3
AutoCAD 2000
 90
0
 91
0
280
0
281
0
  0
ENDSEC
  0
SECTION
  2
TABLES
  0
TABLE
  2
VPORT
  5
8
100
AcDbSymbolTable
 70
2
  0
VPORT
  5
1F4
100
AcDbSymbolTableRecord
100
AcDbViewportTableRecord
  2
*ACTIVE
 70
0
 10
0.0
 20
0.0
 11
1.0
 21
1.0
 12
5.5
 22
4.25
 13
0.0
 23
0.0
 14
1.0
 24
1.0
 15
0.0
 25
0.0
 16
0.0
 26
0.0
 36
1.0
 17
0.0
 27
0.0
 37
0.0
 40
8.5
 41
1.2941176471
 42
50.0
 43
0.0
 44
0.0
 50
0.0
 51
0.0
 71
0
 72
100
 73
1
 74
1
 75
0
 76
0
 77
0
 78
0
  0
ENDTAB
  0
TABLE
  2
LTYPE
  5
5
100
AcDbSymbolTable
 70
6
  0
LTYPE
  5
14
100
AcDbSymbolTableRecord
100
AcDbLinetypeTableRecord
  2
BYBLOCK
 70
0
  3

 72
65
 73
0
 40
0.0
  0
LTYPE
  5
15
100
AcDbSymbolTableRecord
100
AcDbLinetypeTableRecord
  2
BYLAYER
 70
0
  3

 72
65
 73
0
 40
0.0
  0
LTYPE
  5
16
100
AcDbSymbolTableRecord
100
AcDbLinetypeTableRecord
  2
CONTINUOUS
 70
64
  3
Solid line
 72
65
 73
0
 40
0.0
  0
LTYPE
  5
1F5
100
AcDbSymbolTableRecord
100
AcDbLinetypeTableRecord
  2
CENTER
 70
64
  3
____ _ ____ _ ____ _ ____ _ ____ _ ____ _ ____
 72
65
 73
4
 40
0.6
 49
0.375
 74
0
 49
-0.075
 74
0
 49
0.075
 74
0
 49
-0.075
 74
0
  0
LTYPE
  5
1F6
100
AcDbSymbolTableRecord
100
AcDbLinetypeTableRecord
  2
HIDDEN
 70
64
  3
- - - - - - - - - - - - - - - - - - - -
 72
65
 73
2
 40
0.2
 49
0.1
 74
0
 49
-0.1
 74
0
  0
LTYPE
  5
1F7
100
AcDbSymbolTableRecord
100
AcDbLinetypeTableRecord
  2
PHANTOM
 70
64
  3
_____ _ _ _____ _ _ _____ _ _ _____
 72
65
 73
6
 40
0.8
 49
0.45
 74
0
 49
-0.05
 74
0
 49
0.1
 74
0
 49
-0.05
 74
0
 49
0.1
 74
0
 49
-0.05
 74
0
  0
LTYPE
  5
1F8
100
AcDbSymbolTableRecord
100
AcDbLinetypeTableRecord
  2
DOT
 70
64
  3
. . . . . . . . . . . . . . . . . . . .
 72
65
 73
2
 40
0.2
 49
0.1
 74
0
 49
-0.1
 74
0
  0
LTYPE
  5
1F9
100
AcDbSymbolTableRecord
100
AcDbLinetypeTableRecord
  2
DASHED
 70
64
  3
- - - - - - - - - - - - - - - - - - - -
 72
65
 73
2
 40
0.2
 49
0.1
 74
0
 49
-0.1
 74
0
  0
ENDTAB
  0
TABLE
  2
LAYER
  5
2
100
AcDbSymbolTable
 70
36
  0
LAYER
  5
10
100
AcDbSymbolTableRecord
100
AcDbLayerTableRecord
  2
0
 70
0
 62
7
  6
CONTINUOUS
370
-3
390
F
  0
LAYER
  5
1FA
100
AcDbSymbolTableRecord
100
AcDbLayerTableRecord
  2
DEFAULT_1
 70
0
 62
7
  6
CENTER
370
-3
390
F
  0
LAYER
  5
1FB
100
AcDbSymbolTableRecord
100
AcDbLayerTableRecord
  2
DEFAULT_2
 70
0
 62
8
  6
HIDDEN
370
-3
390
F
  0
LAYER
  5
1FC
100
AcDbSymbolTableRecord
100
AcDbLayerTableRecord
  2
DEFAULT_3
 70
0
 62
7
  6
PHANTOM
370
-3
390
F
  0
LAYER
  5
1FD
100
AcDbSymbolTableRecord
100
AcDbLayerTableRecord
  2
DEFAULT_COORDINATE_SYSTEM
 70
0
 62
7
  6
CONTINUOUS
370
-3
390
F
  0
LAYER
  5
1FE
100
AcDbSymbolTableRecord
100
AcDbLayerTableRecord
  2
DEFAULT_DATUM_AXES
 70
0
 62
7
  6
CONTINUOUS
370
-3
390
F
  0
LAYER
  5
1FF
100
AcDbSymbolTableRecord
100
AcDbLayerTableRecord
  2
DEFAULT_DATUM_PLANES
 70
0
 62
7
  6
CONTINUOUS
370
-3
390
F
  0
ENDTAB
  0
TABLE
  2
STYLE
  5
3
100
AcDbSymbolTable
 70
1
  0
STYLE
  5
11
100
AcDbSymbolTableRecord
100
AcDbTextStyleTableRecord
  2
STANDARD
 70
0
 40
0.0
 41
0.8
 50
0.0
 71
0
 42
0.2
  3
txt
  4

  0
STYLE
  5
200
100
AcDbSymbolTableRecord
100
AcDbTextStyleTableRecord
  2
TEXTSTYLE_1
 70
0
 40
0.0
 41
0.8
 50
0.0
 71
0
 42
0.2
  3
gdt
  4

  0
ENDTAB
  0
TABLE
  2
VIEW
  5
6
100
AcDbSymbolTable
 70
0
  0
ENDTAB
  0
TABLE
  2
UCS
  5
7
100
AcDbSymbolTable
 70
0
  0
ENDTAB
  0
TABLE
  2
APPID
  5
9
100
AcDbSymbolTable
 70
1
  0
APPID
  5
201
100
AcDbSymbolTableRecord
100
AcDbRegAppTableRecord
  2
ACAD
 70
0
  0
ENDTAB
  0
TABLE
  2
BLOCK_RECORD
  5
1
100
AcDbSymbolTable
 70
0
  0
BLOCK_RECORD
  5
202
100
AcDbSymbolTableRecord
100
AcDbBlockTableRecord
  2
*Model_Space
  0
BLOCK_RECORD
  5
203
100
AcDbSymbolTableRecord
100
AcDbBlockTableRecord
  2
*Paper_Space
  0
BLOCK_RECORD
  5
204
100
AcDbSymbolTableRecord
100
AcDbBlockTableRecord
  2
_FILLED
  0
ENDTAB
  0
TABLE
  2
DIMSTYLE
  5
A
100
AcDbSymbolTable
 70
1
100
AcDbDimStyleTable
 71
0
  0
DIMSTYLE
105
205
100
AcDbSymbolTableRecord
100
AcDbDimStyleTableRecord
  2
STANDARD
 70
0
  3

  4

 40
1.0
 41
0.1
 42
0.0625
 43
0.38
 44
0.125
 45
0.0
 46
0.0
 47
0.001
 48
0.001
140
0.08
141
0.09
142
0.0
143
25.4
144
1.0
145
0.0
146
1.0
147
0.09
 71
1.0
 72
0.0
 73
1
 74
1
 75
0
 76
0
 77
0
 78
4
 79
1
170
1
171
2
172
0
173
0
174
0
175
0
176
0
177
0
178
0
270
2
179
3
271
3
272
3
273
2
274
2
275
0
280
0
281
0
282
0
283
1
284
4
285
0
286
0
287
3
288
0
340
11
278
46
341
204
342
204
343
204
344
204
  0
ENDTAB
  0
ENDSEC
  0
SECTION
  2
BLOCKS
  0
BLOCK
  5
20
100
AcDbEntity
  8
0
100
AcDbBlockBegin
  2
*Model_Space
 70
0
 10
0.0
 20
0.0
 30
0.0
  3
*Model_Space
  1

  0
ENDBLK
  5
21
100
AcDbEntity
  8
0
100
AcDbBlockEnd
  0
BLOCK
  5
1C
100
AcDbEntity
  8
0
100
AcDbBlockBegin
  2
*Paper_Space
 70
0
 10
0.0
 20
0.0
 30
0.0
  3
*Paper_Space
  1

  0
ENDBLK
  5
1D
100
AcDbEntity
  8
0
100
AcDbBlockEnd
  0
BLOCK
  5
206
100
AcDbEntity
  8
0
100
AcDbBlockBegin
  2
_FILLED
 70
64
 10
0.0
 20
0.0
  3
_FILLED
  1

  0
SOLID
  5
207
100
AcDbEntity
  8
0
  6
BYBLOCK
 62
0
100
AcDbTrace
 10
0.0
 20
0.0
 11
-1.0
 21
0.2
 12
-1.0
 22
-0.2
 13
-1.0
 23
-0.2
  0
ENDBLK
  5
208
100
AcDbEntity
  8
0
  6
BYBLOCK
 62
0
100
AcDbBlockEnd
  0
ENDSEC
  0
SECTION
  2
ENTITIES
  0
MTEXT
  5
209
100
AcDbEntity
  8
0
100
AcDbMText
 62
2
  6
CONTINUOUS
  7
STANDARD
 71
3
 72
1
 10
5.6071347205
 20
1.3604981774
 30
0.0
 11
1.0
 21
0.0
 31
0.0
 73
2
 44
0.9
  1
SCALE 0.500
 40
0.08
 41
0.704
  0
LINE
  5
20A
100
AcDbEntity
  8
0
100
AcDbLine
 62
7
  6
CONTINUOUS
 10
0.0
 20
0.0
 11
0.0
 21
8.5
  0
LINE
  5
20B
100
AcDbEntity
  8
0
100
AcDbLine
 62
7
  6
CONTINUOUS
 10
0.0
 20
0.0
 11
11.0
 21
0.0
  0
LINE
  5
20C
100
AcDbEntity
  8
0
100
AcDbLine
 62
7
  6
CONTINUOUS
 10
0.0
 20
8.5
 11
11.0
 21
8.5
  0
LINE
  5
20D
100
AcDbEntity
  8
0
100
AcDbLine
 62
7
  6
CONTINUOUS
 10
11.0
 20
0.0
 11
11.0
 21
8.5
  0
LINE
  5
20E
100
AcDbEntity
  8
0
100
AcDbLine
 62
7
  6
CONTINUOUS
 10
2.5500005097
 20
5.4795136695
 11
2.5500005097
 21
5.6685136695
  0
LINE
  5
20F
100
AcDbEntity
  8
0
100
AcDbLine
 62
7
  6
CONTINUOUS
 10
2.5875005097
 20
5.4645136695
 11
2.5875005097
 21
5.6835136695
  0
LINE
  5
210
100
AcDbEntity
  8
0
100
AcDbLine
 62
7
  6
CONTINUOUS
 10
2.8050005097
 20
6.7400136695
 11
2.8050005097
 21
6.6550136695
  0
LINE
  5
211
100
AcDbEntity
  8
0
100
AcDbLine
 62
7
  6
CONTINUOUS
 10
3.1125005097
 20
6.6400136695
 11
3.1125005097
 21
5.8450136695
  0
LINE
  5
212
100
AcDbEntity
  8
0
100
AcDbLine
 62
7
  6
CONTINUOUS
 10
3.1534983233
 20
5.4645136695
 11
3.1534983233
 21
5.6685136695
  0
LINE
  5
213
100
AcDbEntity
  8
0
100
AcDbLine
 62
7
  6
CONTINUOUS
 10
3.1593755097
 20
5.8300136695
 11
3.1593755097
 21
5.6985136695
  0
LINE
  5
214
100
AcDbEntity
  8
0
100
AcDbLine
 62
7
  6
CONTINUOUS
 10
3.1676190159
 20
5.6685136695
 11
3.1676190159
 21
5.4795136695
  0
LINE
  5
215
100
AcDbEntity
  8
0
100
AcDbLine
 62
7
  6
CONTINUOUS
 10
3.2525607506
 20
5.4795136695
 11
3.2525607506
 21
5.6685136695
  0
LINE
  5
216
100
AcDbEntity
  8
0
100
AcDbLine
 62
7
  6
CONTINUOUS
 10
3.2625005097
 20
5.6685136695
 11
3.2625005097
 21
5.4795136695
  0
LINE
  5
217
100
AcDbEntity
  8
0
100
AcDbLine
 62
7
  6
CONTINUOUS
 10
3.3375005097
 20
5.6685136695
 11
3.3375005097
 21
5.4795136695
  0
LINE
  5
218
100
AcDbEntity
  8
0
100
AcDbLine
 62
7
  6
CONTINUOUS
 10
3.3474402687
 20
5.6685136695
 11
3.3474402687
 21
5.4795136695
  0
LINE
  5
219
100
AcDbEntity
  8
0
100
AcDbLine
 62
7
  6
CONTINUOUS
 10
3.4323820034
 20
5.4795136695
 11
3.4323820034
 21
5.6685136695
  0
LINE
  5
21A
100
AcDbEntity
  8
0
100
AcDbLine
 62
7
  6
CONTINUOUS
 10
3.4406255097
 20
5.8300136695
 11
3.4406255097
 21
5.6985136695
  0
LINE
  5
21B
100
AcDbEntity
  8
0
100
AcDbLine
 62
7
  6
CONTINUOUS
 10
3.4465026961
 20
5.4645136695
 11
3.4465026961
 21
5.6685136695
  0
LINE
  5
21C
100
AcDbEntity
  8
0
100
AcDbLine
 62
7
  6
CONTINUOUS
 10
3.4875005097
 20
6.6400136695
 11
3.4875005097
 21
5.8450136695
  0
LINE
  5
21D
100
AcDbEntity
  8
0
100
AcDbLine
 62
7
  6
CONTINUOUS
 10
3.7950005097
 20
6.7400136695
 11
3.7950005097
 21
6.6550136695
  0
LINE
  5
21E
100
AcDbEntity
  8
0
100
AcDbLine
 62
7
  6
CONTINUOUS
 10
4.0125005097
 20
5.4645136695
 11
4.0125005097
 21
5.6835136695
  0
LINE
  5
21F
100
AcDbEntity
  8
0
100
AcDbLine
 62
7
  6
CONTINUOUS
 10
4.0500005097
 20
5.4795136695
 11
4.0500005097
 21
5.6685136695
  0
LINE
  5
220
100
AcDbEntity
  8
0
100
AcDbLine
 62
7
  6
CONTINUOUS
 10
5.0487505097
 20
2.9900136695
 11
5.4862505097
 21
2.9900136695
  0
LINE
  5
221
100
AcDbEntity
  8
0
100
AcDbLine
 62
7
  6
CONTINUOUS
 10
4.7725005097
 20
6.7400136695
 11
4.7725005097
 21
6.5675136695
  0
LINE
  5
222
100
AcDbEntity
  8
0
100
AcDbLine
 62
7
  6
CONTINUOUS
 10
4.9395005097
 20
6.5525136695
 11
4.9395005097
 21
5.5050136695
  0
LINE
  5
223
100
AcDbEntity
  8
0
100
AcDbLine
 62
7
  6
CONTINUOUS
 10
5.0487505097
 20
1.9900136695
 11
5.0487505097
 21
5.4900136695
  0
LINE
  5
224
100
AcDbEntity
  8
0
100
AcDbLine
 62
7
  6
CONTINUOUS
 10
5.4862505097
 20
1.9900136695
 11
5.4862505097
 21
5.4900136695
  0
LINE
  5
225
100
AcDbEntity
  8
0
100
AcDbLine
 62
7
  6
CONTINUOUS
 10
5.5955005097
 20
6.5525136695
 11
5.5955005097
 21
5.5050136695
  0
LINE
  5
226
100
AcDbEntity
  8
0
100
AcDbLine
 62
7
  6
CONTINUOUS
 10
5.7625005097
 20
6.7400136695
 11
5.7625005097
 21
6.5675136695
  0
LINE
  5
227
100
AcDbEntity
  8
0
100
AcDbLine
 62
7
  6
CONTINUOUS
 10
6.4875005097
 20
5.4795136695
 11
6.4875005097
 21
5.6685136695
  0
LINE
  5
228
100
AcDbEntity
  8
0
100
AcDbLine
 62
7
  6
CONTINUOUS
 10
6.5250005097
 20
5.4645136695
 11
6.5250005097
 21
5.6835136695
  0
LINE
  5
229
100
AcDbEntity
  8
0
100
AcDbLine
 62
7
  6
CONTINUOUS
 10
7.9725002653
 20
5.4645136695
 11
6.502500754
 21
5.4645136695
  0
LINE
  5
22A
100
AcDbEntity
  8
0
100
AcDbLine
 62
7
  6
CONTINUOUS
 10
4.0349999372
 20
5.4645136695
 11
2.5650010822
 21
5.4645136695
  0
LINE
  5
22B
100
AcDbEntity
  8
0
100
AcDbLine
 62
7
  6
CONTINUOUS
 10
7.9875005097
 20
5.4795136695
 11
6.4875005097
 21
5.4795136695
  0
LINE
  5
22C
100
AcDbEntity
  8
0
100
AcDbLine
 62
7
  6
CONTINUOUS
 10
4.0500005097
 20
5.4795136695
 11
2.5500005097
 21
5.4795136695
  0
LINE
  5
22D
100
AcDbEntity
  8
0
100
AcDbLine
 62
7
  6
CONTINUOUS
 10
5.5805005097
 20
5.4900136695
 11
4.9545005097
 21
5.4900136695
  0
LINE
  5
22E
100
AcDbEntity
  8
0
100
AcDbLine
 62
7
  6
CONTINUOUS
 10
5.5955005097
 20
5.5050136695
 11
4.9395005097
 21
5.5050136695
  0
LINE
  5
22F
100
AcDbEntity
  8
0
100
AcDbLine
 62
7
  6
CONTINUOUS
 10
6.7425005097
 20
6.7400136695
 11
6.7425005097
 21
6.6550136695
  0
LINE
  5
230
100
AcDbEntity
  8
0
100
AcDbLine
 62
7
  6
CONTINUOUS
 10
2.5500005097
 20
5.6685136695
 11
3.1676190159
 21
5.6685136695
  0
LINE
  5
231
100
AcDbEntity
  8
0
100
AcDbLine
 62
7
  6
CONTINUOUS
 10
3.2525607506
 20
5.6685136695
 11
3.3474402687
 21
5.6685136695
  0
LINE
  5
232
100
AcDbEntity
  8
0
100
AcDbLine
 62
7
  6
CONTINUOUS
 10
3.4323820034
 20
5.6685136695
 11
4.0500005097
 21
5.6685136695
  0
LINE
  5
233
100
AcDbEntity
  8
0
100
AcDbLine
 62
7
  6
CONTINUOUS
 10
6.4875005097
 20
5.6685136695
 11
7.1051190159
 21
5.6685136695
  0
LINE
  5
234
100
AcDbEntity
  8
0
100
AcDbLine
 62
7
  6
CONTINUOUS
 10
7.1900607506
 20
5.6685136695
 11
7.2849402687
 21
5.6685136695
  0
LINE
  5
235
100
AcDbEntity
  8
0
100
AcDbLine
 62
7
  6
CONTINUOUS
 10
7.3698820034
 20
5.6685136695
 11
7.9875005097
 21
5.6685136695
  0
LINE
  5
236
100
AcDbEntity
  8
0
100
AcDbLine
 62
7
  6
CONTINUOUS
 10
2.5650010822
 20
5.6835136695
 11
3.1460106054
 21
5.6835136695
  0
LINE
  5
237
100
AcDbEntity
  8
0
100
AcDbLine
 62
7
  6
CONTINUOUS
 10
3.2775005097
 20
5.6835136695
 11
3.3225005097
 21
5.6835136695
  0
LINE
  5
238
100
AcDbEntity
  8
0
100
AcDbLine
 62
7
  6
CONTINUOUS
 10
3.4539904139
 20
5.6835136695
 11
4.0349999372
 21
5.6835136695
  0
LINE
  5
239
100
AcDbEntity
  8
0
100
AcDbLine
 62
7
  6
CONTINUOUS
 10
6.502500754
 20
5.6835136695
 11
7.0835106054
 21
5.6835136695
  0
LINE
  5
23A
100
AcDbEntity
  8
0
100
AcDbLine
 62
7
  6
CONTINUOUS
 10
7.2150005097
 20
5.6835136695
 11
7.2600005097
 21
5.6835136695
  0
LINE
  5
23B
100
AcDbEntity
  8
0
100
AcDbLine
 62
7
  6
CONTINUOUS
 10
7.3914904139
 20
5.6835136695
 11
7.9725002653
 21
5.6835136695
  0
LINE
  5
23C
100
AcDbEntity
  8
0
100
AcDbLine
 62
7
  6
CONTINUOUS
 10
3.1593755097
 20
5.6985136695
 11
3.1608530058
 21
5.6985136695
  0
LINE
  5
23D
100
AcDbEntity
  8
0
100
AcDbLine
 62
7
  6
CONTINUOUS
 10
3.2796691844
 20
5.6985136695
 11
3.320331835
 21
5.6985136695
  0
LINE
  5
23E
100
AcDbEntity
  8
0
100
AcDbLine
 62
7
  6
CONTINUOUS
 10
3.4391480136
 20
5.6985136695
 11
3.4406255097
 21
5.6985136695
  0
LINE
  5
23F
100
AcDbEntity
  8
0
100
AcDbLine
 62
7
  6
CONTINUOUS
 10
7.0968755097
 20
5.6985136695
 11
7.0983530058
 21
5.6985136695
  0
LINE
  5
240
100
AcDbEntity
  8
0
100
AcDbLine
 62
7
  6
CONTINUOUS
 10
7.2171691844
 20
5.6985136695
 11
7.257831835
 21
5.6985136695
  0
LINE
  5
241
100
AcDbEntity
  8
0
100
AcDbLine
 62
7
  6
CONTINUOUS
 10
7.3766480136
 20
5.6985136695
 11
7.3781255097
 21
5.6985136695
  0
LINE
  5
242
100
AcDbEntity
  8
0
100
AcDbLine
 62
7
  6
CONTINUOUS
 10
7.4100005097
 20
5.8300136695
 11
7.0650005097
 21
5.8300136695
  0
LINE
  5
243
100
AcDbEntity
  8
0
100
AcDbLine
 62
7
  6
CONTINUOUS
 10
3.4725005097
 20
5.8300136695
 11
3.1275005097
 21
5.8300136695
  0
LINE
  5
244
100
AcDbEntity
  8
0
100
AcDbLine
 62
7
  6
CONTINUOUS
 10
7.4250005097
 20
5.8450136695
 11
7.0500005097
 21
5.8450136695
  0
LINE
  5
245
100
AcDbEntity
  8
0
100
AcDbLine
 62
7
  6
CONTINUOUS
 10
3.4875005097
 20
5.8450136695
 11
3.1125005097
 21
5.8450136695
  0
LINE
  5
246
100
AcDbEntity
  8
0
100
AcDbLine
 62
7
  6
CONTINUOUS
 10
7.0500005097
 20
6.6400136695
 11
7.0500005097
 21
5.8450136695
  0
LINE
  5
247
100
AcDbEntity
  8
0
100
AcDbLine
 62
7
  6
CONTINUOUS
 10
7.0909983233
 20
5.4645136695
 11
7.0909983233
 21
5.6685136695
  0
LINE
  5
248
100
AcDbEntity
  8
0
100
AcDbLine
 62
7
  6
CONTINUOUS
 10
7.0968755097
 20
5.8300136695
 11
7.0968755097
 21
5.6985136695
  0
LINE
  5
249
100
AcDbEntity
  8
0
100
AcDbLine
 62
7
  6
CONTINUOUS
 10
7.1051190159
 20
5.6685136695
 11
7.1051190159
 21
5.4795136695
  0
LINE
  5
24A
100
AcDbEntity
  8
0
100
AcDbLine
 62
7
  6
CONTINUOUS
 10
7.1900607506
 20
5.4795136695
 11
7.1900607506
 21
5.6685136695
  0
LINE
  5
24B
100
AcDbEntity
  8
0
100
AcDbLine
 62
7
  6
CONTINUOUS
 10
7.2000005097
 20
5.4795136695
 11
7.2000005097
 21
5.6685136695
  0
LINE
  5
24C
100
AcDbEntity
  8
0
100
AcDbLine
 62
7
  6
CONTINUOUS
 10
7.2750005097
 20
5.4795136695
 11
7.2750005097
 21
5.6685136695
  0
LINE
  5
24D
100
AcDbEntity
  8
0
100
AcDbLine
 62
7
  6
CONTINUOUS
 10
7.2849402687
 20
5.6685136695
 11
7.2849402687
 21
5.4795136695
  0
LINE
  5
24E
100
AcDbEntity
  8
0
100
AcDbLine
 62
7
  6
CONTINUOUS
 10
7.3698820034
 20
5.4795136695
 11
7.3698820034
 21
5.6685136695
  0
LINE
  5
24F
100
AcDbEntity
  8
0
100
AcDbLine
 62
7
  6
CONTINUOUS
 10
7.3781255097
 20
5.8300136695
 11
7.3781255097
 21
5.6985136695
  0
LINE
  5
250
100
AcDbEntity
  8
0
100
AcDbLine
 62
7
  6
CONTINUOUS
 10
7.3840026961
 20
5.4645136695
 11
7.3840026961
 21
5.6685136695
  0
LINE
  5
251
100
AcDbEntity
  8
0
100
AcDbLine
 62
7
  6
CONTINUOUS
 10
7.4250005097
 20
6.6400136695
 11
7.4250005097
 21
5.8450136695
  0
LINE
  5
252
100
AcDbEntity
  8
0
100
AcDbLine
 62
7
  6
CONTINUOUS
 10
7.7325005097
 20
6.7400136695
 11
7.7325005097
 21
6.6550136695
  0
LINE
  5
253
100
AcDbEntity
  8
0
100
AcDbLine
 62
7
  6
CONTINUOUS
 10
5.7475005097
 20
6.5525136695
 11
4.7875005097
 21
6.5525136695
  0
LINE
  5
254
100
AcDbEntity
  8
0
100
AcDbLine
 62
7
  6
CONTINUOUS
 10
5.7625005097
 20
6.5675136695
 11
4.7725005097
 21
6.5675136695
  0
LINE
  5
255
100
AcDbEntity
  8
0
100
AcDbLine
 62
7
  6
CONTINUOUS
 10
7.7175005097
 20
6.6400136695
 11
6.7575005097
 21
6.6400136695
  0
LINE
  5
256
100
AcDbEntity
  8
0
100
AcDbLine
 62
7
  6
CONTINUOUS
 10
3.7800005097
 20
6.6400136695
 11
2.8200005097
 21
6.6400136695
  0
LINE
  5
257
100
AcDbEntity
  8
0
100
AcDbLine
 62
7
  6
CONTINUOUS
 10
7.7325005097
 20
6.6550136695
 11
6.7425005097
 21
6.6550136695
  0
LINE
  5
258
100
AcDbEntity
  8
0
100
AcDbLine
 62
7
  6
CONTINUOUS
 10
3.7950005097
 20
6.6550136695
 11
2.8050005097
 21
6.6550136695
  0
LINE
  5
259
100
AcDbEntity
  8
0
100
AcDbLine
 62
7
  6
CONTINUOUS
 10
7.7325005097
 20
6.7400136695
 11
6.7425005097
 21
6.7400136695
  0
LINE
  5
25A
100
AcDbEntity
  8
0
100
AcDbLine
 62
7
  6
CONTINUOUS
 10
2.8050005097
 20
6.7400136695
 11
3.7950005097
 21
6.7400136695
  0
LINE
  5
25B
100
AcDbEntity
  8
0
100
AcDbLine
 62
7
  6
CONTINUOUS
 10
4.7725005097
 20
6.7400136695
 11
5.7625005097
 21
6.7400136695
  0
LINE
  5
25C
100
AcDbEntity
  8
0
100
AcDbLine
 62
7
  6
CONTINUOUS
 10
7.9500005097
 20
5.4645136695
 11
7.9500005097
 21
5.6835136695
  0
LINE
  5
25D
100
AcDbEntity
  8
0
100
AcDbLine
 62
7
  6
CONTINUOUS
 10
7.9875005097
 20
5.4795136695
 11
7.9875005097
 21
5.6685136695
  0
ARC
  5
25E
100
AcDbEntity
  8
0
100
AcDbCircle
 62
7
  6
CONTINUOUS
 10
5.2675005097
 20
1.9900136695
 40
0.21875
100
AcDbArc
 50
180.0
 51
360.0
  0
ARC
  5
25F
100
AcDbEntity
  8
0
100
AcDbCircle
 62
7
  6
CONTINUOUS
 10
3.7800005097
 20
6.6550136695
 40
0.015
100
AcDbArc
 50
270.0
 51
360.0
  0
ARC
  5
260
100
AcDbEntity
  8
0
100
AcDbCircle
 62
7
  6
CONTINUOUS
 10
2.8200005097
 20
6.6550136695
 40
0.015
100
AcDbArc
 50
180.0
 51
270.0
  0
ARC
  5
261
100
AcDbEntity
  8
0
100
AcDbCircle
 62
7
  6
CONTINUOUS
 10
3.1275005097
 20
5.8450136695
 40
0.015
100
AcDbArc
 50
180.0
 51
270.0
  0
ARC
  5
262
100
AcDbEntity
  8
0
100
AcDbCircle
 62
7
  6
CONTINUOUS
 10
3.4725005097
 20
5.8450136695
 40
0.015
100
AcDbArc
 50
270.0
 51
360.0
  0
ARC
  5
263
100
AcDbEntity
  8
0
100
AcDbCircle
 62
7
  6
CONTINUOUS
 10
6.5025005097
 20
5.6685136695
 40
0.015
100
AcDbArc
 50
90.0
 51
180.0
  0
ARC
  5
264
100
AcDbEntity
  8
0
100
AcDbCircle
 62
7
  6
CONTINUOUS
 10
7.3931255096
 20
5.6985136695
 40
0.015
100
AcDbArc
 50
180.0
 51
267.2727272727
  0
ARC
  5
265
100
AcDbEntity
  8
0
100
AcDbCircle
 62
7
  6
CONTINUOUS
 10
7.0818755097
 20
5.6985136695
 40
0.015
100
AcDbArc
 50
272.7272727273
 51
360.0
  0
ARC
  5
266
100
AcDbEntity
  8
0
100
AcDbCircle
 62
7
  6
CONTINUOUS
 10
6.5025005097
 20
5.4795136695
 40
0.015
100
AcDbArc
 50
180.0
 51
270.0
  0
ARC
  5
267
100
AcDbEntity
  8
0
100
AcDbCircle
 62
7
  6
CONTINUOUS
 10
7.9725005097
 20
5.4795136695
 40
0.015
100
AcDbArc
 50
270.0
 51
360.0
  0
ARC
  5
268
100
AcDbEntity
  8
0
100
AcDbCircle
 62
7
  6
CONTINUOUS
 10
7.9725005097
 20
5.6685136695
 40
0.015
100
AcDbArc
 50
0.0
 51
90.0
  0
ARC
  5
269
100
AcDbEntity
  8
0
100
AcDbCircle
 62
7
  6
CONTINUOUS
 10
4.0350005097
 20
5.6685136695
 40
0.015
100
AcDbArc
 50
0.0
 51
90.0
  0
ARC
  5
26A
100
AcDbEntity
  8
0
100
AcDbCircle
 62
7
  6
CONTINUOUS
 10
3.1443755097
 20
5.6985136695
 40
0.015
100
AcDbArc
 50
272.7272727273
 51
360.0
  0
ARC
  5
26B
100
AcDbEntity
  8
0
100
AcDbCircle
 62
7
  6
CONTINUOUS
 10
3.4556255096
 20
5.6985136695
 40
0.015
100
AcDbArc
 50
180.0
 51
267.2727272727
  0
ARC
  5
26C
100
AcDbEntity
  8
0
100
AcDbCircle
 62
7
  6
CONTINUOUS
 10
4.0350005097
 20
5.4795136695
 40
0.015
100
AcDbArc
 50
270.0
 51
360.0
  0
ARC
  5
26D
100
AcDbEntity
  8
0
100
AcDbCircle
 62
7
  6
CONTINUOUS
 10
3.2775005097
 20
5.4795136695
 40
0.015
100
AcDbArc
 50
180.0
 51
270.0
  0
ARC
  5
26E
100
AcDbEntity
  8
0
100
AcDbCircle
 62
7
  6
CONTINUOUS
 10
3.3225005097
 20
5.4795136695
 40
0.015
100
AcDbArc
 50
270.0
 51
360.0
  0
ARC
  5
26F
100
AcDbEntity
  8
0
100
AcDbCircle
 62
7
  6
CONTINUOUS
 10
2.5650005097
 20
5.4795136695
 40
0.015
100
AcDbArc
 50
180.0
 51
270.0
  0
ARC
  5
270
100
AcDbEntity
  8
0
100
AcDbCircle
 62
7
  6
CONTINUOUS
 10
2.5650005097
 20
5.6685136695
 40
0.015
100
AcDbArc
 50
90.0
 51
180.0
  0
ARC
  5
271
100
AcDbEntity
  8
0
100
AcDbCircle
 62
7
  6
CONTINUOUS
 10
3.2775005097
 20
5.6685136695
 40
0.015
100
AcDbArc
 50
90.0
 51
180.0
  0
ARC
  5
272
100
AcDbEntity
  8
0
100
AcDbCircle
 62
7
  6
CONTINUOUS
 10
3.3225005097
 20
5.6685136695
 40
0.015
100
AcDbArc
 50
0.0
 51
90.0
  0
ARC
  5
273
100
AcDbEntity
  8
0
100
AcDbCircle
 62
7
  6
CONTINUOUS
 10
6.7575005097
 20
6.6550136695
 40
0.015
100
AcDbArc
 50
180.0
 51
270.0
  0
ARC
  5
274
100
AcDbEntity
  8
0
100
AcDbCircle
 62
7
  6
CONTINUOUS
 10
7.7175005097
 20
6.6550136695
 40
0.015
100
AcDbArc
 50
270.0
 51
360.0
  0
ARC
  5
275
100
AcDbEntity
  8
0
100
AcDbCircle
 62
7
  6
CONTINUOUS
 10
7.4100005097
 20
5.8450136695
 40
0.015
100
AcDbArc
 50
270.0
 51
360.0
  0
ARC
  5
276
100
AcDbEntity
  8
0
100
AcDbCircle
 62
7
  6
CONTINUOUS
 10
7.0650005097
 20
5.8450136695
 40
0.015
100
AcDbArc
 50
180.0
 51
270.0
  0
ARC
  5
277
100
AcDbEntity
  8
0
100
AcDbCircle
 62
7
  6
CONTINUOUS
 10
4.7875005097
 20
6.5675136695
 40
0.015
100
AcDbArc
 50
180.0
 51
270.0
  0
ARC
  5
278
100
AcDbEntity
  8
0
100
AcDbCircle
 62
7
  6
CONTINUOUS
 10
5.7475005097
 20
6.5675136695
 40
0.015
100
AcDbArc
 50
270.0
 51
360.0
  0
ARC
  5
279
100
AcDbEntity
  8
0
100
AcDbCircle
 62
7
  6
CONTINUOUS
 10
4.9545005097
 20
5.5050136695
 40
0.015
100
AcDbArc
 50
180.0
 51
270.0
  0
ARC
  5
27A
100
AcDbEntity
  8
0
100
AcDbCircle
 62
7
  6
CONTINUOUS
 10
5.5805005097
 20
5.5050136695
 40
0.015
100
AcDbArc
 50
270.0
 51
360.0
  0
ARC
  5
27B
100
AcDbEntity
  8
0
100
AcDbCircle
 62
7
  6
CONTINUOUS
 10
7.2600005097
 20
5.6685136695
 40
0.015
100
AcDbArc
 50
0.0
 51
90.0
  0
ARC
  5
27C
100
AcDbEntity
  8
0
100
AcDbCircle
 62
7
  6
CONTINUOUS
 10
7.2150005097
 20
5.6685136695
 40
0.015
100
AcDbArc
 50
90.0
 51
180.0
  0
ARC
  5
27D
100
AcDbEntity
  8
0
100
AcDbCircle
 62
7
  6
CONTINUOUS
 10
7.2150005097
 20
5.4795136695
 40
0.015
100
AcDbArc
 50
180.0
 51
270.0
  0
ARC
  5
27E
100
AcDbEntity
  8
0
100
AcDbCircle
 62
7
  6
CONTINUOUS
 10
7.2600005097
 20
5.4795136695
 40
0.015
100
AcDbArc
 50
270.0
 51
360.0
  0
SPLINE
  5
27F
100
AcDbEntity
  8
0
100
AcDbSpline
 62
7
  6
CONTINUOUS
 70
0
 71
3
 72
15
 73
11
 74
0
 42
0.0000001
 43
0.0000001
 44
0.0000000001
 40
0.0
 40
0.0
 40
0.0
 40
0.0
 40
0.1243513579
 40
0.2488019593
 40
0.3734356365
 40
0.4983077548
 40
0.6234374446
 40
0.7488046131
 40
0.8743532746
 40
1.0
 40
1.0
 40
1.0
 40
1.0
 10
3.4539904139
 20
5.6835136695
 30
0.0
 10
3.4530204444
 20
5.6835136695
 30
0.0
 10
3.4510742467
 20
5.6837072374
 30
0.0
 10
3.4482720464
 20
5.6845669466
 30
0.0
 10
3.445688857
 20
5.6859627893
 30
0.0
 10
3.443425464
 20
5.6878408814
 30
0.0
 10
3.4415683157
 20
5.6901287076
 30
0.0
 10
3.4401886483
 20
5.6927386129
 30
0.0
 10
3.4393391894
 20
5.6955688898
 30
0.0
 10
3.4391480135
 20
5.6975335958
 30
0.0
 10
3.4391480135
 20
5.6985136695
 30
0.0
  0
SPLINE
  5
280
100
AcDbEntity
  8
0
100
AcDbSpline
 62
7
  6
CONTINUOUS
 70
0
 71
3
 72
25
 73
21
 74
0
 42
0.0000001
 43
0.0000001
 44
0.0000000001
 40
0.0
 40
0.0
 40
0.0
 40
0.0
 40
0.0069829727
 40
0.0147005719
 40
0.0236939918
 40
0.0343038587
 40
0.0467298685
 40
0.0610775413
 40
0.0774000188
 40
0.0957213064
 40
0.1383409657
 40
0.1887484308
 40
0.2466032935
 40
0.3114234767
 40
0.3826572409
 40
0.4596576427
 40
0.54172923
 40
0.6280948429
 40
0.8104842933
 40
1.0
 40
1.0
 40
1.0
 40
1.0
 10
3.2775005097
 20
5.6835136695
 30
0.0
 10
3.2775364552
 20
5.6835136695
 30
0.0
 10
3.2776125675
 20
5.6835273989
 30
0.0
 10
3.2777213313
 20
5.6835856516
 30
0.0
 10
3.2778275265
 20
5.6836791947
 30
0.0
 10
3.2779319803
 20
5.6838074316
 30
0.0
 10
3.27803506
 20
5.6839703202
 30
0.0
 10
3.2781368342
 20
5.6841676773
 30
0.0
 10
3.278237175
 20
5.6843992051
 30
0.0
 10
3.2783757801
 20
5.6847721468
 30
0.0
 10
3.2785398101
 20
5.6853219329
 30
0.0
 10
3.2787193049
 20
5.6860778445
 30
0.0
 10
3.2788877029
 20
5.6869529774
 30
0.0
 10
3.2790434703
 20
5.6879390584
 30
0.0
 10
3.2791847787
 20
5.6890267534
 30
0.0
 10
3.2793103209
 20
5.6902057002
 30
0.0
 10
3.2794186912
 20
5.6914645367
 30
0.0
 10
3.2795411966
 20
5.6932663734
 30
0.0
 10
3.2796423981
 20
5.6956235983
 30
0.0
 10
3.2796691844
 20
5.6975381182
 30
0.0
 10
3.2796691844
 20
5.6985136695
 30
0.0
  0
SPLINE
  5
281
100
AcDbEntity
  8
0
100
AcDbSpline
 62
7
  6
CONTINUOUS
 70
0
 71
3
 72
25
 73
21
 74
0
 42
0.0000001
 43
0.0000001
 44
0.0000000001
 40
0.0
 40
0.0
 40
0.0
 40
0.0
 40
0.0069360331
 40
0.0146167567
 40
0.0235836019
 40
0.034175411
 40
0.0465899106
 40
0.0609308976
 40
0.0772502102
 40
0.0955709208
 40
0.1381949646
 40
0.1886115764
 40
0.2464784413
 40
0.31131224
 40
0.3825603767
 40
0.4595753777
 40
0.5416614471
 40
0.6280412794
 40
0.8104579316
 40
1.0
 40
1.0
 40
1.0
 40
1.0
 10
3.3225005097
 20
5.6835136695
 30
0.0
 10
3.3224648107
 20
5.6835136695
 30
0.0
 10
3.3223891436
 20
5.6835274374
 30
0.0
 10
3.3222810652
 20
5.6835857244
 30
0.0
 10
3.3221754638
 20
5.6836792654
 30
0.0
 10
3.3220714971
 20
5.6838074891
 30
0.0
 10
3.3219688015
 20
5.683970363
 30
0.0
 10
3.3218673195
 20
5.6841677091
 30
0.0
 10
3.3217671889
 20
5.684399229
 30
0.0
 10
3.3216287683
 20
5.6847721816
 30
0.0
 10
3.3214647909
 20
5.6853219631
 30
0.0
 10
3.3212851464
 20
5.6860778603
 30
0.0
 10
3.321116423
 20
5.6869529841
 30
0.0
 10
3.3209602034
 20
5.68793906
 30
0.0
 10
3.3208183648
 20
5.6890267521
 30
0.0
 10
3.320692262
 20
5.6902056972
 30
0.0
 10
3.3205833485
 20
5.6914645334
 30
0.0
 10
3.32046018
 20
5.6932663603
 30
0.0
 10
3.3203584064
 20
5.6956235849
 30
0.0
 10
3.3203316927
 20
5.6975381192
 30
0.0
 10
3.3203318351
 20
5.6985136695
 30
0.0
  0
SPLINE
  5
282
100
AcDbEntity
  8
0
100
AcDbSpline
 62
7
  6
CONTINUOUS
 70
0
 71
3
 72
15
 73
11
 74
0
 42
0.0000001
 43
0.0000001
 44
0.0000000001
 40
0.0
 40
0.0
 40
0.0
 40
0.0
 40
0.1243643447
 40
0.2488195983
 40
0.3734519457
 40
0.4983196955
 40
0.6234444548
 40
0.7488078253
 40
0.8743543329
 40
1.0
 40
1.0
 40
1.0
 40
1.0
 10
3.1460106054
 20
5.6835136695
 30
0.0
 10
3.1469806841
 20
5.6835136695
 30
0.0
 10
3.1489270367
 20
5.6837072188
 30
0.0
 10
3.1517293997
 20
5.6845669229
 30
0.0
 10
3.1543126067
 20
5.6859627746
 30
0.0
 10
3.1565759144
 20
5.6878408828
 30
0.0
 10
3.1584329217
 20
5.6901287247
 30
0.0
 10
3.1598124449
 20
5.6927386359
 30
0.0
 10
3.1606618046
 20
5.6955689053
 30
0.0
 10
3.1608529871
 20
5.6975335961
 30
0.0
 10
3.1608530059
 20
5.6985136695
 30
0.0
  0
SPLINE
  5
283
100
AcDbEntity
  8
0
100
AcDbSpline
 62
7
  6
CONTINUOUS
 70
0
 71
3
 72
26
 73
22
 74
0
 42
0.0000001
 43
0.0000001
 44
0.0000000001
 40
0.0
 40
0.0
 40
0.0
 40
0.0
 40
0.180062646
 40
0.3548465694
 40
0.4386112012
 40
0.5190777568
 40
0.5955787306
 40
0.6674394344
 40
0.7339728119
 40
0.7944820707
 40
0.8482750982
 40
0.8946821989
 40
0.9149278894
 40
0.9331107252
 40
0.9491897925
 40
0.9631578655
 40
0.9750432648
 40
0.9849449301
 40
0.9892253121
 40
0.993116535
 40
1.0
 40
1.0
 40
1.0
 40
1.0
 10
3.4323820034
 20
5.6685136695
 30
0.0
 10
3.432382041
 20
5.6703984194
 30
0.0
 10
3.4324962738
 20
5.6741135538
 30
0.0
 10
3.4329135734
 20
5.6786885734
 30
0.0
 10
3.4334012997
 20
5.6822039354
 30
0.0
 10
3.4338246597
 20
5.6846883314
 30
0.0
 10
3.4343013299
 20
5.6870360227
 30
0.0
 10
3.4348206672
 20
5.6892250322
 30
0.0
 10
3.43537127
 20
5.691233322
 30
0.0
 10
3.4359406875
 20
5.6930390491
 30
0.0
 10
3.436516205
 20
5.6946202943
 30
0.0
 10
3.4370097109
 20
5.6957814504
 30
0.0
 10
3.4374025405
 20
5.6965780746
 30
0.0
 10
3.437677396
 20
5.6970783127
 30
0.0
 10
3.4379446163
 20
5.6975069815
 30
0.0
 10
3.4382028919
 20
5.6978625041
 30
0.0
 10
3.438451103
 20
5.6981434673
 30
0.0
 10
3.4386584838
 20
5.6983229873
 30
0.0
 10
3.4388195983
 20
5.6984230787
 30
0.0
 10
3.4389627604
 20
5.69848921
 30
0.0
 10
3.439075963
 20
5.6985136198
 30
0.0
 10
3.4391480136
 20
5.6985136695
 30
0.0
  0
SPLINE
  5
284
100
AcDbEntity
  8
0
100
AcDbSpline
 62
7
  6
CONTINUOUS
 70
0
 71
3
 72
22
 73
18
 74
0
 42
0.0000001
 43
0.0000001
 44
0.0000000001
 40
0.0
 40
0.0
 40
0.0
 40
0.0
 40
0.08769215
 40
0.1745465911
 40
0.3420463599
 40
0.4975561327
 40
0.5697593868
 40
0.6377999636
 40
0.7013726197
 40
0.7601905277
 40
0.8139334987
 40
0.862261065
 40
0.9049148522
 40
0.9418853519
 40
0.9583285852
 40
0.973451884
 40
1.0
 40
1.0
 40
1.0
 40
1.0
 10
3.4465026961
 20
5.6685136695
 30
0.0
 10
3.4465027438
 20
5.6690307022
 30
0.0
 10
3.4465418194
 20
5.6700602561
 30
0.0
 10
3.4467646655
 20
5.6720659975
 30
0.0
 10
3.4472859734
 20
5.6744343373
 30
0.0
 10
3.4480890332
 20
5.6766290518
 30
0.0
 10
3.4488418099
 20
5.6782029698
 30
0.0
 10
3.4494256111
 20
5.6792542148
 30
0.0
 10
3.4500301219
 20
5.6802012173
 30
0.0
 10
3.4506440236
 20
5.6810397505
 30
0.0
 10
3.4512559744
 20
5.68176562
 30
0.0
 10
3.4518550987
 20
5.6823746124
 30
0.0
 10
3.4524318729
 20
5.682862727
 30
0.0
 10
3.4529070186
 20
5.6831750823
 30
0.0
 10
3.4532715823
 20
5.6833511141
 30
0.0
 10
3.4535934928
 20
5.6834686028
 30
0.0
 10
3.4538395022
 20
5.6835136342
 30
0.0
 10
3.4539960298
 20
5.6835136695
 30
0.0
  0
SPLINE
  5
285
100
AcDbEntity
  8
0
100
AcDbSpline
 62
7
  6
CONTINUOUS
 70
0
 71
3
 72
21
 73
17
 74
0
 42
0.0000001
 43
0.0000001
 44
0.0000000001
 40
0.0
 40
0.0
 40
0.0
 40
0.0
 40
0.1264709644
 40
0.2524997104
 40
0.3153137091
 40
0.3779332522
 40
0.4403560905
 40
0.5026054781
 40
0.5647172129
 40
0.6267389187
 40
0.6887244823
 40
0.750739334
 40
0.8128261665
 40
0.8750438866
 40
0.9374510293
 40
1.0
 40
1.0
 40
1.0
 40
1.0
 10
3.2525607506
 20
5.6685136695
 30
0.0
 10
3.2525608887
 20
5.6704045113
 30
0.0
 10
3.2528869693
 20
5.6741866687
 30
0.0
 10
3.2540912899
 20
5.6787701577
 30
0.0
 10
3.2555233058
 20
5.6822510488
 30
0.0
 10
3.2568221834
 20
5.684745729
 30
0.0
 10
3.258339323
 20
5.6871040192
 30
0.0
 10
3.2600665136
 20
5.6893037643
 30
0.0
 10
3.2619935488
 20
5.6913227521
 30
0.0
 10
3.2641083101
 20
5.6931384994
 30
0.0
 10
3.2663959496
 20
5.6947288848
 30
0.0
 10
3.2688388916
 20
5.6960711715
 30
0.0
 10
3.2714156085
 20
5.6971440864
 30
0.0
 10
3.274101143
 20
5.69792721
 30
0.0
 10
3.276864123
 20
5.6984053731
 30
0.0
 10
3.2787340274
 20
5.6985135654
 30
0.0
 10
3.2796691844
 20
5.6985136695
 30
0.0
  0
SPLINE
  5
286
100
AcDbEntity
  8
0
100
AcDbSpline
 62
7
  6
CONTINUOUS
 70
0
 71
3
 72
23
 73
19
 74
0
 42
0.0000001
 43
0.0000001
 44
0.0000000001
 40
0.0
 40
0.0
 40
0.0
 40
0.0
 40
0.0625369806
 40
0.1249241483
 40
0.1871285631
 40
0.2492025858
 40
0.3112013779
 40
0.3731723923
 40
0.4351801549
 40
0.4972770662
 40
0.5595120344
 40
0.6219205283
 40
0.6845247193
 40
0.7473240928
 40
0.8103012532
 40
0.8734425056
 40
0.9367154846
 40
1.0
 40
1.0
 40
1.0
 40
1.0
 10
3.320331835
 20
5.6985136695
 30
0.0
 10
3.3212670369
 20
5.6985126034
 30
0.0
 10
3.3231368247
 20
5.6984051577
 30
0.0
 10
3.3259001347
 20
5.69792828
 30
0.0
 10
3.3285853001
 20
5.6971438571
 30
0.0
 10
3.3311619572
 20
5.6960708461
 30
0.0
 10
3.3336051366
 20
5.6947289368
 30
0.0
 10
3.3358928199
 20
5.6931385913
 30
0.0
 10
3.3380075827
 20
5.6913228144
 30
0.0
 10
3.3399346167
 20
5.6893037892
 30
0.0
 10
3.3416618182
 20
5.68710404
 30
0.0
 10
3.3431789675
 20
5.6847456963
 30
0.0
 10
3.3444775603
 20
5.6822509807
 30
0.0
 10
3.3455504355
 20
5.6796421228
 30
0.0
 10
3.3463909809
 20
5.6769411219
 30
0.0
 10
3.3469949025
 20
5.6741703557
 30
0.0
 10
3.3473587418
 20
5.6713536234
 30
0.0
 10
3.3474402385
 20
5.669460051
 30
0.0
 10
3.3474402687
 20
5.6685136695
 30
0.0
  0
SPLINE
  5
287
100
AcDbEntity
  8
0
100
AcDbSpline
 62
7
  6
CONTINUOUS
 70
0
 71
3
 72
25
 73
21
 74
0
 42
0.0000001
 43
0.0000001
 44
0.0000000001
 40
0.0
 40
0.0
 40
0.0
 40
0.0
 40
0.0068732032
 40
0.0150256841
 40
0.0249216489
 40
0.0368064025
 40
0.0507814909
 40
0.0668704948
 40
0.0850596289
 40
0.1053058781
 40
0.1517073579
 40
0.2054997575
 40
0.2660112152
 40
0.3325460686
 40
0.4044089991
 40
0.4809134571
 40
0.5613838837
 40
0.645150877
 40
0.8199310831
 40
1.0
 40
1.0
 40
1.0
 40
1.0
 10
3.1608530058
 20
5.6985136695
 30
0.0
 10
3.1609249458
 20
5.6985131724
 30
0.0
 10
3.1610822982
 20
5.6984787302
 30
0.0
 10
3.1613113889
 20
5.6983493657
 30
0.0
 10
3.1615500272
 20
5.698144212
 30
0.0
 10
3.1617983628
 20
5.6978631727
 30
0.0
 10
3.1620565317
 20
5.6975074196
 30
0.0
 10
3.1623235933
 20
5.6970783614
 30
0.0
 10
3.1625983796
 20
5.6965779071
 30
0.0
 10
3.1629912302
 20
5.6957812981
 30
0.0
 10
3.1634848846
 20
5.6946202968
 30
0.0
 10
3.1640603728
 20
5.6930391153
 30
0.0
 10
3.1646297725
 20
5.6912333882
 30
0.0
 10
3.1651803867
 20
5.6892250782
 30
0.0
 10
3.1656997309
 20
5.6870360368
 30
0.0
 10
3.1661763887
 20
5.6846882865
 30
0.0
 10
3.1665996701
 20
5.6822038211
 30
0.0
 10
3.1670873161
 20
5.6786884955
 30
0.0
 10
3.1675053197
 20
5.6741135674
 30
0.0
 10
3.1676190018
 20
5.6703984494
 30
0.0
 10
3.1676190159
 20
5.6685136695
 30
0.0
  0
SPLINE
  5
288
100
AcDbEntity
  8
0
100
AcDbSpline
 62
7
  6
CONTINUOUS
 70
0
 71
3
 72
22
 73
18
 74
0
 42
0.0000001
 43
0.0000001
 44
0.0000000001
 40
0.0
 40
0.0
 40
0.0
 40
0.0
 40
0.0265962211
 40
0.041562101
 40
0.0578638071
 40
0.0947775991
 40
0.1375111156
 40
0.1858807781
 40
0.239628922
 40
0.2984579014
 40
0.3620536198
 40
0.4301173551
 40
0.5023394776
 40
0.5784145572
 40
0.6579738538
 40
0.8255211579
 40
1.0
 40
1.0
 40
1.0
 40
1.0
 10
3.1460104171
 20
5.6835136695
 30
0.0
 10
3.1461671782
 20
5.6835136678
 30
0.0
 10
3.1464126872
 20
5.6834694486
 30
0.0
 10
3.1467325812
 20
5.6833508972
 30
0.0
 10
3.1470941954
 20
5.6831739782
 30
0.0
 10
3.1475681953
 20
5.6828617487
 30
0.0
 10
3.1481460882
 20
5.682374732
 30
0.0
 10
3.1487458216
 20
5.6817656034
 30
0.0
 10
3.1493573692
 20
5.6810393423
 30
0.0
 10
3.1499711113
 20
5.6802008364
 30
0.0
 10
3.1505758069
 20
5.6792539692
 30
0.0
 10
3.1511596074
 20
5.6782027528
 30
0.0
 10
3.1517099369
 20
5.6770514716
 30
0.0
 10
3.1522128582
 20
5.67580518
 30
0.0
 10
3.1528115336
 20
5.6739956089
 30
0.0
 10
3.1533480314
 20
5.6715608848
 30
0.0
 10
3.1534982786
 20
5.6695420669
 30
0.0
 10
3.1534983233
 20
5.6685136695
 30
0.0
  0
SPLINE
  5
289
100
AcDbEntity
  8
0
100
AcDbSpline
 62
7
  6
CONTINUOUS
 70
0
 71
3
 72
15
 73
11
 74
0
 42
0.0000001
 43
0.0000001
 44
0.0000000001
 40
0.0
 40
0.0
 40
0.0
 40
0.0
 40
0.121272702
 40
0.2431246598
 40
0.3660397536
 40
0.4903301995
 40
0.616092366
 40
0.7431990818
 40
0.8713253393
 40
1.0
 40
1.0
 40
1.0
 40
1.0
 10
3.1817397085
 20
5.4645136695
 30
0.0
 10
3.1808164262
 20
5.4645136695
 30
0.0
 10
3.178959716
 20
5.4647081637
 30
0.0
 10
3.1762899301
 20
5.465570936
 30
0.0
 10
3.1738309593
 20
5.4669704028
 30
0.0
 10
3.1716788293
 20
5.4688511714
 30
0.0
 10
3.1699148973
 20
5.4711396285
 30
0.0
 10
3.1686056922
 20
5.473747679
 30
0.0
 10
3.1678001431
 20
5.4765741003
 30
0.0
 10
3.1676190159
 20
5.4785340341
 30
0.0
 10
3.1676190159
 20
5.4795136695
 30
0.0
  0
SPLINE
  5
28A
100
AcDbEntity
  8
0
100
AcDbSpline
 62
7
  6
CONTINUOUS
 70
0
 71
3
 72
22
 73
18
 74
0
 42
0.0000001
 43
0.0000001
 44
0.0000000001
 40
0.0
 40
0.0
 40
0.0
 40
0.0
 40
0.0148644332
 40
0.0300179231
 40
0.062101237
 40
0.0979646286
 40
0.1386947695
 40
0.1848996951
 40
0.2367994232
 40
0.2943772411
 40
0.3574168955
 40
0.4255842469
 40
0.4984258368
 40
0.575418712
 40
0.6559511492
 40
0.8250058566
 40
1.0
 40
1.0
 40
1.0
 40
1.0
 10
3.2576209916
 20
5.4645136695
 30
0.0
 10
3.2575380886
 20
5.4645136695
 30
0.0
 10
3.2573704173
 20
5.464526056
 30
0.0
 10
3.2570312182
 20
5.4646008993
 30
0.0
 10
3.2566040794
 20
5.4647944053
 30
0.0
 10
3.2561192102
 20
5.4651643095
 30
0.0
 10
3.2556524789
 20
5.4656691284
 30
0.0
 10
3.2552065282
 20
5.4663042941
 30
0.0
 10
3.2547838498
 20
5.4670641886
 30
0.0
 10
3.2543884332
 20
5.4679423774
 30
0.0
 10
3.2540234856
 20
5.4689307649
 30
0.0
 10
3.2536927811
 20
5.4700202814
 30
0.0
 10
3.2533992145
 20
5.4712006395
 30
0.0
 10
3.2531459206
 20
5.4724606554
 30
0.0
 10
3.2528602758
 20
5.4742599734
 30
0.0
 10
3.2526234916
 20
5.476618272
 30
0.0
 10
3.2525607506
 20
5.4785376796
 30
0.0
 10
3.2525607506
 20
5.4795136695
 30
0.0
  0
SPLINE
  5
28B
100
AcDbEntity
  8
0
100
AcDbSpline
 62
7
  6
CONTINUOUS
 70
0
 71
3
 72
22
 73
18
 74
0
 42
0.0000001
 43
0.0000001
 44
0.0000000001
 40
0.0
 40
0.0
 40
0.0
 40
0.0
 40
0.0625551182
 40
0.1249329216
 40
0.1871431194
 40
0.2492260932
 40
0.3112286967
 40
0.3732071913
 40
0.4352206909
 40
0.4973253198
 40
0.5595682455
 40
0.6219847092
 40
0.6845947444
 40
0.7474033539
 40
0.8103956551
 40
0.8735386504
 40
1.0
 40
1.0
 40
1.0
 40
1.0
 10
7.257831835
 20
5.6985136695
 30
0.0
 10
7.2587672031
 20
5.6985126024
 30
0.0
 10
7.2606370147
 20
5.698406563
 30
0.0
 10
7.2634000529
 20
5.6979282712
 30
0.0
 10
7.2660849112
 20
5.697143894
 30
0.0
 10
7.268661704
 20
5.6960712364
 30
0.0
 10
7.2711047364
 20
5.694729079
 30
0.0
 10
7.2733924808
 20
5.6931389357
 30
0.0
 10
7.2755072084
 20
5.6913231079
 30
0.0
 10
7.2774343174
 20
5.6893041534
 30
0.0
 10
7.2791616223
 20
5.6871044281
 30
0.0
 10
7.2806787833
 20
5.6847460844
 30
0.0
 10
7.2819773685
 20
5.6822513011
 30
0.0
 10
7.2830502724
 20
5.6796424232
 30
0.0
 10
7.2838915897
 20
5.6769412326
 30
0.0
 10
7.2846957272
 20
5.6732475499
 30
0.0
 10
7.2849402084
 20
5.6704046098
 30
0.0
 10
7.2849402687
 20
5.6685136695
 30
0.0
  0
SPLINE
  5
28C
100
AcDbEntity
  8
0
100
AcDbSpline
 62
7
  6
CONTINUOUS
 70
0
 71
3
 72
23
 73
19
 74
0
 42
0.0000001
 43
0.0000001
 44
0.0000000001
 40
0.0
 40
0.0
 40
0.0
 40
0.0
 40
0.0633132785
 40
0.094970132
 40
0.1266004853
 40
0.1897476701
 40
0.2527447386
 40
0.315558199
 40
0.3781722972
 40
0.4405930968
 40
0.5028406898
 40
0.5649494739
 40
0.6269675412
 40
0.6889502955
 40
0.7509567643
 40
0.8130458003
 40
0.8752580177
 40
1.0
 40
1.0
 40
1.0
 40
1.0
 10
7.1900607506
 20
5.6685136695
 30
0.0
 10
7.1900608197
 20
5.6694603011
 30
0.0
 10
7.190122807
 20
5.670881204
 30
0.0
 10
7.1903257045
 20
5.672763569
 30
0.0
 10
7.1906077378
 20
5.6746333139
 30
0.0
 10
7.1911095785
 20
5.6769415841
 30
0.0
 10
7.191950818
 20
5.6796423945
 30
0.0
 10
7.1930236688
 20
5.6822513826
 30
0.0
 10
7.1943222545
 20
5.6847461218
 30
0.0
 10
7.1958395571
 20
5.6871043496
 30
0.0
 10
7.1975667179
 20
5.6893041525
 30
0.0
 10
7.1994938513
 20
5.6913230792
 30
0.0
 10
7.2016086183
 20
5.6931387945
 30
0.0
 10
7.2038962517
 20
5.6947291268
 30
0.0
 10
7.2063392065
 20
5.696071099
 30
0.0
 10
7.2089163185
 20
5.6971443237
 30
0.0
 10
7.2124956352
 20
5.6981891669
 30
0.0
 10
7.2153040986
 20
5.6985134619
 30
0.0
 10
7.2171691844
 20
5.6985136695
 30
0.0
  0
SPLINE
  5
28D
100
AcDbEntity
  8
0
100
AcDbSpline
 62
7
  6
CONTINUOUS
 70
0
 71
3
 72
22
 73
18
 74
0
 42
0.0000001
 43
0.0000001
 44
0.0000000001
 40
0.0
 40
0.0
 40
0.0
 40
0.0
 40
0.0877068468
 40
0.1745219525
 40
0.2595501086
 40
0.3421165286
 40
0.4976061419
 40
0.5698079337
 40
0.6378487334
 40
0.701419802
 40
0.7602267435
 40
0.8139670562
 40
0.8623336556
 40
0.9050063578
 40
0.9418912366
 40
0.9733885543
 40
1.0
 40
1.0
 40
1.0
 40
1.0
 10
7.3840026961
 20
5.6685136695
 30
0.0
 10
7.3840027438
 20
5.6690308225
 30
0.0
 10
7.3840417031
 20
5.6700602593
 30
0.0
 10
7.3842107665
 20
5.6715825394
 30
0.0
 10
7.3844829194
 20
5.6730591385
 30
0.0
 10
7.3849591541
 20
5.6749048236
 30
0.0
 10
7.38558853
 20
5.6766290664
 30
0.0
 10
7.3863416127
 20
5.67820273
 30
0.0
 10
7.3869255674
 20
5.6792539722
 30
0.0
 10
7.3875299604
 20
5.6802010384
 30
0.0
 10
7.388143575
 20
5.6810397538
 30
0.0
 10
7.3887556674
 20
5.6817658031
 30
0.0
 10
7.389355612
 20
5.6823745463
 30
0.0
 10
7.3899328477
 20
5.6828619387
 30
0.0
 10
7.3904811846
 20
5.6832240903
 30
0.0
 10
7.3909964682
 20
5.6834511891
 30
0.0
 10
7.3913391209
 20
5.6835136341
 30
0.0
 10
7.3914960321
 20
5.6835136695
 30
0.0
  0
SPLINE
  5
28E
100
AcDbEntity
  8
0
100
AcDbSpline
 62
7
  6
CONTINUOUS
 70
0
 71
3
 72
28
 73
24
 74
0
 42
0.0000001
 43
0.0000001
 44
0.0000000001
 40
0.0
 40
0.0
 40
0.0
 40
0.0
 40
0.0903604647
 40
0.1800858524
 40
0.2684747715
 40
0.354880409
 40
0.4386450194
 40
0.5191084267
 40
0.5956066013
 40
0.6674658548
 40
0.7339951563
 40
0.7945005961
 40
0.8482896128
 40
0.8946868759
 40
0.9149316338
 40
0.9331214099
 40
0.9492089446
 40
0.9631711161
 40
0.9750450835
 40
0.9849427132
 40
0.9892229805
 40
0.9931146357
 40
1.0
 40
1.0
 40
1.0
 40
1.0
 10
7.3698820034
 20
5.6685136695
 30
0.0
 10
7.3698820223
 20
5.669459529
 30
0.0
 10
7.3699114949
 20
5.6713447216
 30
0.0
 10
7.3700404504
 20
5.6741524583
 30
0.0
 10
7.3702513968
 20
5.6769137502
 30
0.0
 10
7.370540931
 20
5.6796051498
 30
0.0
 10
7.3709014086
 20
5.6822042225
 30
0.0
 10
7.371324676
 20
5.6846886668
 30
0.0
 10
7.3718013768
 20
5.6870363783
 30
0.0
 10
7.3723207443
 20
5.6892253855
 30
0.0
 10
7.3728713363
 20
5.6912336678
 30
0.0
 10
7.3734407957
 20
5.6930393318
 30
0.0
 10
7.3740162308
 20
5.6946204872
 30
0.0
 10
7.3745098383
 20
5.6957814892
 30
0.0
 10
7.3749026724
 20
5.6965781056
 30
0.0
 10
7.3751774972
 20
5.6970785568
 30
0.0
 10
7.3754445934
 20
5.6975074464
 30
0.0
 10
7.3757028652
 20
5.6978628914
 30
0.0
 10
7.3759511559
 20
5.6981435118
 30
0.0
 10
7.3761584906
 20
5.698322833
 30
0.0
 10
7.3763195546
 20
5.6984229426
 30
0.0
 10
7.3764627119
 20
5.6984891495
 30
0.0
 10
7.3765759402
 20
5.6985136198
 30
0.0
 10
7.3766480136
 20
5.6985136695
 30
0.0
  0
SPLINE
  5
28F
100
AcDbEntity
  8
0
100
AcDbSpline
 62
7
  6
CONTINUOUS
 70
0
 71
3
 72
22
 73
18
 74
0
 42
0.0000001
 43
0.0000001
 44
0.0000000001
 40
0.0
 40
0.0
 40
0.0
 40
0.0
 40
0.0265646369
 40
0.0415224149
 40
0.0578425668
 40
0.094777316
 40
0.1375052048
 40
0.1858757345
 40
0.2396296525
 40
0.2984630784
 40
0.3620618474
 40
0.4301249443
 40
0.5023476653
 40
0.6578916352
 40
0.740484019
 40
0.825539382
 40
1.0
 40
1.0
 40
1.0
 40
1.0
 10
7.0835104263
 20
5.6835136695
 30
0.0
 10
7.0836670034
 20
5.6835136679
 30
0.0
 10
7.0839122907
 20
5.6834694664
 30
0.0
 10
7.084232005
 20
5.6833507934
 30
0.0
 10
7.0845938704
 20
5.6831739679
 30
0.0
 10
7.0850681156
 20
5.6828617057
 30
0.0
 10
7.0856460536
 20
5.682374569
 30
0.0
 10
7.086245636
 20
5.6817652761
 30
0.0
 10
7.0868574979
 20
5.6810391823
 30
0.0
 10
7.0874712342
 20
5.6802005429
 30
0.0
 10
7.0880759987
 20
5.6792536711
 30
0.0
 10
7.0886598064
 20
5.6782023575
 30
0.0
 10
7.0894119997
 20
5.6766283601
 30
0.0
 10
7.0900423391
 20
5.6749046532
 30
0.0
 10
7.0905183773
 20
5.6730588118
 30
0.0
 10
7.0908841181
 20
5.6710745991
 30
0.0
 10
7.0909982787
 20
5.6695419745
 30
0.0
 10
7.0909983233
 20
5.6685136695
 30
0.0
  0
SPLINE
  5
290
100
AcDbEntity
  8
0
100
AcDbSpline
 62
7
  6
CONTINUOUS
 70
0
 71
3
 72
27
 73
23
 74
0
 42
0.0000001
 43
0.0000001
 44
0.0000000001
 40
0.0
 40
0.0
 40
0.0
 40
0.0
 40
0.0068759264
 40
0.0150245522
 40
0.0249210345
 40
0.0368088391
 40
0.0507857363
 40
0.0668762605
 40
0.085062173
 40
0.1053040775
 40
0.1517016616
 40
0.2054897674
 40
0.2659969705
 40
0.3325275453
 40
0.4043863603
 40
0.4808875955
 40
0.5613530588
 40
0.6451174725
 40
0.7315225691
 40
0.8199107448
 40
0.909637099
 40
1.0
 40
1.0
 40
1.0
 40
1.0
 10
7.0983530058
 20
5.6985136695
 30
0.0
 10
7.0984249781
 20
5.6985131733
 30
0.0
 10
7.0985823639
 20
5.6984791562
 30
0.0
 10
7.0988118145
 20
5.6983502682
 30
0.0
 10
7.0990501668
 20
5.6981447036
 30
0.0
 10
7.0992981759
 20
5.6978633053
 30
0.0
 10
7.0995562501
 20
5.6975073804
 30
0.0
 10
7.0998234235
 20
5.697078365
 30
0.0
 10
7.1000983424
 20
5.6965780194
 30
0.0
 10
7.1004912178
 20
5.6957815024
 30
0.0
 10
7.1009847599
 20
5.6946205233
 30
0.0
 10
7.1015602692
 20
5.6930393979
 30
0.0
 10
7.1021296811
 20
5.6912337103
 30
0.0
 10
7.1026802787
 20
5.6892254213
 30
0.0
 10
7.1031997067
 20
5.6870364049
 30
0.0
 10
7.1036763359
 20
5.6846886488
 30
0.0
 10
7.1040996022
 20
5.6822041746
 30
0.0
 10
7.1044601191
 20
5.6796051153
 30
0.0
 10
7.1047496801
 20
5.6769137582
 30
0.0
 10
7.1049608298
 20
5.6741525087
 30
0.0
 10
7.1050897376
 20
5.671344761
 30
0.0
 10
7.1051190088
 20
5.6694595465
 30
0.0
 10
7.1051190159
 20
5.6685136695
 30
0.0
  0
SPLINE
  5
291
100
AcDbEntity
  8
0
100
AcDbSpline
 62
7
  6
CONTINUOUS
 70
0
 71
3
 72
22
 73
18
 74
0
 42
0.0000001
 43
0.0000001
 44
0.0000000001
 40
0.0
 40
0.0
 40
0.0
 40
0.0
 40
0.0148644384
 40
0.0300179323
 40
0.0621012506
 40
0.0979646425
 40
0.1386947823
 40
0.1848997072
 40
0.2367994347
 40
0.2943772518
 40
0.3574169054
 40
0.4255842558
 40
0.4984258446
 40
0.5754187186
 40
0.6559511547
 40
0.8250058596
 40
1.0
 40
1.0
 40
1.0
 40
1.0
 10
3.3423800275
 20
5.4645136695
 30
0.0
 10
3.3424629305
 20
5.4645136695
 30
0.0
 10
3.3426306019
 20
5.464526056
 30
0.0
 10
3.3429698011
 20
5.4646008993
 30
0.0
 10
3.3433969399
 20
5.4647944053
 30
0.0
 10
3.3438818092
 20
5.4651643095
 30
0.0
 10
3.3443485405
 20
5.4656691284
 30
0.0
 10
3.3447944911
 20
5.4663042941
 30
0.0
 10
3.3452171696
 20
5.4670641886
 30
0.0
 10
3.3456125862
 20
5.4679423774
 30
0.0
 10
3.3459775338
 20
5.4689307649
 30
0.0
 10
3.3463082383
 20
5.4700202814
 30
0.0
 10
3.3466018048
 20
5.4712006395
 30
0.0
 10
3.3468550987
 20
5.4724606554
 30
0.0
 10
3.3471407435
 20
5.4742599734
 30
0.0
 10
3.3473775278
 20
5.476618272
 30
0.0
 10
3.3474402686
 20
5.4785376796
 30
0.0
 10
3.3474402686
 20
5.4795136695
 30
0.0
  0
SPLINE
  5
292
100
AcDbEntity
  8
0
100
AcDbSpline
 62
7
  6
CONTINUOUS
 70
0
 71
3
 72
15
 73
11
 74
0
 42
0.0000001
 43
0.0000001
 44
0.0000000001
 40
0.0
 40
0.0
 40
0.0
 40
0.0
 40
0.1212727055
 40
0.2431246628
 40
0.3660397561
 40
0.4903302016
 40
0.6160923676
 40
0.7431990829
 40
0.87132534
 40
1.0
 40
1.0
 40
1.0
 40
1.0
 10
3.4182613108
 20
5.4645136695
 30
0.0
 10
3.4191845931
 20
5.4645136695
 30
0.0
 10
3.4210413033
 20
5.4647081637
 30
0.0
 10
3.4237110892
 20
5.4655709359
 30
0.0
 10
3.42617006
 20
5.4669704028
 30
0.0
 10
3.42832219
 20
5.4688511714
 30
0.0
 10
3.4300861221
 20
5.4711396285
 30
0.0
 10
3.4313953271
 20
5.473747679
 30
0.0
 10
3.4322008763
 20
5.4765741003
 30
0.0
 10
3.4323820034
 20
5.4785340341
 30
0.0
 10
3.4323820034
 20
5.4795136695
 30
0.0
  0
SPLINE
  5
293
100
AcDbEntity
  8
0
100
AcDbSpline
 62
7
  6
CONTINUOUS
 70
0
 71
3
 72
15
 73
11
 74
0
 42
0.0000001
 43
0.0000001
 44
0.0000000001
 40
0.0
 40
0.0
 40
0.0
 40
0.0
 40
0.1212767517
 40
0.243123737
 40
0.3660399141
 40
0.4903301776
 40
0.6160922148
 40
0.7432001592
 40
0.8713210505
 40
1.0
 40
1.0
 40
1.0
 40
1.0
 10
7.3557613108
 20
5.4645136695
 30
0.0
 10
7.3566846233
 20
5.4645136695
 30
0.0
 10
7.3585413324
 20
5.4647081443
 30
0.0
 10
7.3612110874
 20
5.4655710006
 30
0.0
 10
7.363670053
 20
5.4669704006
 30
0.0
 10
7.3658221915
 20
5.4688511707
 30
0.0
 10
7.3675861242
 20
5.4711396372
 30
0.0
 10
7.368895265
 20
5.473747677
 30
0.0
 10
7.3697008954
 20
5.4765740716
 30
0.0
 10
7.3698820034
 20
5.4785340021
 30
0.0
 10
7.3698820034
 20
5.4795136695
 30
0.0
  0
SPLINE
  5
294
100
AcDbEntity
  8
0
100
AcDbSpline
 62
7
  6
CONTINUOUS
 70
0
 71
3
 72
15
 73
11
 74
0
 42
0.0000001
 43
0.0000001
 44
0.0000000001
 40
0.0
 40
0.0
 40
0.0
 40
0.0
 40
0.1243556048
 40
0.2488011975
 40
0.3734359673
 40
0.498307896
 40
0.6234373955
 40
0.7488057091
 40
0.8743491066
 40
1.0
 40
1.0
 40
1.0
 40
1.0
 10
7.3914904139
 20
5.6835136695
 30
0.0
 10
7.3905204119
 20
5.6835136695
 30
0.0
 10
7.3885742146
 20
5.6837072188
 30
0.0
 10
7.3857720427
 20
5.6845670128
 30
0.0
 10
7.3831888614
 20
5.6859627897
 30
0.0
 10
7.3809254605
 20
5.6878408828
 30
0.0
 10
7.3790683121
 20
5.6901287181
 30
0.0
 10
7.3776887127
 20
5.6927386141
 30
0.0
 10
7.3768391694
 20
5.6955688609
 30
0.0
 10
7.3766480135
 20
5.697533564
 30
0.0
 10
7.3766480135
 20
5.6985136695
 30
0.0
  0
SPLINE
  5
295
100
AcDbEntity
  8
0
100
AcDbSpline
 62
7
  6
CONTINUOUS
 70
0
 71
3
 72
15
 73
11
 74
0
 42
0.0000001
 43
0.0000001
 44
0.0000000001
 40
0.0
 40
0.0
 40
0.0
 40
0.0
 40
0.1243684789
 40
0.248818577
 40
0.3734520728
 40
0.4983196709
 40
0.6234442889
 40
0.7488088387
 40
0.87435014
 40
1.0
 40
1.0
 40
1.0
 40
1.0
 10
7.0835106054
 20
5.6835136695
 30
0.0
 10
7.0844807157
 20
5.6835136695
 30
0.0
 10
7.086427066
 20
5.683707199
 30
0.0
 10
7.0892293987
 20
5.6845669883
 30
0.0
 10
7.0918125979
 20
5.6859627725
 30
0.0
 10
7.0940759149
 20
5.6878408819
 30
0.0
 10
7.0959329234
 20
5.690128733
 30
0.0
 10
7.09731238
 20
5.6927386354
 30
0.0
 10
7.0981618246
 20
5.6955688757
 30
0.0
 10
7.0983529855
 20
5.6975335641
 30
0.0
 10
7.0983530059
 20
5.6985136695
 30
0.0
  0
SPLINE
  5
296
100
AcDbEntity
  8
0
100
AcDbSpline
 62
7
  6
CONTINUOUS
 70
0
 71
3
 72
25
 73
21
 74
0
 42
0.0000001
 43
0.0000001
 44
0.0000000001
 40
0.0
 40
0.0
 40
0.0
 40
0.0
 40
0.0069383949
 40
0.0146192837
 40
0.0235857936
 40
0.0341784557
 40
0.0465909271
 40
0.0609291716
 40
0.0772501681
 40
0.0955739116
 40
0.1381938911
 40
0.1886139435
 40
0.2464778043
 40
0.3113136278
 40
0.3825612261
 40
0.4595766302
 40
0.5416570746
 40
0.6280444022
 40
0.8104521484
 40
1.0
 40
1.0
 40
1.0
 40
1.0
 10
7.2600005097
 20
5.6835136695
 30
0.0
 10
7.2599647985
 20
5.6835136695
 30
0.0
 10
7.2598891164
 20
5.6835274148
 30
0.0
 10
7.2597810084
 20
5.683585678
 30
0.0
 10
7.2596754097
 20
5.6836792346
 30
0.0
 10
7.2595715094
 20
5.6838075017
 30
0.0
 10
7.2594688181
 20
5.6839703511
 30
0.0
 10
7.2593673256
 20
5.6841676758
 30
0.0
 10
7.2592672056
 20
5.6843992122
 30
0.0
 10
7.2591287951
 20
5.6847721721
 30
0.0
 10
7.2589647466
 20
5.6853219467
 30
0.0
 10
7.2587851764
 20
5.6860778454
 30
0.0
 10
7.2586164071
 20
5.6869529737
 30
0.0
 10
7.2584602154
 20
5.6879390489
 30
0.0
 10
7.2583183529
 20
5.6890267496
 30
0.0
 10
7.2581922791
 20
5.6902056704
 30
0.0
 10
7.2580833218
 20
5.6914645171
 30
0.0
 10
7.2579602114
 20
5.6932663156
 30
0.0
 10
7.2578583961
 20
5.6956235646
 30
0.0
 10
7.2578316801
 20
5.6975380874
 30
0.0
 10
7.2578318351
 20
5.6985136695
 30
0.0
  0
SPLINE
  5
297
100
AcDbEntity
  8
0
100
AcDbSpline
 62
7
  6
CONTINUOUS
 70
0
 71
3
 72
25
 73
21
 74
0
 42
0.0000001
 43
0.0000001
 44
0.0000000001
 40
0.0
 40
0.0
 40
0.0
 40
0.0
 40
0.0069857851
 40
0.0147037208
 40
0.0236967522
 40
0.0343072778
 40
0.0467311309
 40
0.0610760503
 40
0.0774002741
 40
0.0957246281
 40
0.1383402614
 40
0.1887511454
 40
0.2466029951
 40
0.3114251871
 40
0.3826583833
 40
0.4596591549
 40
0.5417250691
 40
0.6280981669
 40
0.8104785833
 40
1.0
 40
1.0
 40
1.0
 40
1.0
 10
7.2150005097
 20
5.6835136695
 30
0.0
 10
7.2150364698
 20
5.6835136695
 30
0.0
 10
7.2151126004
 20
5.6835273757
 30
0.0
 10
7.2152213973
 20
5.6835856046
 30
0.0
 10
7.2153275889
 20
5.683679164
 30
0.0
 10
7.2154319716
 20
5.6838074458
 30
0.0
 10
7.2155350439
 20
5.6839703098
 30
0.0
 10
7.2156368275
 20
5.6841676457
 30
0.0
 10
7.2157371586
 20
5.6843991901
 30
0.0
 10
7.215875757
 20
5.6847721387
 30
0.0
 10
7.2160398585
 20
5.6853219182
 30
0.0
 10
7.2162192776
 20
5.6860778319
 30
0.0
 10
7.2163877211
 20
5.6869529693
 30
0.0
 10
7.2165434604
 20
5.6879390496
 30
0.0
 10
7.2166847926
 20
5.6890267531
 30
0.0
 10
7.2168103054
 20
5.6902056753
 30
0.0
 10
7.2169187165
 20
5.6914645223
 30
0.0
 10
7.2170411679
 20
5.6932663297
 30
0.0
 10
7.217142409
 20
5.6956235788
 30
0.0
 10
7.2171691844
 20
5.6975380867
 30
0.0
 10
7.2171691844
 20
5.6985136695
 30
0.0
  0
SPLINE
  5
298
100
AcDbEntity
  8
0
100
AcDbSpline
 62
7
  6
CONTINUOUS
 70
0
 71
3
 72
22
 73
18
 74
0
 42
0.0000001
 43
0.0000001
 44
0.0000000001
 40
0.0
 40
0.0
 40
0.0
 40
0.0
 40
0.0148708659
 40
0.0300264025
 40
0.0621044562
 40
0.0979613882
 40
0.1386963509
 40
0.1848992419
 40
0.236801116
 40
0.2943764297
 40
0.3574178329
 40
0.4255848899
 40
0.4984266834
 40
0.575414669
 40
0.6559538121
 40
0.8250004302
 40
1.0
 40
1.0
 40
1.0
 40
1.0
 10
7.2798800275
 20
5.4645136695
 30
0.0
 10
7.2799629665
 20
5.4645136695
 30
0.0
 10
7.2801306845
 20
5.4645260382
 30
0.0
 10
7.2804699228
 20
5.4646008183
 30
0.0
 10
7.2808969439
 20
5.4647944645
 30
0.0
 10
7.2813818182
 20
5.4651642778
 30
0.0
 10
7.281848473
 20
5.4656691474
 30
0.0
 10
7.2822945765
 20
5.4663042359
 30
0.0
 10
7.2827171208
 20
5.4670641988
 30
0.0
 10
7.2831126203
 20
5.4679423543
 30
0.0
 10
7.2834775134
 20
5.4689307607
 30
0.0
 10
7.2838082678
 20
5.4700202723
 30
0.0
 10
7.28410177
 20
5.4712006199
 30
0.0
 10
7.2843551556
 20
5.4724606306
 30
0.0
 10
7.2846406783
 20
5.4742599369
 30
0.0
 10
7.2848775525
 20
5.4766182483
 30
0.0
 10
7.2849402686
 20
5.4785376478
 30
0.0
 10
7.2849402686
 20
5.4795136695
 30
0.0
  0
SPLINE
  5
299
100
AcDbEntity
  8
0
100
AcDbSpline
 62
7
  6
CONTINUOUS
 70
0
 71
3
 72
15
 73
11
 74
0
 42
0.0000001
 43
0.0000001
 44
0.0000000001
 40
0.0
 40
0.0
 40
0.0
 40
0.0
 40
0.121276748
 40
0.243123734
 40
0.3660399115
 40
0.4903301756
 40
0.6160922131
 40
0.7432001581
 40
0.8713210498
 40
1.0
 40
1.0
 40
1.0
 40
1.0
 10
7.1192397085
 20
5.4645136695
 30
0.0
 10
7.118316396
 20
5.4645136695
 30
0.0
 10
7.1164596869
 20
5.4647081443
 30
0.0
 10
7.1137899319
 20
5.4655710006
 30
0.0
 10
7.1113309664
 20
5.4669704006
 30
0.0
 10
7.1091788278
 20
5.4688511707
 30
0.0
 10
7.1074148952
 20
5.4711396372
 30
0.0
 10
7.1061057544
 20
5.473747677
 30
0.0
 10
7.105300124
 20
5.4765740716
 30
0.0
 10
7.1051190159
 20
5.4785340021
 30
0.0
 10
7.1051190159
 20
5.4795136695
 30
0.0
  0
SPLINE
  5
29A
100
AcDbEntity
  8
0
100
AcDbSpline
 62
7
  6
CONTINUOUS
 70
0
 71
3
 72
22
 73
18
 74
0
 42
0.0000001
 43
0.0000001
 44
0.0000000001
 40
0.0
 40
0.0
 40
0.0
 40
0.0
 40
0.0148708596
 40
0.0300263915
 40
0.0621044417
 40
0.0979613746
 40
0.1386963382
 40
0.1848992296
 40
0.2368011044
 40
0.2943764189
 40
0.357417823
 40
0.425584881
 40
0.4984266755
 40
0.5754146623
 40
0.6559538067
 40
0.8250004271
 40
1.0
 40
1.0
 40
1.0
 40
1.0
 10
7.1951209916
 20
5.4645136695
 30
0.0
 10
7.1950380526
 20
5.4645136695
 30
0.0
 10
7.1948703347
 20
5.4645260382
 30
0.0
 10
7.1945310965
 20
5.4646008183
 30
0.0
 10
7.1941040755
 20
5.4647944645
 30
0.0
 10
7.1936192012
 20
5.4651642778
 30
0.0
 10
7.1931525463
 20
5.4656691473
 30
0.0
 10
7.1927064429
 20
5.4663042359
 30
0.0
 10
7.1922838986
 20
5.4670641988
 30
0.0
 10
7.1918883991
 20
5.4679423543
 30
0.0
 10
7.191523506
 20
5.4689307607
 30
0.0
 10
7.1911927515
 20
5.4700202723
 30
0.0
 10
7.1908992493
 20
5.4712006199
 30
0.0
 10
7.1906458638
 20
5.4724606306
 30
0.0
 10
7.190360341
 20
5.4742599369
 30
0.0
 10
7.190123467
 20
5.4766182483
 30
0.0
 10
7.1900607506
 20
5.4785376478
 30
0.0
 10
7.1900607506
 20
5.4795136695
 30
0.0
  0
ENDSEC
  0
SECTION
  2
OBJECTS
  0
DICTIONARY
  5
C
100
AcDbDictionary
280
0
281
1
  3
ACAD_GROUP
350
D
  3
ACAD_MLINESTYLE
350
17
  3
ACAD_LAYOUT
350
1A
  3
ACAD_PLOTSETTINGS
350
19
  3
ACAD_PLOTSTYLENAME
350
E
  0
DICTIONARY
  5
D
102
{ACAD_REACTORS
330
C
102
}
100
AcDbDictionary
280
0
281
1
  0
ACDBDICTIONARYWDFLT
  5
E
102
{ACAD_REACTORS
330
C
102
}
100
AcDbDictionary
281
1
  3
Normal
350
F
100
AcDbDictionaryWithDefault
340
F
  0
DICTIONARY
  5
17
102
{ACAD_REACTORS
330
C
102
}
100
AcDbDictionary
280
0
281
1
  3
Standard
350
18
  0
DICTIONARY
  5
19
102
{ACAD_REACTORS
330
C
102
}
100
AcDbDictionary
281
1
  0
DICTIONARY
  5
1A
102
{ACAD_REACTORS
330
C
102
}
100
AcDbDictionary
281
1
  3
Model
350
29B
  3
Layout1
350
29C
  0
ACDBPLACEHOLDER
  5
F
102
{ACAD_REACTORS
330
E
102
}
  0
MLINESTYLE
  5
18
102
{ACAD_REACTORS
330
17
102
}
100
AcDbMlineStyle
  2
STANDARD
 70
0
  3

 62
256
 51
90.0
 52
90.0
 71
2
 49
0.5
 62
256
  6
BYLAYER
 49
-0.5
 62
256
  6
BYLAYER
  0
LAYOUT
  5
29B
102
{ACAD_REACTORS
330
1A
102
}
100
AcDbPlotSettings
  1

  2
none_device
  4
ANSI_A_(11.00_x_8.50_Inches)
  6

 40
0.0
 41
0.0
 42
0.0
 43
0.0
 44
279.4
 45
215.9
 46
0.0
 47
0.0
 48
0.0
 49
0.0
140
0.0
141
0.0
142
1.0
143
1.0
 70
1024
 72
0
 73
0
 74
0
  7

 75
0
147
1.0
148
0.0
149
0.0
100
AcDbLayout
  1
Model
 70
0
 71
0
 10
0.0
 20
0.0
 11
11.0
 21
8.5
 12
0.0
 22
0.0
 32
0.0
 14
0.0
 24
0.0
 34
0.0
 15
0.0
 25
0.0
 35
0.0
146
0.0
 13
0.0
 23
0.0
 33
0.0
 16
1.0
 26
0.0
 36
0.0
 17
0.0
 27
1.0
 37
0.0
 76
0
330
202
345
0
346
0
  0
LAYOUT
  5
29C
102
{ACAD_REACTORS
330
1A
102
}
100
AcDbPlotSettings
  1

  2
none_device
  4
ANSI_A_(11.00_x_8.50_Inches)
  6

 40
0.0
 41
0.0
 42
0.0
 43
0.0
 44
279.4
 45
215.9
 46
0.0
 47
0.0
 48
0.0
 49
0.0
140
0.0
141
0.0
142
1.0
143
1.0
 70
0
 72
0
 73
0
 74
0
  7

 75
0
147
1.0
148
0.0
149
0.0
100
AcDbLayout
  1
Layout1
 70
0
 71
1
 10
0.0
 20
0.0
 11
11.0
 21
8.5
 12
0.0
 22
0.0
 32
0.0
 14
0.0
 24
0.0
 34
0.0
 15
0.0
 25
0.0
 35
0.0
146
0.0
 13
0.0
 23
0.0
 33
0.0
 16
1.0
 26
0.0
 36
0.0
 17
0.0
 27
1.0
 37
0.0
 76
0
330
203
345
0
346
0
  0
ENDSEC
  0
EOF
