999
DXF file: E:\BRASSTECH\JOE\EN-3XXX\EN-3934\Webdata\1\CAD\3-3336_RIGHT.dxf
999
Pro/ENGINEER 2018400 by Parametric Technology Corporation
  0
SECTION
  2
HEADER
  9
$ACADVER
  1
AC1018
  9
$DWGCODEPAGE
  3
ANSI_1252
  9
$EXTMAX
 10
22.0
 20
17.0
 30
0.0
  9
$EXTMIN
 10
0.0
 20
0.0
 30
0.0
  9
$LIMMIN
 10
0.0
 20
0.0
  9
$LIMMAX
 10
22.0
 20
17.0
  9
$VIEWCTR
 10
11.0
 20
8.5
  9
$VIEWSIZE
 40
17.0
  9
$CLAYER
  8
0
  9
$LTSCALE
 40
1.21
  9
$CELTYPE
  6
BYLAYER
  9
$DIMSCALE
 40
1.0
  9
$DIMASZ
 40
0.1
  9
$DIMEXO
 40
0.0625
  9
$DIMDLI
 40
0.836
  9
$DIMEXE
 40
0.125
  9
$DIMCEN
 40
0.198
  9
$DIMLFAC
 40
1.0
  9
$DIMBLK
  1
_FILLED
  9
$DIMALT
 70
1
  9
$DIMALTD
 70
2
  9
$DIMALTTD
 70
2
  9
$DIMALTF
 40
25.4
  9
$DIMTXT
 40
0.08
  9
$DIMTOL
 70
1
  9
$DIMLIM
 70
0
  9
$DIMTFAC
 40
1.0
  9
$DIMTP
 40
0.001
  9
$DIMTM
 40
0.001
  9
$DIMGAP
 40
0.09
  9
$DIMDSEP
 70
46
  9
$AUNITS
 70
0
  9
$PDMODE
 70
3
  9
$PDSIZE
 40
0.06
  9
$HANDSEED
  5
276
  9
$TILEMODE
 70
1
  9
$MEASUREMENT
 70
0
  9
$INSUNITS
 70
1
  0
ENDSEC
  0
SECTION
  2
CLASSES
  0
CLASS
  1
ACDBDICTIONARYWDFLT
  2
AcDbDictionaryWithDefault
  3
AutoCAD 2000
 90
0
 91
1
280
0
281
0
  0
CLASS
  1
ACDBPLACEHOLDER
  2
AcDbPlaceHolder
  3
AutoCAD 2000
 90
0
 91
1
280
0
281
0
  0
CLASS
  1
LAYOUT
  2
AcDbLayout
  3
AutoCAD 2000
 90
0
 91
0
280
0
281
0
  0
ENDSEC
  0
SECTION
  2
TABLES
  0
TABLE
  2
VPORT
  5
8
100
AcDbSymbolTable
 70
2
  0
VPORT
  5
1F4
100
AcDbSymbolTableRecord
100
AcDbViewportTableRecord
  2
*ACTIVE
 70
0
 10
0.0
 20
0.0
 11
1.0
 21
1.0
 12
11.0
 22
8.5
 13
0.0
 23
0.0
 14
1.0
 24
1.0
 15
0.0
 25
0.0
 16
0.0
 26
0.0
 36
1.0
 17
0.0
 27
0.0
 37
0.0
 40
17.0
 41
1.2941176471
 42
50.0
 43
0.0
 44
0.0
 50
0.0
 51
0.0
 71
0
 72
100
 73
1
 74
1
 75
0
 76
0
 77
0
 78
0
  0
ENDTAB
  0
TABLE
  2
LTYPE
  5
5
100
AcDbSymbolTable
 70
6
  0
LTYPE
  5
14
100
AcDbSymbolTableRecord
100
AcDbLinetypeTableRecord
  2
BYBLOCK
 70
0
  3

 72
65
 73
0
 40
0.0
  0
LTYPE
  5
15
100
AcDbSymbolTableRecord
100
AcDbLinetypeTableRecord
  2
BYLAYER
 70
0
  3

 72
65
 73
0
 40
0.0
  0
LTYPE
  5
16
100
AcDbSymbolTableRecord
100
AcDbLinetypeTableRecord
  2
CONTINUOUS
 70
64
  3
Solid line
 72
65
 73
0
 40
0.0
  0
LTYPE
  5
1F5
100
AcDbSymbolTableRecord
100
AcDbLinetypeTableRecord
  2
CENTER
 70
64
  3
____ _ ____ _ ____ _ ____ _ ____ _ ____ _ ____
 72
65
 73
4
 40
0.6
 49
0.375
 74
0
 49
-0.075
 74
0
 49
0.075
 74
0
 49
-0.075
 74
0
  0
LTYPE
  5
1F6
100
AcDbSymbolTableRecord
100
AcDbLinetypeTableRecord
  2
HIDDEN
 70
64
  3
- - - - - - - - - - - - - - - - - - - -
 72
65
 73
2
 40
0.2
 49
0.1
 74
0
 49
-0.1
 74
0
  0
LTYPE
  5
1F7
100
AcDbSymbolTableRecord
100
AcDbLinetypeTableRecord
  2
PHANTOM
 70
64
  3
_____ _ _ _____ _ _ _____ _ _ _____
 72
65
 73
6
 40
0.8
 49
0.45
 74
0
 49
-0.05
 74
0
 49
0.1
 74
0
 49
-0.05
 74
0
 49
0.1
 74
0
 49
-0.05
 74
0
  0
LTYPE
  5
1F8
100
AcDbSymbolTableRecord
100
AcDbLinetypeTableRecord
  2
DOT
 70
64
  3
. . . . . . . . . . . . . . . . . . . .
 72
65
 73
2
 40
0.2
 49
0.1
 74
0
 49
-0.1
 74
0
  0
LTYPE
  5
1F9
100
AcDbSymbolTableRecord
100
AcDbLinetypeTableRecord
  2
DASHED
 70
64
  3
- - - - - - - - - - - - - - - - - - - -
 72
65
 73
2
 40
0.2
 49
0.1
 74
0
 49
-0.1
 74
0
  0
ENDTAB
  0
TABLE
  2
LAYER
  5
2
100
AcDbSymbolTable
 70
36
  0
LAYER
  5
10
100
AcDbSymbolTableRecord
100
AcDbLayerTableRecord
  2
0
 70
0
 62
7
  6
CONTINUOUS
370
-3
390
F
  0
LAYER
  5
1FA
100
AcDbSymbolTableRecord
100
AcDbLayerTableRecord
  2
DEFAULT_1
 70
0
 62
7
  6
CENTER
370
-3
390
F
  0
LAYER
  5
1FB
100
AcDbSymbolTableRecord
100
AcDbLayerTableRecord
  2
DEFAULT_2
 70
0
 62
8
  6
HIDDEN
370
-3
390
F
  0
LAYER
  5
1FC
100
AcDbSymbolTableRecord
100
AcDbLayerTableRecord
  2
DEFAULT_3
 70
0
 62
7
  6
PHANTOM
370
-3
390
F
  0
LAYER
  5
1FD
100
AcDbSymbolTableRecord
100
AcDbLayerTableRecord
  2
ALL_FEATURES
 70
0
 62
7
  6
CONTINUOUS
370
-3
390
F
  0
LAYER
  5
1FE
100
AcDbSymbolTableRecord
100
AcDbLayerTableRecord
  2
AXES_FEATURES
 70
0
 62
7
  6
CONTINUOUS
370
-3
390
F
  0
LAYER
  5
1FF
100
AcDbSymbolTableRecord
100
AcDbLayerTableRecord
  2
DIMENSIONS
 70
0
 62
7
  6
CONTINUOUS
370
-3
390
F
  0
ENDTAB
  0
TABLE
  2
STYLE
  5
3
100
AcDbSymbolTable
 70
1
  0
STYLE
  5
11
100
AcDbSymbolTableRecord
100
AcDbTextStyleTableRecord
  2
STANDARD
 70
0
 40
0.0
 41
0.8
 50
0.0
 71
0
 42
0.2
  3
txt
  4

  0
STYLE
  5
200
100
AcDbSymbolTableRecord
100
AcDbTextStyleTableRecord
  2
TEXTSTYLE_1
 70
0
 40
0.0
 41
0.8
 50
0.0
 71
0
 42
0.2
  3
gdt
  4

  0
ENDTAB
  0
TABLE
  2
VIEW
  5
6
100
AcDbSymbolTable
 70
0
  0
ENDTAB
  0
TABLE
  2
UCS
  5
7
100
AcDbSymbolTable
 70
0
  0
ENDTAB
  0
TABLE
  2
APPID
  5
9
100
AcDbSymbolTable
 70
1
  0
APPID
  5
201
100
AcDbSymbolTableRecord
100
AcDbRegAppTableRecord
  2
ACAD
 70
0
  0
ENDTAB
  0
TABLE
  2
BLOCK_RECORD
  5
1
100
AcDbSymbolTable
 70
0
  0
BLOCK_RECORD
  5
202
100
AcDbSymbolTableRecord
100
AcDbBlockTableRecord
  2
*Model_Space
  0
BLOCK_RECORD
  5
203
100
AcDbSymbolTableRecord
100
AcDbBlockTableRecord
  2
*Paper_Space
  0
BLOCK_RECORD
  5
204
100
AcDbSymbolTableRecord
100
AcDbBlockTableRecord
  2
_FILLED
  0
ENDTAB
  0
TABLE
  2
DIMSTYLE
  5
A
100
AcDbSymbolTable
 70
1
100
AcDbDimStyleTable
 71
0
  0
DIMSTYLE
105
205
100
AcDbSymbolTableRecord
100
AcDbDimStyleTableRecord
  2
STANDARD
 70
0
  3

  4

 40
1.0
 41
0.1
 42
0.0625
 43
0.38
 44
0.125
 45
0.0
 46
0.0
 47
0.001
 48
0.001
140
0.08
141
0.09
142
0.0
143
25.4
144
1.0
145
0.0
146
1.0
147
0.09
 71
1.0
 72
0.0
 73
1
 74
1
 75
0
 76
0
 77
0
 78
4
 79
1
170
1
171
2
172
0
173
0
174
0
175
0
176
0
177
0
178
0
270
2
179
3
271
3
272
3
273
2
274
2
275
0
280
0
281
0
282
0
283
1
284
4
285
0
286
0
287
3
288
0
340
11
278
46
341
204
342
204
343
204
344
204
  0
ENDTAB
  0
ENDSEC
  0
SECTION
  2
BLOCKS
  0
BLOCK
  5
20
100
AcDbEntity
  8
0
100
AcDbBlockBegin
  2
*Model_Space
 70
0
 10
0.0
 20
0.0
 30
0.0
  3
*Model_Space
  1

  0
ENDBLK
  5
21
100
AcDbEntity
  8
0
100
AcDbBlockEnd
  0
BLOCK
  5
1C
100
AcDbEntity
  8
0
100
AcDbBlockBegin
  2
*Paper_Space
 70
0
 10
0.0
 20
0.0
 30
0.0
  3
*Paper_Space
  1

  0
ENDBLK
  5
1D
100
AcDbEntity
  8
0
100
AcDbBlockEnd
  0
BLOCK
  5
206
100
AcDbEntity
  8
0
100
AcDbBlockBegin
  2
_FILLED
 70
64
 10
0.0
 20
0.0
  3
_FILLED
  1

  0
SOLID
  5
207
100
AcDbEntity
  8
0
  6
BYBLOCK
 62
0
100
AcDbTrace
 10
0.0
 20
0.0
 11
-1.0
 21
0.2
 12
-1.0
 22
-0.2
 13
-1.0
 23
-0.2
  0
ENDBLK
  5
208
100
AcDbEntity
  8
0
  6
BYBLOCK
 62
0
100
AcDbBlockEnd
  0
ENDSEC
  0
SECTION
  2
ENTITIES
  0
LINE
  5
209
100
AcDbEntity
  8
0
100
AcDbLine
 62
7
  6
CONTINUOUS
 10
5.6163370851
 20
10.686141804
 11
5.6163370851
 21
11.946141804
  0
LINE
  5
20A
100
AcDbEntity
  8
0
100
AcDbLine
 62
7
  6
CONTINUOUS
 10
13.8338370851
 20
4.136141804
 11
14.7738370851
 21
4.136141804
  0
LINE
  5
20B
100
AcDbEntity
  8
0
100
AcDbLine
 62
7
  6
CONTINUOUS
 10
13.8038370851
 20
4.166141804
 11
14.8038370851
 21
4.166141804
  0
LINE
  5
20C
100
AcDbEntity
  8
0
100
AcDbLine
 62
7
  6
CONTINUOUS
 10
13.1788464395
 20
4.186141804
 11
15.4288277306
 21
4.186141804
  0
LINE
  5
20D
100
AcDbEntity
  8
0
100
AcDbLine
 62
9
  6
CONTINUOUS
 10
15.3038370851
 20
4.356141804
 11
13.3038370851
 21
4.356141804
  0
LINE
  5
20E
100
AcDbEntity
  8
0
100
AcDbLine
 62
7
  6
CONTINUOUS
 10
6.4913370851
 20
10.686141804
 11
6.4913370851
 21
11.946141804
  0
LINE
  5
20F
100
AcDbEntity
  8
0
100
AcDbLine
 62
7
  6
CONTINUOUS
 10
15.2738290519
 20
4.386141804
 11
13.3338451183
 21
4.386141804
  0
LINE
  5
210
100
AcDbEntity
  8
0
100
AcDbLine
 62
7
  6
CONTINUOUS
 10
13.9288374903
 20
4.396141804
 11
14.6788366798
 21
4.396141804
  0
LINE
  5
211
100
AcDbEntity
  8
0
100
AcDbLine
 62
9
  6
CONTINUOUS
 10
15.4288370851
 20
4.681141804
 11
14.6788370851
 21
4.681141804
  0
LINE
  5
212
100
AcDbEntity
  8
0
100
AcDbLine
 62
9
  6
CONTINUOUS
 10
13.9288370851
 20
4.681141804
 11
13.1788370851
 21
4.681141804
  0
LINE
  5
213
100
AcDbEntity
  8
0
100
AcDbLine
 62
7
  6
CONTINUOUS
 10
15.3988279652
 20
4.711141804
 11
14.6788370851
 21
4.711141804
  0
LINE
  5
214
100
AcDbEntity
  8
0
100
AcDbLine
 62
7
  6
CONTINUOUS
 10
13.9288370851
 20
4.711141804
 11
13.208846205
 21
4.711141804
  0
LINE
  5
215
100
AcDbEntity
  8
0
100
AcDbLine
 62
9
  6
CONTINUOUS
 10
7.5538370851
 20
13.883641804
 11
7.5538370851
 21
13.008641804
  0
LINE
  5
216
100
AcDbEntity
  8
0
100
AcDbLine
 62
9
  6
CONTINUOUS
 10
14.6788370851
 20
5.906141804
 11
13.9288370851
 21
5.906141804
  0
LINE
  5
217
100
AcDbEntity
  8
0
100
AcDbLine
 62
7
  6
CONTINUOUS
 10
14.6488365248
 20
5.936141804
 11
13.9588376454
 21
5.936141804
  0
LINE
  5
218
100
AcDbEntity
  8
0
100
AcDbLine
 62
7
  6
CONTINUOUS
 10
14.022598011
 20
5.957141804
 11
14.5850761591
 21
5.957141804
  0
LINE
  5
219
100
AcDbEntity
  8
0
100
AcDbLine
 62
9
  6
CONTINUOUS
 10
14.5850869626
 20
6.199141804
 11
14.5821320928
 21
6.199141804
  0
LINE
  5
21A
100
AcDbEntity
  8
0
100
AcDbLine
 62
9
  6
CONTINUOUS
 10
14.3444997357
 20
6.199141804
 11
14.2631744343
 21
6.199141804
  0
LINE
  5
21B
100
AcDbEntity
  8
0
100
AcDbLine
 62
9
  6
CONTINUOUS
 10
14.0255420773
 20
6.199141804
 11
14.0225870851
 21
6.199141804
  0
LINE
  5
21C
100
AcDbEntity
  8
0
100
AcDbLine
 62
7
  6
CONTINUOUS
 10
12.8338410329
 20
6.229141804
 11
13.9958573242
 21
6.229141804
  0
LINE
  5
21D
100
AcDbEntity
  8
0
100
AcDbLine
 62
7
  6
CONTINUOUS
 10
14.2588370851
 20
6.229141804
 11
14.3488370851
 21
6.229141804
  0
LINE
  5
21E
100
AcDbEntity
  8
0
100
AcDbLine
 62
7
  6
CONTINUOUS
 10
14.6118168867
 20
6.229141804
 11
15.7738345256
 21
6.229141804
  0
LINE
  5
21F
100
AcDbEntity
  8
0
100
AcDbLine
 62
9
  6
CONTINUOUS
 10
12.8038370851
 20
6.259141804
 11
14.0390740976
 21
6.259141804
  0
LINE
  5
220
100
AcDbEntity
  8
0
100
AcDbLine
 62
9
  6
CONTINUOUS
 10
14.208957567
 20
6.259141804
 11
14.3987166031
 21
6.259141804
  0
LINE
  5
221
100
AcDbEntity
  8
0
100
AcDbLine
 62
9
  6
CONTINUOUS
 10
14.5686000726
 20
6.259141804
 11
15.8038370851
 21
6.259141804
  0
LINE
  5
222
100
AcDbEntity
  8
0
100
AcDbLine
 62
9
  6
CONTINUOUS
 10
15.8038370851
 20
6.637141804
 11
12.8038370851
 21
6.637141804
  0
LINE
  5
223
100
AcDbEntity
  8
0
100
AcDbLine
 62
7
  6
CONTINUOUS
 10
12.8338396445
 20
6.667141804
 11
15.7738331372
 21
6.667141804
  0
LINE
  5
224
100
AcDbEntity
  8
0
100
AcDbLine
 62
9
  6
CONTINUOUS
 10
14.9663370851
 20
7.631141804
 11
13.6413370851
 21
7.631141804
  0
LINE
  5
225
100
AcDbEntity
  8
0
100
AcDbLine
 62
7
  6
CONTINUOUS
 10
14.9363273219
 20
7.661141804
 11
13.6713468482
 21
7.661141804
  0
LINE
  5
226
100
AcDbEntity
  8
0
100
AcDbLine
 62
7
  6
CONTINUOUS
 10
13.8338370851
 20
4.136141804
 11
13.8038370851
 21
4.166141804
  0
LINE
  5
227
100
AcDbEntity
  8
0
100
AcDbLine
 62
7
  6
CONTINUOUS
 10
5.6163373273
 20
10.686141804
 11
6.4913368428
 21
10.686141804
  0
LINE
  5
228
100
AcDbEntity
  8
0
100
AcDbLine
 62
7
  6
CONTINUOUS
 10
12.8038370851
 20
6.259141804
 11
12.8038370851
 21
6.637141804
  0
LINE
  5
229
100
AcDbEntity
  8
0
100
AcDbLine
 62
9
  6
CONTINUOUS
 10
12.8038370851
 20
13.008641804
 11
12.8038370851
 21
13.883641804
  0
LINE
  5
22A
100
AcDbEntity
  8
0
100
AcDbLine
 62
9
  6
CONTINUOUS
 10
12.8788370851
 20
6.667141804
 11
12.8788370851
 21
6.229141804
  0
LINE
  5
22B
100
AcDbEntity
  8
0
100
AcDbLine
 62
7
  6
CONTINUOUS
 10
13.1788370851
 20
4.681141804
 11
13.1788370851
 21
4.186141804
  0
LINE
  5
22C
100
AcDbEntity
  8
0
100
AcDbLine
 62
7
  6
CONTINUOUS
 10
13.3038370851
 20
4.356141804
 11
13.3038370851
 21
4.186141804
  0
LINE
  5
22D
100
AcDbEntity
  8
0
100
AcDbLine
 62
7
  6
CONTINUOUS
 10
6.4913368428
 20
11.496141804
 11
5.6163373273
 21
11.496141804
  0
LINE
  5
22E
100
AcDbEntity
  8
0
100
AcDbLine
 62
7
  6
CONTINUOUS
 10
13.6413370851
 20
7.631141804
 11
13.6413370851
 21
6.667141804
  0
LINE
  5
22F
100
AcDbEntity
  8
0
100
AcDbLine
 62
7
  6
CONTINUOUS
 10
13.6413370851
 20
6.229141804
 11
13.6413370851
 21
4.711141804
  0
LINE
  5
230
100
AcDbEntity
  8
0
100
AcDbLine
 62
7
  6
CONTINUOUS
 10
13.8038370851
 20
4.186141804
 11
13.8038370851
 21
4.166141804
  0
LINE
  5
231
100
AcDbEntity
  8
0
100
AcDbLine
 62
7
  6
CONTINUOUS
 10
13.8663370851
 20
11.946141804
 11
13.8663370851
 21
7.661141804
  0
LINE
  5
232
100
AcDbEntity
  8
0
100
AcDbLine
 62
7
  6
CONTINUOUS
 10
13.9288370851
 20
4.396141804
 11
13.9288370851
 21
5.906141804
  0
LINE
  5
233
100
AcDbEntity
  8
0
100
AcDbLine
 62
7
  6
CONTINUOUS
 10
13.9388370851
 20
4.396141804
 11
13.9388370851
 21
4.386141804
  0
LINE
  5
234
100
AcDbEntity
  8
0
100
AcDbLine
 62
9
  6
CONTINUOUS
 10
14.0108327122
 20
6.259141804
 11
14.0108327122
 21
6.667141804
  0
LINE
  5
235
100
AcDbEntity
  8
0
100
AcDbLine
 62
7
  6
CONTINUOUS
 10
14.0225870851
 20
5.957141804
 11
14.0225870851
 21
6.199141804
  0
LINE
  5
236
100
AcDbEntity
  8
0
100
AcDbLine
 62
9
  6
CONTINUOUS
 10
14.0390740976
 20
6.2591418038
 11
14.0390740976
 21
6.637141804
  0
LINE
  5
237
100
AcDbEntity
  8
0
100
AcDbLine
 62
7
  6
CONTINUOUS
 10
14.0488370851
 20
5.957141804
 11
14.0488370851
 21
5.936141804
  0
LINE
  5
238
100
AcDbEntity
  8
0
100
AcDbLine
 62
9
  6
CONTINUOUS
 10
14.7413370851
 20
11.946141804
 11
13.8663370851
 21
11.946141804
  0
LINE
  5
239
100
AcDbEntity
  8
0
100
AcDbLine
 62
9
  6
CONTINUOUS
 10
6.4913370851
 20
11.946141804
 11
5.6163370851
 21
11.946141804
  0
LINE
  5
23A
100
AcDbEntity
  8
0
100
AcDbLine
 62
9
  6
CONTINUOUS
 10
14.208957567
 20
6.637141804
 11
14.208957567
 21
6.2591418037
  0
LINE
  5
23B
100
AcDbEntity
  8
0
100
AcDbLine
 62
7
  6
CONTINUOUS
 10
14.2288370851
 20
6.259141804
 11
14.2288370851
 21
6.637141804
  0
LINE
  5
23C
100
AcDbEntity
  8
0
100
AcDbLine
 62
7
  6
CONTINUOUS
 10
14.3788370851
 20
6.637141804
 11
14.3788370851
 21
6.259141804
  0
LINE
  5
23D
100
AcDbEntity
  8
0
100
AcDbLine
 62
9
  6
CONTINUOUS
 10
14.3987166031
 20
6.2591418037
 11
14.3987166031
 21
6.637141804
  0
LINE
  5
23E
100
AcDbEntity
  8
0
100
AcDbLine
 62
7
  6
CONTINUOUS
 10
14.5588370851
 20
5.957141804
 11
14.5588370851
 21
5.936141804
  0
LINE
  5
23F
100
AcDbEntity
  8
0
100
AcDbLine
 62
9
  6
CONTINUOUS
 10
14.5686000726
 20
6.637141804
 11
14.5686000726
 21
6.2591418038
  0
LINE
  5
240
100
AcDbEntity
  8
0
100
AcDbLine
 62
7
  6
CONTINUOUS
 10
14.5850870851
 20
5.957141804
 11
14.5850870851
 21
6.199141804
  0
LINE
  5
241
100
AcDbEntity
  8
0
100
AcDbLine
 62
9
  6
CONTINUOUS
 10
14.5968414579
 20
6.667141804
 11
14.5968414579
 21
6.259141804
  0
LINE
  5
242
100
AcDbEntity
  8
0
100
AcDbLine
 62
7
  6
CONTINUOUS
 10
14.6688370851
 20
4.396141804
 11
14.6688370851
 21
4.386141804
  0
LINE
  5
243
100
AcDbEntity
  8
0
100
AcDbLine
 62
7
  6
CONTINUOUS
 10
14.6788370851
 20
4.396141804
 11
14.6788370851
 21
5.906141804
  0
LINE
  5
244
100
AcDbEntity
  8
0
100
AcDbLine
 62
7
  6
CONTINUOUS
 10
14.7413370851
 20
11.946141804
 11
14.7413370851
 21
7.661141804
  0
LINE
  5
245
100
AcDbEntity
  8
0
100
AcDbLine
 62
7
  6
CONTINUOUS
 10
14.8038370851
 20
4.186141804
 11
14.8038370851
 21
4.166141804
  0
LINE
  5
246
100
AcDbEntity
  8
0
100
AcDbLine
 62
7
  6
CONTINUOUS
 10
14.9663370851
 20
7.631141804
 11
14.9663370851
 21
6.667141804
  0
LINE
  5
247
100
AcDbEntity
  8
0
100
AcDbLine
 62
7
  6
CONTINUOUS
 10
14.9663370851
 20
6.229141804
 11
14.9663370851
 21
4.711141804
  0
LINE
  5
248
100
AcDbEntity
  8
0
100
AcDbLine
 62
7
  6
CONTINUOUS
 10
7.5538370851
 20
13.008641804
 11
12.8038370851
 21
13.008641804
  0
LINE
  5
249
100
AcDbEntity
  8
0
100
AcDbLine
 62
7
  6
CONTINUOUS
 10
15.3038370851
 20
4.356141804
 11
15.3038370851
 21
4.186141804
  0
LINE
  5
24A
100
AcDbEntity
  8
0
100
AcDbLine
 62
7
  6
CONTINUOUS
 10
15.4288370851
 20
4.681141804
 11
15.4288370851
 21
4.186141804
  0
LINE
  5
24B
100
AcDbEntity
  8
0
100
AcDbLine
 62
9
  6
CONTINUOUS
 10
15.7288370851
 20
6.229141804
 11
15.7288370851
 21
6.667141804
  0
LINE
  5
24C
100
AcDbEntity
  8
0
100
AcDbLine
 62
7
  6
CONTINUOUS
 10
15.8038370851
 20
6.637141804
 11
15.8038370851
 21
6.259141804
  0
LINE
  5
24D
100
AcDbEntity
  8
0
100
AcDbLine
 62
7
  6
CONTINUOUS
 10
7.5538370851
 20
13.883641804
 11
12.8038370851
 21
13.883641804
  0
LINE
  5
24E
100
AcDbEntity
  8
0
100
AcDbLine
 62
7
  6
CONTINUOUS
 10
14.7738370851
 20
4.136141804
 11
14.8038370851
 21
4.166141804
  0
ARC
  5
24F
100
AcDbEntity
  8
0
100
AcDbCircle
 62
7
  6
CONTINUOUS
 10
12.8038370851
 20
11.946141804
 40
1.9375
100
AcDbArc
 50
0.0
 51
90.0
  0
ARC
  5
250
100
AcDbEntity
  8
0
100
AcDbCircle
 62
7
  6
CONTINUOUS
 10
7.5538370851
 20
11.946141804
 40
1.9375
100
AcDbArc
 50
90.0
 51
180.0
  0
ARC
  5
251
100
AcDbEntity
  8
0
100
AcDbCircle
 62
7
  6
CONTINUOUS
 10
12.8038370851
 20
11.946141804
 40
1.0625
100
AcDbArc
 50
0.0
 51
90.0
  0
ARC
  5
252
100
AcDbEntity
  8
0
100
AcDbCircle
 62
7
  6
CONTINUOUS
 10
7.5538370851
 20
11.946141804
 40
1.0625
100
AcDbArc
 50
90.0
 51
180.0
  0
ARC
  5
253
100
AcDbEntity
  8
0
100
AcDbCircle
 62
7
  6
CONTINUOUS
 10
13.3338370851
 20
4.356141804
 40
0.03
100
AcDbArc
 50
90.0
 51
180.0
  0
ARC
  5
254
100
AcDbEntity
  8
0
100
AcDbCircle
 62
7
  6
CONTINUOUS
 10
15.2738370851
 20
4.356141804
 40
0.03
100
AcDbArc
 50
0.0
 51
90.0
  0
ARC
  5
255
100
AcDbEntity
  8
0
100
AcDbCircle
 62
7
  6
CONTINUOUS
 10
13.2088370851
 20
4.681141804
 40
0.03
100
AcDbArc
 50
90.0
 51
180.0
  0
ARC
  5
256
100
AcDbEntity
  8
0
100
AcDbCircle
 62
7
  6
CONTINUOUS
 10
15.3988370851
 20
4.681141804
 40
0.03
100
AcDbArc
 50
0.0
 51
90.0
  0
ARC
  5
257
100
AcDbEntity
  8
0
100
AcDbCircle
 62
7
  6
CONTINUOUS
 10
13.9588370851
 20
5.906141804
 40
0.03
100
AcDbArc
 50
90.0
 51
180.0
  0
ARC
  5
258
100
AcDbEntity
  8
0
100
AcDbCircle
 62
7
  6
CONTINUOUS
 10
14.6488370851
 20
5.906141804
 40
0.03
100
AcDbArc
 50
0.0
 51
90.0
  0
ARC
  5
259
100
AcDbEntity
  8
0
100
AcDbCircle
 62
7
  6
CONTINUOUS
 10
14.3488370851
 20
6.637141804
 40
0.03
100
AcDbArc
 50
0.0
 51
90.0
  0
ARC
  5
25A
100
AcDbEntity
  8
0
100
AcDbCircle
 62
7
  6
CONTINUOUS
 10
14.2588370851
 20
6.637141804
 40
0.03
100
AcDbArc
 50
90.0
 51
180.0
  0
ARC
  5
25B
100
AcDbEntity
  8
0
100
AcDbCircle
 62
7
  6
CONTINUOUS
 10
14.2588370851
 20
6.259141804
 40
0.03
100
AcDbArc
 50
180.0
 51
270.0
  0
ARC
  5
25C
100
AcDbEntity
  8
0
100
AcDbCircle
 62
7
  6
CONTINUOUS
 10
14.3488370851
 20
6.259141804
 40
0.03
100
AcDbArc
 50
270.0
 51
360.0
  0
ARC
  5
25D
100
AcDbEntity
  8
0
100
AcDbCircle
 62
7
  6
CONTINUOUS
 10
15.7738370851
 20
6.259141804
 40
0.03
100
AcDbArc
 50
270.0
 51
360.0
  0
ARC
  5
25E
100
AcDbEntity
  8
0
100
AcDbCircle
 62
7
  6
CONTINUOUS
 10
14.6150870851
 20
6.199141804
 40
0.03
100
AcDbArc
 50
96.1941660285
 51
180.0
  0
ARC
  5
25F
100
AcDbEntity
  8
0
100
AcDbCircle
 62
7
  6
CONTINUOUS
 10
12.8338370851
 20
6.259141804
 40
0.03
100
AcDbArc
 50
180.0
 51
270.0
  0
ARC
  5
260
100
AcDbEntity
  8
0
100
AcDbCircle
 62
7
  6
CONTINUOUS
 10
13.9925870851
 20
6.199141804
 40
0.03
100
AcDbArc
 50
0.0
 51
83.8057568563
  0
ARC
  5
261
100
AcDbEntity
  8
0
100
AcDbCircle
 62
7
  6
CONTINUOUS
 10
12.8338370851
 20
6.637141804
 40
0.03
100
AcDbArc
 50
90.0
 51
180.0
  0
ARC
  5
262
100
AcDbEntity
  8
0
100
AcDbCircle
 62
7
  6
CONTINUOUS
 10
15.7738370851
 20
6.637141804
 40
0.03
100
AcDbArc
 50
0.0
 51
90.0
  0
ARC
  5
263
100
AcDbEntity
  8
0
100
AcDbCircle
 62
7
  6
CONTINUOUS
 10
14.9363370851
 20
7.631141804
 40
0.03
100
AcDbArc
 50
0.0
 51
90.0
  0
ARC
  5
264
100
AcDbEntity
  8
0
100
AcDbCircle
 62
7
  6
CONTINUOUS
 10
13.6713370851
 20
7.631141804
 40
0.03
100
AcDbArc
 50
90.0
 51
180.0
  0
SPLINE
  5
265
100
AcDbEntity
  8
0
100
AcDbSpline
 62
9
  6
CONTINUOUS
 70
0
 71
3
 72
15
 73
11
 74
0
 42
0.0000001
 43
0.0000001
 44
0.0000000001
 40
0.0
 40
0.0
 40
0.0
 40
0.0
 40
0.1242523445
 40
0.2488306824
 40
0.3734451211
 40
0.4983079514
 40
0.6234276915
 40
0.7487755768
 40
0.8744536196
 40
1.0
 40
1.0
 40
1.0
 40
1.0
 10
14.6118162323
 20
6.229141804
 30
0.0
 10
14.6098778725
 20
6.229141804
 30
0.0
 10
14.605985555
 20
6.2287518375
 30
0.0
 10
14.6003799867
 20
6.227036691
 30
0.0
 10
14.5952122393
 20
6.2242435474
 30
0.0
 10
14.590688059
 20
6.220485688
 30
0.0
 10
14.5869720685
 20
6.2159126124
 30
0.0
 10
14.5842113217
 20
6.2106913956
 30
0.0
 10
14.5825166487
 20
6.2050297031
 30
0.0
 10
14.5821314952
 20
6.2011003511
 30
0.0
 10
14.5821314952
 20
6.199141804
 30
0.0
  0
SPLINE
  5
266
100
AcDbEntity
  8
0
100
AcDbSpline
 62
9
  6
CONTINUOUS
 70
0
 71
3
 72
25
 73
21
 74
0
 42
0.0000001
 43
0.0000001
 44
0.0000000001
 40
0.0
 40
0.0
 40
0.0
 40
0.0
 40
0.0149951134
 40
0.0248394464
 40
0.0366157218
 40
0.0505057726
 40
0.0665778014
 40
0.1050754667
 40
0.1515554486
 40
0.2053645828
 40
0.2658766567
 40
0.3324256656
 40
0.4042916623
 40
0.4807644343
 40
0.5611887787
 40
0.6449231303
 40
0.7313433627
 40
0.8198405654
 40
0.9096781832
 40
1.0
 40
1.0
 40
1.0
 40
1.0
 10
14.5821320928
 20
6.199141804
 30
0.0
 10
14.5818189917
 20
6.1991630946
 30
0.0
 10
14.5813211163
 20
6.1994004617
 30
0.0
 10
14.580739665
 20
6.199894935
 30
0.0
 10
14.5802393969
 20
6.2004489687
 30
0.0
 10
14.5797226747
 20
6.2011539552
 30
0.0
 10
14.5789639108
 20
6.2023706967
 30
0.0
 10
14.5780035205
 20
6.2042584792
 30
0.0
 10
14.5768673722
 20
6.2069330549
 30
0.0
 10
14.5757160126
 20
6.2100967535
 30
0.0
 10
14.5745767365
 20
6.2137075988
 30
0.0
 10
14.5734756411
 20
6.2177235302
 30
0.0
 10
14.5724375095
 20
6.2221002155
 30
0.0
 10
14.5714872643
 20
6.2267934539
 30
0.0
 10
14.5706399834
 20
6.2317584651
 30
0.0
 10
14.5699116764
 20
6.2369526642
 30
0.0
 10
14.5693311004
 20
6.2423357103
 30
0.0
 10
14.5689346199
 20
6.247863498
 30
0.0
 10
14.568699773
 20
6.2534817402
 30
0.0
 10
14.5686238318
 20
6.2572516597
 30
0.0
 10
14.5686000726
 20
6.2591418038
 30
0.0
  0
SPLINE
  5
267
100
AcDbEntity
  8
0
100
AcDbSpline
 62
9
  6
CONTINUOUS
 70
0
 71
3
 72
16
 73
12
 74
0
 42
0.0000001
 43
0.0000001
 44
0.0000000001
 40
0.0
 40
0.0
 40
0.0
 40
0.0
 40
0.1285521515
 40
0.2567920026
 40
0.3205586252
 40
0.3840043535
 40
0.5097386399
 40
0.6340054238
 40
0.7568852432
 40
0.8788421758
 40
1.0
 40
1.0
 40
1.0
 40
1.0
 10
14.5686000726
 20
6.637141804
 30
0.0
 10
14.5686000726
 20
6.6390994561
 30
0.0
 10
14.5682353178
 20
6.6430186027
 30
0.0
 10
14.5668927473
 20
6.6477426172
 30
0.0
 10
14.5653078068
 20
6.6513010491
 30
0.0
 10
14.5634141448
 20
6.6546610567
 30
0.0
 10
14.5604783257
 20
6.6584656996
 30
0.0
 10
14.5561771311
 20
6.6622282008
 30
0.0
 10
14.5512577247
 20
6.6650287622
 30
0.0
 10
14.5459170067
 20
6.666750031
 30
0.0
 10
14.542203735
 20
6.667141804
 30
0.0
 10
14.5403586872
 20
6.667141804
 30
0.0
  0
SPLINE
  5
268
100
AcDbEntity
  8
0
100
AcDbSpline
 62
9
  6
CONTINUOUS
 70
0
 71
3
 72
23
 73
19
 74
0
 42
0.0000001
 43
0.0000001
 44
0.0000000001
 40
0.0
 40
0.0
 40
0.0
 40
0.0
 40
0.1769317388
 40
0.3577180396
 40
0.4464334918
 40
0.5321488852
 40
0.6133674889
 40
0.6886023255
 40
0.7565364566
 40
0.8164833467
 40
0.8679310354
 40
0.9104130377
 40
0.9437481146
 40
0.9686788397
 40
0.978409438
 40
0.9866193074
 40
0.9936575776
 40
1.0
 40
1.0
 40
1.0
 40
1.0
 10
14.3444997357
 20
6.199141804
 30
0.0
 10
14.3444997357
 20
6.2009632281
 30
0.0
 10
14.3445486074
 20
6.2046458915
 30
0.0
 10
14.3447343266
 20
6.2092387179
 30
0.0
 10
14.3449746809
 20
6.2128877675
 30
0.0
 10
14.3451950789
 20
6.215510468
 30
0.0
 10
14.3454539222
 20
6.2179901915
 30
0.0
 10
14.3457483227
 20
6.2202815983
 30
0.0
 10
14.3460771389
 20
6.2223469205
 30
0.0
 10
14.3464324295
 20
6.224159046
 30
0.0
 10
14.3468066058
 20
6.2256988497
 30
0.0
 10
14.3471917938
 20
6.2269526131
 30
0.0
 10
14.3475854892
 20
6.2279134105
 30
0.0
 10
14.3479391986
 20
6.2285233745
 30
0.0
 10
14.3482310128
 20
6.2288564463
 30
0.0
 10
14.3484317896
 20
6.2290197027
 30
0.0
 10
14.3486333393
 20
6.2291188607
 30
0.0
 10
14.348771793
 20
6.2291417988
 30
0.0
 10
14.3488370851
 20
6.2291418007
 30
0.0
  0
SPLINE
  5
269
100
AcDbEntity
  8
0
100
AcDbSpline
 62
9
  6
CONTINUOUS
 70
0
 71
3
 72
17
 73
13
 74
0
 42
0.0000001
 43
0.0000001
 44
0.0000000001
 40
0.0
 40
0.0
 40
0.0
 40
0.0
 40
0.0574332777
 40
0.0943889993
 40
0.1371570271
 40
0.1855557823
 40
0.2393396093
 40
0.3617891929
 40
0.5021040422
 40
0.6577572659
 40
0.8254165698
 40
1.0
 40
1.0
 40
1.0
 40
1.0
 10
14.6118179912
 20
6.229141804
 30
0.0
 10
14.6111414017
 20
6.2291420058
 30
0.0
 10
14.6100469547
 20
6.2295593421
 30
0.0
 10
14.6087040889
 20
6.2304443414
 30
0.0
 10
14.6075447737
 20
6.2314201094
 30
0.0
 10
14.6063466464
 20
6.2326382364
 30
0.0
 10
14.6046405629
 20
6.2346643506
 30
0.0
 10
14.6025454981
 20
6.2377626401
 30
0.0
 10
14.6002894849
 20
6.2421579623
 30
0.0
 10
14.5984089578
 20
6.2473021271
 30
0.0
 10
14.5971395953
 20
6.2530469496
 30
0.0
 10
14.5968415358
 20
6.2570851336
 30
0.0
 10
14.5968414579
 20
6.259141804
 30
0.0
  0
SPLINE
  5
26A
100
AcDbEntity
  8
0
100
AcDbSpline
 62
9
  6
CONTINUOUS
 70
0
 71
3
 72
19
 73
15
 74
0
 42
0.0000001
 43
0.0000001
 44
0.0000000001
 40
0.0
 40
0.0
 40
0.0
 40
0.0
 40
0.1748776765
 40
0.344148176
 40
0.5016390031
 40
0.6425895236
 40
0.7056594193
 40
0.7632480575
 40
0.815142491
 40
0.861358898
 40
0.9021206954
 40
0.9380083394
 40
0.9701003834
 40
1.0
 40
1.0
 40
1.0
 40
1.0
 10
14.3987166031
 20
6.637141804
 30
0.0
 10
14.3987166031
 20
6.639092141
 30
0.0
 10
14.3985902306
 20
6.642931459
 30
0.0
 10
14.3980319302
 20
6.6485026921
 30
0.0
 10
14.3971236179
 20
6.6536444256
 30
0.0
 10
14.3960712631
 20
6.6575447872
 30
0.0
 10
14.3950612084
 20
6.6602839551
 30
0.0
 10
14.3942706294
 20
6.6620405472
 30
0.0
 10
14.3934253903
 20
6.663560271
 30
0.0
 10
14.3925334037
 20
6.6648307137
 30
0.0
 10
14.3915998482
 20
6.6658409519
 30
0.0
 10
14.3906276205
 20
6.6665791727
 30
0.0
 10
14.3896242705
 20
6.6670355202
 30
0.0
 10
14.388929579
 20
6.667141804
 30
0.0
 10
14.3885961212
 20
6.667141804
 30
0.0
  0
SPLINE
  5
26B
100
AcDbEntity
  8
0
100
AcDbSpline
 62
9
  6
CONTINUOUS
 70
0
 71
3
 72
22
 73
18
 74
0
 42
0.0000001
 43
0.0000001
 44
0.0000000001
 40
0.0
 40
0.0
 40
0.0
 40
0.0
 40
0.0069706667
 40
0.014686295
 40
0.0236842253
 40
0.0342971456
 40
0.0610340027
 40
0.0956832338
 40
0.1383104698
 40
0.1887084734
 40
0.2465710542
 40
0.3114179442
 40
0.3826419343
 40
0.4596167074
 40
0.6280249807
 40
0.8106306633
 40
1.0
 40
1.0
 40
1.0
 40
1.0
 10
14.2588330274
 20
6.229141804
 30
0.0
 10
14.2589047873
 20
6.229141804
 30
0.0
 10
14.2590568471
 20
6.2291141416
 30
0.0
 10
14.2592740172
 20
6.228997259
 30
0.0
 10
14.2594863014
 20
6.2288100132
 30
0.0
 10
14.2597883462
 20
6.2284387433
 30
0.0
 10
14.2601454343
 20
6.2277837527
 30
0.0
 10
14.2605356201
 20
6.2267855812
 30
0.0
 10
14.2609120448
 20
6.2255249636
 30
0.0
 10
14.2612709324
 20
6.2240131462
 30
0.0
 10
14.2616076386
 20
6.222262718
 30
0.0
 10
14.2619189271
 20
6.2202903916
 30
0.0
 10
14.2622018803
 20
6.2181152753
 30
0.0
 10
14.2625469963
 20
6.2148740385
 30
0.0
 10
14.2628784483
 20
6.2104794663
 30
0.0
 10
14.2631168519
 20
6.2049208322
 30
0.0
 10
14.2631707679
 20
6.2010912757
 30
0.0
 10
14.2631707679
 20
6.199141804
 30
0.0
  0
SPLINE
  5
26C
100
AcDbEntity
  8
0
100
AcDbSpline
 62
9
  6
CONTINUOUS
 70
0
 71
3
 72
21
 73
17
 74
0
 42
0.0000001
 43
0.0000001
 44
0.0000000001
 40
0.0
 40
0.0
 40
0.0
 40
0.0
 40
0.1248375352
 40
0.1871132542
 40
0.2492408583
 40
0.3731031229
 40
0.4971307081
 40
0.5593835075
 40
0.6217695816
 40
0.6843754739
 40
0.7472275654
 40
0.8102295843
 40
0.8417799519
 40
0.8733686357
 40
0.9366691886
 40
1.0
 40
1.0
 40
1.0
 40
1.0
 10
14.2631744343
 20
6.199141804
 30
0.0
 10
14.2594429227
 20
6.1991557908
 30
0.0
 10
14.2538245214
 20
6.1997922837
 30
0.0
 10
14.2466607927
 20
6.2018804135
 30
0.0
 10
14.2397985333
 20
6.2047415811
 30
0.0
 10
14.2318675662
 20
6.2096740475
 30
0.0
 10
14.2251062972
 20
6.2161099552
 30
0.0
 10
14.2205114594
 20
6.2219642385
 30
0.0
 10
14.2174827184
 20
6.2266810074
 30
0.0
 10
14.2148856083
 20
6.2316672099
 30
0.0
 10
14.2127226444
 20
6.2368763179
 30
0.0
 10
14.2113186934
 20
6.2413750451
 30
0.0
 10
14.2104614859
 20
6.2450481708
 30
0.0
 10
14.2097803476
 20
6.2487670035
 30
0.0
 10
14.209222938
 20
6.25346825
 30
0.0
 10
14.2090179491
 20
6.257249736
 30
0.0
 10
14.208957567
 20
6.2591418037
 30
0.0
  0
SPLINE
  5
26D
100
AcDbEntity
  8
0
100
AcDbSpline
 62
9
  6
CONTINUOUS
 70
0
 71
3
 72
15
 73
11
 74
0
 42
0.0000001
 43
0.0000001
 44
0.0000000001
 40
0.0
 40
0.0
 40
0.0
 40
0.0
 40
0.1172392203
 40
0.2411685898
 40
0.3702569053
 40
0.5016724822
 40
0.6328028327
 40
0.7611188015
 40
0.883956203
 40
1.0
 40
1.0
 40
1.0
 40
1.0
 10
14.0255420773
 20
6.199141804
 30
0.0
 10
14.0255420773
 20
6.2009706078
 30
0.0
 10
14.0251958977
 20
6.2047402499
 30
0.0
 10
14.0236144448
 20
6.2103319028
 30
0.0
 10
14.0208427437
 20
6.2156945228
 30
0.0
 10
14.0170081799
 20
6.2205062116
 30
0.0
 10
14.0122474604
 20
6.2243852312
 30
0.0
 10
14.0069390748
 20
6.2271901552
 30
0.0
 10
14.0014016498
 20
6.228791313
 30
0.0
 10
13.9976674329
 20
6.2291417951
 30
0.0
 10
13.9958572765
 20
6.229141804
 30
0.0
  0
SPLINE
  5
26E
100
AcDbEntity
  8
0
100
AcDbSpline
 62
9
  6
CONTINUOUS
 70
0
 71
3
 72
15
 73
11
 74
0
 42
0.0000001
 43
0.0000001
 44
0.0000000001
 40
0.0
 40
0.0
 40
0.0
 40
0.0
 40
0.1546827037
 40
0.3058904534
 40
0.4497866215
 40
0.5843965989
 40
0.7079876243
 40
0.8193475702
 40
0.9171059812
 40
1.0
 40
1.0
 40
1.0
 40
1.0
 10
14.0108327122
 20
6.259141804
 30
0.0
 10
14.0108325628
 20
6.2575250691
 30
0.0
 10
14.0106402521
 20
6.2543253183
 30
0.0
 10
14.0098396914
 20
6.2496835615
 30
0.0
 10
14.0085917899
 20
6.245360121
 30
0.0
 10
14.0070231299
 20
6.2414538759
 30
0.0
 10
14.0052400214
 20
6.2380208043
 30
0.0
 10
14.0033472791
 20
6.2350969032
 30
0.0
 10
14.0014402873
 20
6.2327077422
 30
0.0
 10
14.0000881479
 20
6.2313784869
 30
0.0
 10
13.9994179977
 20
6.2308293477
 30
0.0
  0
SPLINE
  5
26F
100
AcDbEntity
  8
0
100
AcDbSpline
 62
9
  6
CONTINUOUS
 70
0
 71
3
 72
11
 73
7
 74
0
 42
0.0000001
 43
0.0000001
 44
0.0000000001
 40
0.0
 40
0.0
 40
0.0
 40
0.0
 40
0.3042443488
 40
0.5709912539
 40
0.8014685914
 40
1.0
 40
1.0
 40
1.0
 40
1.0
 10
13.9994179977
 20
6.2308293477
 30
0.0
 10
13.9991033129
 20
6.2305714865
 30
0.0
 10
13.9984910744
 20
6.2301127064
 30
0.0
 10
13.9975614463
 20
6.2295729146
 30
0.0
 10
13.996690828
 20
6.2292329571
 30
0.0
 10
13.99611674
 20
6.2291418612
 30
0.0
 10
13.9958512608
 20
6.229141804
 30
0.0
  0
SPLINE
  5
270
100
AcDbEntity
  8
0
100
AcDbSpline
 62
9
  6
CONTINUOUS
 70
0
 71
3
 72
24
 73
20
 74
0
 42
0.0000001
 43
0.0000001
 44
0.0000000001
 40
0.0
 40
0.0
 40
0.0
 40
0.0
 40
0.0068787848
 40
0.0150398655
 40
0.0249495793
 40
0.0368392098
 40
0.0508161071
 40
0.0669151326
 40
0.0851125522
 40
0.105360469
 40
0.1517557617
 40
0.2055462128
 40
0.2660622317
 40
0.3325979452
 40
0.4044523886
 40
0.4809393065
 40
0.6451105701
 40
0.8200030378
 40
1.0
 40
1.0
 40
1.0
 40
1.0
 10
14.0255420773
 20
6.199141804
 30
0.0
 10
14.0256860733
 20
6.1991419131
 30
0.0
 10
14.0260014536
 20
6.1992106401
 30
0.0
 10
14.0264591947
 20
6.1994713708
 30
0.0
 10
14.0269356759
 20
6.1998833215
 30
0.0
 10
14.0274324709
 20
6.2004457604
 30
0.0
 10
14.0279493785
 20
6.2011572559
 30
0.0
 10
14.0284840984
 20
6.2020154632
 30
0.0
 10
14.0290342133
 20
6.2030165158
 30
0.0
 10
14.0298201659
 20
6.2046096431
 30
0.0
 10
14.0308072816
 20
6.2069315117
 30
0.0
 10
14.0319576273
 20
6.2100939168
 30
0.0
 10
14.0330959896
 20
6.2137054644
 30
0.0
 10
14.0341968575
 20
6.2177219768
 30
0.0
 10
14.0352356788
 20
6.222099367
 30
0.0
 10
14.0365385092
 20
6.2285112432
 30
0.0
 10
14.0378557115
 20
6.2371161837
 30
0.0
 10
14.0388446179
 20
6.2479428332
 30
0.0
 10
14.0390740234
 20
6.2553738632
 30
0.0
 10
14.0390740976
 20
6.2591418038
 30
0.0
  0
SPLINE
  5
271
100
AcDbEntity
  8
0
100
AcDbSpline
 62
9
  6
CONTINUOUS
 70
0
 71
3
 72
18
 73
14
 74
0
 42
0.0000001
 43
0.0000001
 44
0.0000000001
 40
0.0
 40
0.0
 40
0.0
 40
0.0
 40
0.1248044856
 40
0.1871139078
 40
0.2492505804
 40
0.3112918252
 40
0.3732870273
 40
0.497312952
 40
0.5595887482
 40
0.622034816
 40
0.7473524759
 40
0.8735177567
 40
1.0
 40
1.0
 40
1.0
 40
1.0
 10
14.3444997357
 20
6.199141804
 30
0.0
 10
14.3482297374
 20
6.1991421809
 30
0.0
 10
14.3538479302
 20
6.1997942943
 30
0.0
 10
14.3610089122
 20
6.201883335
 30
0.0
 10
14.3661652141
 20
6.2040305173
 30
0.0
 10
14.3710518701
 20
6.206713834
 30
0.0
 10
14.3771471557
 20
6.2109530511
 30
0.0
 10
14.3825641322
 20
6.2161094624
 30
0.0
 10
14.3871600431
 20
6.2219634953
 30
0.0
 10
14.3912111698
 20
6.2282546419
 30
0.0
 10
14.3951767694
 20
6.2368197305
 30
0.0
 10
14.3980621706
 20
6.2477951696
 30
0.0
 10
14.3987163301
 20
6.2553616592
 30
0.0
 10
14.3987166031
 20
6.2591418037
 30
0.0
  0
SPLINE
  5
272
100
AcDbEntity
  8
0
100
AcDbSpline
 62
9
  6
CONTINUOUS
 70
0
 71
3
 72
16
 73
12
 74
0
 42
0.0000001
 43
0.0000001
 44
0.0000000001
 40
0.0
 40
0.0
 40
0.0
 40
0.0
 40
0.1285521515
 40
0.2567920026
 40
0.3205586252
 40
0.3840043535
 40
0.5097386399
 40
0.6340054238
 40
0.7568852433
 40
0.8788421758
 40
1.0
 40
1.0
 40
1.0
 40
1.0
 10
14.0390740976
 20
6.637141804
 30
0.0
 10
14.0390740976
 20
6.6390994561
 30
0.0
 10
14.0394388523
 20
6.6430186027
 30
0.0
 10
14.0407814229
 20
6.6477426172
 30
0.0
 10
14.0423663633
 20
6.6513010491
 30
0.0
 10
14.0442600253
 20
6.6546610567
 30
0.0
 10
14.0471958444
 20
6.6584656996
 30
0.0
 10
14.0514970391
 20
6.6622282008
 30
0.0
 10
14.0564164454
 20
6.6650287622
 30
0.0
 10
14.0617571634
 20
6.666750031
 30
0.0
 10
14.0654704351
 20
6.667141804
 30
0.0
 10
14.0673154829
 20
6.667141804
 30
0.0
  0
SPLINE
  5
273
100
AcDbEntity
  8
0
100
AcDbSpline
 62
9
  6
CONTINUOUS
 70
0
 71
3
 72
19
 73
15
 74
0
 42
0.0000001
 43
0.0000001
 44
0.0000000001
 40
0.0
 40
0.0
 40
0.0
 40
0.0
 40
0.1748776765
 40
0.344148176
 40
0.5016390031
 40
0.6425895236
 40
0.7056594193
 40
0.7632480575
 40
0.8151424909
 40
0.861358898
 40
0.9021206954
 40
0.9380083394
 40
0.9701003834
 40
1.0
 40
1.0
 40
1.0
 40
1.0
 10
14.208957567
 20
6.637141804
 30
0.0
 10
14.208957567
 20
6.639092141
 30
0.0
 10
14.2090839395
 20
6.642931459
 30
0.0
 10
14.2096422399
 20
6.6485026921
 30
0.0
 10
14.2105505523
 20
6.6536444256
 30
0.0
 10
14.211602907
 20
6.6575447872
 30
0.0
 10
14.2126129618
 20
6.6602839551
 30
0.0
 10
14.2134035407
 20
6.6620405472
 30
0.0
 10
14.2142487798
 20
6.663560271
 30
0.0
 10
14.2151407665
 20
6.6648307137
 30
0.0
 10
14.2160743219
 20
6.6658409519
 30
0.0
 10
14.2170465496
 20
6.6665791727
 30
0.0
 10
14.2180498996
 20
6.6670355202
 30
0.0
 10
14.2187445911
 20
6.667141804
 30
0.0
 10
14.2190780489
 20
6.667141804
 30
0.0
  0
ENDSEC
  0
SECTION
  2
OBJECTS
  0
DICTIONARY
  5
C
100
AcDbDictionary
280
0
281
1
  3
ACAD_GROUP
350
D
  3
ACAD_MLINESTYLE
350
17
  3
ACAD_LAYOUT
350
1A
  3
ACAD_PLOTSETTINGS
350
19
  3
ACAD_PLOTSTYLENAME
350
E
  0
DICTIONARY
  5
D
102
{ACAD_REACTORS
330
C
102
}
100
AcDbDictionary
280
0
281
1
  0
ACDBDICTIONARYWDFLT
  5
E
102
{ACAD_REACTORS
330
C
102
}
100
AcDbDictionary
281
1
  3
Normal
350
F
100
AcDbDictionaryWithDefault
340
F
  0
DICTIONARY
  5
17
102
{ACAD_REACTORS
330
C
102
}
100
AcDbDictionary
280
0
281
1
  3
Standard
350
18
  0
DICTIONARY
  5
19
102
{ACAD_REACTORS
330
C
102
}
100
AcDbDictionary
281
1
  0
DICTIONARY
  5
1A
102
{ACAD_REACTORS
330
C
102
}
100
AcDbDictionary
281
1
  3
Model
350
274
  3
Layout1
350
275
  0
ACDBPLACEHOLDER
  5
F
102
{ACAD_REACTORS
330
E
102
}
  0
MLINESTYLE
  5
18
102
{ACAD_REACTORS
330
17
102
}
100
AcDbMlineStyle
  2
STANDARD
 70
0
  3

 62
256
 51
90.0
 52
90.0
 71
2
 49
0.5
 62
256
  6
BYLAYER
 49
-0.5
 62
256
  6
BYLAYER
  0
LAYOUT
  5
274
102
{ACAD_REACTORS
330
1A
102
}
100
AcDbPlotSettings
  1

  2
none_device
  4
ANSI_C_(22.00_x_17.00_Inches)
  6

 40
0.0
 41
0.0
 42
0.0
 43
0.0
 44
558.8
 45
431.8
 46
0.0
 47
0.0
 48
0.0
 49
0.0
140
0.0
141
0.0
142
1.0
143
1.0
 70
1024
 72
0
 73
0
 74
0
  7

 75
0
147
1.0
148
0.0
149
0.0
100
AcDbLayout
  1
Model
 70
0
 71
0
 10
0.0
 20
0.0
 11
22.0
 21
17.0
 12
0.0
 22
0.0
 32
0.0
 14
0.0
 24
0.0
 34
0.0
 15
0.0
 25
0.0
 35
0.0
146
0.0
 13
0.0
 23
0.0
 33
0.0
 16
1.0
 26
0.0
 36
0.0
 17
0.0
 27
1.0
 37
0.0
 76
0
330
202
345
0
346
0
  0
LAYOUT
  5
275
102
{ACAD_REACTORS
330
1A
102
}
100
AcDbPlotSettings
  1

  2
none_device
  4
ANSI_C_(22.00_x_17.00_Inches)
  6

 40
0.0
 41
0.0
 42
0.0
 43
0.0
 44
558.8
 45
431.8
 46
0.0
 47
0.0
 48
0.0
 49
0.0
140
0.0
141
0.0
142
1.0
143
1.0
 70
0
 72
0
 73
0
 74
0
  7

 75
0
147
1.0
148
0.0
149
0.0
100
AcDbLayout
  1
Layout1
 70
0
 71
1
 10
0.0
 20
0.0
 11
22.0
 21
17.0
 12
0.0
 22
0.0
 32
0.0
 14
0.0
 24
0.0
 34
0.0
 15
0.0
 25
0.0
 35
0.0
146
0.0
 13
0.0
 23
0.0
 33
0.0
 16
1.0
 26
0.0
 36
0.0
 17
0.0
 27
1.0
 37
0.0
 76
0
330
203
345
0
346
0
  0
ENDSEC
  0
EOF
