999
DXF file: 3-3423tr_TOP.dxf
999
Pro/ENGINEER 2025093 by Parametric Technology Corporation
  0
SECTION
  2
HEADER
  9
$ACADVER
  1
AC1032
  9
$DWGCODEPAGE
  3
ANSI_1252
  9
$EXTMAX
 10
11.0
 20
8.5
 30
0.0
  9
$EXTMIN
 10
0.0
 20
0.0
 30
0.0
  9
$LIMMIN
 10
0.0
 20
0.0
  9
$LIMMAX
 10
11.0
 20
8.5
  9
$VIEWCTR
 10
5.5
 20
4.25
  9
$VIEWSIZE
 40
8.5
  9
$CLAYER
  8
0
  9
$LTSCALE
 40
0.605
  9
$CELTYPE
  6
BYLAYER
  9
$DIMSCALE
 40
1.0
  9
$DIMASZ
 40
0.1875
  9
$DIMEXO
 40
0.0625
  9
$DIMDLI
 40
0.418
  9
$DIMEXE
 40
0.125
  9
$DIMCEN
 40
0.099
  9
$DIMLFAC
 40
1.0
  9
$DIMBLK
  1
_FILLED
  9
$DIMALT
 70
0
  9
$DIMALTF
 40
25.4
  9
$DIMTXT
 40
0.15625
  9
$DIMTOL
 70
0
  9
$DIMLIM
 70
0
  9
$DIMTFAC
 40
1.0
  9
$DIMGAP
 40
0.09
  9
$DIMDSEP
 70
46
  9
$AUNITS
 70
0
  9
$PDMODE
 70
3
  9
$PDSIZE
 40
0.3125
  9
$HANDSEED
  5
34A
  9
$TILEMODE
 70
1
  9
$MEASUREMENT
 70
0
  9
$INSUNITS
 70
1
  0
ENDSEC
  0
SECTION
  2
CLASSES
  0
CLASS
  1
ACDBDICTIONARYWDFLT
  2
AcDbDictionaryWithDefault
  3
AutoCAD 2000
 90
0
 91
1
280
0
281
0
  0
CLASS
  1
ACDBPLACEHOLDER
  2
AcDbPlaceHolder
  3
AutoCAD 2000
 90
0
 91
1
280
0
281
0
  0
CLASS
  1
LAYOUT
  2
AcDbLayout
  3
AutoCAD 2000
 90
0
 91
0
280
0
281
0
  0
ENDSEC
  0
SECTION
  2
TABLES
  0
TABLE
  2
VPORT
  5
8
100
AcDbSymbolTable
 70
2
  0
VPORT
  5
1F4
100
AcDbSymbolTableRecord
100
AcDbViewportTableRecord
  2
*ACTIVE
 70
0
 10
0.0
 20
0.0
 11
1.0
 21
1.0
 12
5.5
 22
4.25
 13
0.0
 23
0.0
 14
1.0
 24
1.0
 15
0.0
 25
0.0
 16
0.0
 26
0.0
 36
1.0
 17
0.0
 27
0.0
 37
0.0
 40
8.5
 41
1.2941176471
 42
50.0
 43
0.0
 44
0.0
 50
0.0
 51
0.0
 71
0
 72
100
 73
1
 74
1
 75
0
 76
0
 77
0
 78
0
  0
ENDTAB
  0
TABLE
  2
LTYPE
  5
5
100
AcDbSymbolTable
 70
6
  0
LTYPE
  5
14
100
AcDbSymbolTableRecord
100
AcDbLinetypeTableRecord
  2
BYBLOCK
 70
0
  3

 72
65
 73
0
 40
0.0
  0
LTYPE
  5
15
100
AcDbSymbolTableRecord
100
AcDbLinetypeTableRecord
  2
BYLAYER
 70
0
  3

 72
65
 73
0
 40
0.0
  0
LTYPE
  5
16
100
AcDbSymbolTableRecord
100
AcDbLinetypeTableRecord
  2
CONTINUOUS
 70
64
  3
Solid line
 72
65
 73
0
 40
0.0
  0
LTYPE
  5
1F5
100
AcDbSymbolTableRecord
100
AcDbLinetypeTableRecord
  2
CENTER
 70
64
  3
____ _ ____ _ ____ _ ____ _ ____ _ ____ _ ____
 72
65
 73
4
 40
0.6
 49
0.375
 74
0
 49
-0.075
 74
0
 49
0.075
 74
0
 49
-0.075
 74
0
  0
LTYPE
  5
1F6
100
AcDbSymbolTableRecord
100
AcDbLinetypeTableRecord
  2
HIDDEN
 70
64
  3
- - - - - - - - - - - - - - - - - - - -
 72
65
 73
2
 40
0.2
 49
0.1
 74
0
 49
-0.1
 74
0
  0
LTYPE
  5
1F7
100
AcDbSymbolTableRecord
100
AcDbLinetypeTableRecord
  2
PHANTOM
 70
64
  3
_____ _ _ _____ _ _ _____ _ _ _____
 72
65
 73
6
 40
0.8
 49
0.45
 74
0
 49
-0.05
 74
0
 49
0.1
 74
0
 49
-0.05
 74
0
 49
0.1
 74
0
 49
-0.05
 74
0
  0
LTYPE
  5
1F8
100
AcDbSymbolTableRecord
100
AcDbLinetypeTableRecord
  2
DOT
 70
64
  3
. . . . . . . . . . . . . . . . . . . .
 72
65
 73
2
 40
0.2
 49
0.1
 74
0
 49
-0.1
 74
0
  0
LTYPE
  5
1F9
100
AcDbSymbolTableRecord
100
AcDbLinetypeTableRecord
  2
DASHED
 70
64
  3
- - - - - - - - - - - - - - - - - - - -
 72
65
 73
2
 40
0.2
 49
0.1
 74
0
 49
-0.1
 74
0
  0
ENDTAB
  0
TABLE
  2
LAYER
  5
2
100
AcDbSymbolTable
 70
36
  0
LAYER
  5
10
100
AcDbSymbolTableRecord
100
AcDbLayerTableRecord
  2
0
 70
0
 62
7
  6
CONTINUOUS
370
-3
390
F
  0
LAYER
  5
1FA
100
AcDbSymbolTableRecord
100
AcDbLayerTableRecord
  2
DEFAULT_1
 70
0
 62
7
  6
CENTER
370
-3
390
F
  0
LAYER
  5
1FB
100
AcDbSymbolTableRecord
100
AcDbLayerTableRecord
  2
DEFAULT_2
 70
0
 62
8
  6
HIDDEN
370
-3
390
F
  0
LAYER
  5
1FC
100
AcDbSymbolTableRecord
100
AcDbLayerTableRecord
  2
DEFAULT_3
 70
0
 62
7
  6
PHANTOM
370
-3
390
F
  0
LAYER
  5
1FD
100
AcDbSymbolTableRecord
100
AcDbLayerTableRecord
  2
DEFAULT_COORDINATE_SYSTEM
 70
0
 62
7
  6
CONTINUOUS
370
-3
390
F
  0
LAYER
  5
1FE
100
AcDbSymbolTableRecord
100
AcDbLayerTableRecord
  2
DEFAULT_DATUM_AXES
 70
0
 62
7
  6
CONTINUOUS
370
-3
390
F
  0
LAYER
  5
1FF
100
AcDbSymbolTableRecord
100
AcDbLayerTableRecord
  2
DEFAULT_DATUM_PLANES
 70
0
 62
7
  6
CONTINUOUS
370
-3
390
F
  0
ENDTAB
  0
TABLE
  2
STYLE
  5
3
100
AcDbSymbolTable
 70
1
  0
STYLE
  5
11
100
AcDbSymbolTableRecord
100
AcDbTextStyleTableRecord
  2
STANDARD
 70
0
 40
0.0
 41
0.8
 50
0.0
 71
0
 42
0.2
  3
txt
  4

  0
STYLE
  5
200
100
AcDbSymbolTableRecord
100
AcDbTextStyleTableRecord
  2
TEXTSTYLE_1
 70
0
 40
0.0
 41
0.8
 50
0.0
 71
0
 42
0.2
  3
gdt
  4

  0
ENDTAB
  0
TABLE
  2
VIEW
  5
6
100
AcDbSymbolTable
 70
0
  0
ENDTAB
  0
TABLE
  2
UCS
  5
7
100
AcDbSymbolTable
 70
0
  0
ENDTAB
  0
TABLE
  2
APPID
  5
9
100
AcDbSymbolTable
 70
1
  0
APPID
  5
201
100
AcDbSymbolTableRecord
100
AcDbRegAppTableRecord
  2
ACAD
 70
0
  0
ENDTAB
  0
TABLE
  2
BLOCK_RECORD
  5
1
100
AcDbSymbolTable
 70
0
  0
BLOCK_RECORD
  5
202
100
AcDbSymbolTableRecord
100
AcDbBlockTableRecord
  2
*Model_Space
  0
BLOCK_RECORD
  5
203
100
AcDbSymbolTableRecord
100
AcDbBlockTableRecord
  2
*Paper_Space
  0
BLOCK_RECORD
  5
204
100
AcDbSymbolTableRecord
100
AcDbBlockTableRecord
  2
_FILLED
  0
ENDTAB
  0
TABLE
  2
DIMSTYLE
  5
A
100
AcDbSymbolTable
 70
1
100
AcDbDimStyleTable
 71
0
  0
DIMSTYLE
105
205
100
AcDbSymbolTableRecord
100
AcDbDimStyleTableRecord
  2
STANDARD
 70
0
  3

  4

 40
1.0
 41
0.1875
 42
0.0625
 43
0.38
 44
0.125
 45
0.0
 46
0.0
 47
0.001
 48
0.001
140
0.15625
141
0.0
142
0.0
143
25.4
144
1.0
145
0.0
146
1.0
147
0.09
 71
0
 72
0
 73
1
 74
1
 75
0
 76
0
 77
0
 78
4
 79
1
170
0
171
2
172
0
173
0
174
0
175
0
176
0
177
0
178
0
270
2
179
1
271
3
272
3
273
2
274
2
275
0
280
0
281
0
282
0
283
1
284
4
285
0
286
0
287
3
288
0
340
11
278
46
341
204
342
204
343
204
344
204
  0
ENDTAB
  0
ENDSEC
  0
SECTION
  2
BLOCKS
  0
BLOCK
  5
20
100
AcDbEntity
  8
0
100
AcDbBlockBegin
  2
*Model_Space
 70
0
 10
0.0
 20
0.0
 30
0.0
  3
*Model_Space
  1

  0
ENDBLK
  5
21
100
AcDbEntity
  8
0
100
AcDbBlockEnd
  0
BLOCK
  5
1C
100
AcDbEntity
  8
0
100
AcDbBlockBegin
  2
*Paper_Space
 70
0
 10
0.0
 20
0.0
 30
0.0
  3
*Paper_Space
  1

  0
ENDBLK
  5
1D
100
AcDbEntity
  8
0
100
AcDbBlockEnd
  0
BLOCK
  5
206
100
AcDbEntity
  8
0
100
AcDbBlockBegin
  2
_FILLED
 70
64
 10
0.0
 20
0.0
 30
0.0
  3
_FILLED
  1

  0
SOLID
  5
207
100
AcDbEntity
  8
0
  6
BYBLOCK
 62
0
100
AcDbTrace
 10
0.0
 20
0.0
 30
0.0
 11
-1.0
 21
0.1666666667
 31
0.0
 12
-1.0
 22
-0.1666666667
 32
0.0
 13
-1.0
 23
-0.1666666667
 33
0.0
  0
ENDBLK
  5
208
100
AcDbEntity
  8
0
  6
BYBLOCK
 62
0
100
AcDbBlockEnd
  0
ENDSEC
  0
SECTION
  2
ENTITIES
  0
LINE
  5
209
100
AcDbEntity
  8
0
100
AcDbLine
 62
7
  6
CONTINUOUS
 10
0.0
 20
0.0
 30
0.0
 11
0.0
 21
8.5
 31
0.0
  0
LINE
  5
20A
100
AcDbEntity
  8
0
100
AcDbLine
 62
7
  6
CONTINUOUS
 10
0.0
 20
0.0
 30
0.0
 11
11.0
 21
0.0
 31
0.0
  0
LINE
  5
20B
100
AcDbEntity
  8
0
100
AcDbLine
 62
7
  6
CONTINUOUS
 10
0.0
 20
8.5
 30
0.0
 11
11.0
 21
8.5
 31
0.0
  0
LINE
  5
20C
100
AcDbEntity
  8
0
100
AcDbLine
 62
7
  6
CONTINUOUS
 10
11.0
 20
0.0
 30
0.0
 11
11.0
 21
8.5
 31
0.0
  0
LINE
  5
20D
100
AcDbEntity
  8
0
100
AcDbLine
 62
7
  6
CONTINUOUS
 10
3.2041979809
 20
5.1388801098
 30
0.0
 11
3.2041979809
 21
4.9060801098
 31
0.0
  0
LINE
  5
20E
100
AcDbEntity
  8
0
100
AcDbLine
 62
7
  6
CONTINUOUS
 10
5.2231516929
 20
3.0372508715
 30
0.0
 11
5.2226961845
 21
3.0371678725
 31
0.0
  0
LINE
  5
20F
100
AcDbEntity
  8
0
100
AcDbLine
 62
7
  6
CONTINUOUS
 10
5.4843120717
 20
3.0747998426
 30
0.0
 11
5.4847712815
 21
3.0748485828
 31
0.0
  0
LINE
  5
210
100
AcDbEntity
  8
0
100
AcDbLine
 62
7
  6
CONTINUOUS
 10
5.1918957
 20
3.0608701789
 30
0.0
 11
5.1914282286
 21
3.060874931
 31
0.0
  0
LINE
  5
211
100
AcDbEntity
  8
0
100
AcDbLine
 62
7
  6
CONTINUOUS
 10
5.4554322065
 20
3.0483162274
 30
0.0
 11
5.4558984085
 21
3.0482766636
 31
0.0
  0
LINE
  5
212
100
AcDbEntity
  8
0
100
AcDbLine
 62
7
  6
CONTINUOUS
 10
5.1656535645
 20
3.0899812853
 30
0.0
 11
5.1652119156
 21
3.0900710716
 31
0.0
  0
LINE
  5
213
100
AcDbEntity
  8
0
100
AcDbLine
 62
7
  6
CONTINUOUS
 10
5.4220826037
 20
3.0277721813
 30
0.0
 11
5.4225185371
 21
3.0276491607
 31
0.0
  0
LINE
  5
214
100
AcDbEntity
  8
0
100
AcDbLine
 62
7
  6
CONTINUOUS
 10
5.145425696
 20
3.1235234503
 30
0.0
 11
5.1449947716
 21
3.1237010698
 31
0.0
  0
LINE
  5
215
100
AcDbEntity
  8
0
100
AcDbLine
 62
7
  6
CONTINUOUS
 10
5.533868064
 20
3.2518092831
 30
0.0
 11
5.5335613527
 21
3.2517501571
 31
0.0
  0
LINE
  5
216
100
AcDbEntity
  8
0
100
AcDbLine
 62
7
  6
CONTINUOUS
 10
5.2231511365
 20
3.2521641559
 30
0.0
 11
5.2226961845
 21
3.2520812583
 31
0.0
  0
LINE
  5
217
100
AcDbEntity
  8
0
100
AcDbLine
 62
7
  6
CONTINUOUS
 10
5.4843046598
 20
3.2897124448
 30
0.0
 11
5.4847712815
 21
3.2897619687
 31
0.0
  0
LINE
  5
218
100
AcDbEntity
  8
0
100
AcDbLine
 62
7
  6
CONTINUOUS
 10
5.1257325761
 20
3.193128259
 30
0.0
 11
5.1260394997
 21
3.1931575664
 31
0.0
  0
LINE
  5
219
100
AcDbEntity
  8
0
100
AcDbLine
 62
7
  6
CONTINUOUS
 10
5.5375979809
 20
3.2127478263
 30
0.0
 11
5.5372979808
 21
3.2127478148
 31
0.0
  0
LINE
  5
21A
100
AcDbEntity
  8
0
100
AcDbLine
 62
7
  6
CONTINUOUS
 10
5.1918965457
 20
3.2757835562
 30
0.0
 11
5.1914282286
 21
3.2757883168
 31
0.0
  0
LINE
  5
21B
100
AcDbEntity
  8
0
100
AcDbLine
 62
7
  6
CONTINUOUS
 10
5.455434006
 20
3.2632294598
 30
0.0
 11
5.4558984085
 21
3.2631900494
 31
0.0
  0
LINE
  5
21C
100
AcDbEntity
  8
0
100
AcDbLine
 62
7
  6
CONTINUOUS
 10
5.1257325761
 20
3.2323673936
 30
0.0
 11
5.1260391277
 21
3.2323381334
 31
0.0
  0
LINE
  5
21D
100
AcDbEntity
  8
0
100
AcDbLine
 62
7
  6
CONTINUOUS
 10
5.533868064
 20
3.1736863695
 30
0.0
 11
5.5335613481
 21
3.1737454719
 31
0.0
  0
LINE
  5
21E
100
AcDbEntity
  8
0
100
AcDbLine
 62
7
  6
CONTINUOUS
 10
5.1656712837
 20
3.3048910689
 30
0.0
 11
5.1652119156
 21
3.3049844574
 31
0.0
  0
LINE
  5
21F
100
AcDbEntity
  8
0
100
AcDbLine
 62
7
  6
CONTINUOUS
 10
5.4220782685
 20
3.2426867924
 30
0.0
 11
5.4225185371
 21
3.2425625465
 31
0.0
  0
LINE
  5
220
100
AcDbEntity
  8
0
100
AcDbLine
 62
7
  6
CONTINUOUS
 10
5.1331586311
 20
3.270897426
 30
0.0
 11
5.1334591871
 21
3.2708091874
 31
0.0
  0
LINE
  5
221
100
AcDbEntity
  8
0
100
AcDbLine
 62
7
  6
CONTINUOUS
 10
5.5228131223
 20
3.1360366955
 30
0.0
 11
5.5225247734
 21
3.1361521201
 31
0.0
  0
LINE
  5
222
100
AcDbEntity
  8
0
100
AcDbLine
 62
7
  6
CONTINUOUS
 10
5.3854222921
 20
3.0139204531
 30
0.0
 11
5.3858381029
 21
3.0137116058
 31
0.0
  0
LINE
  5
223
100
AcDbEntity
  8
0
100
AcDbLine
 62
7
  6
CONTINUOUS
 10
5.1318963651
 20
3.1602939168
 30
0.0
 11
5.1315074967
 21
3.1605494497
 31
0.0
  0
LINE
  5
224
100
AcDbEntity
  8
0
100
AcDbLine
 62
7
  6
CONTINUOUS
 10
5.3468134404
 20
3.0072519818
 30
0.0
 11
5.3471828323
 21
3.0069677385
 31
0.0
  0
LINE
  5
225
100
AcDbEntity
  8
0
100
AcDbLine
 62
7
  6
CONTINUOUS
 10
5.533868064
 20
3.466722669
 30
0.0
 11
5.5335653359
 21
3.4666643108
 31
0.0
  0
LINE
  5
226
100
AcDbEntity
  8
0
100
AcDbLine
 62
7
  6
CONTINUOUS
 10
5.1257325761
 20
3.4080416448
 30
0.0
 11
5.1260361823
 21
3.4080706355
 31
0.0
  0
LINE
  5
227
100
AcDbEntity
  8
0
100
AcDbLine
 62
7
  6
CONTINUOUS
 10
5.5375979809
 20
3.4276612121
 30
0.0
 11
5.5372979808
 21
3.4276612006
 31
0.0
  0
LINE
  5
228
100
AcDbEntity
  8
0
100
AcDbLine
 62
7
  6
CONTINUOUS
 10
5.1257325761
 20
3.4472807795
 30
0.0
 11
5.1260358102
 21
3.4472518359
 31
0.0
  0
LINE
  5
229
100
AcDbEntity
  8
0
100
AcDbLine
 62
7
  6
CONTINUOUS
 10
5.533868064
 20
3.3885997553
 30
0.0
 11
5.5335653313
 21
3.3886580902
 31
0.0
  0
LINE
  5
22A
100
AcDbEntity
  8
0
100
AcDbLine
 62
7
  6
CONTINUOUS
 10
5.1331586311
 20
3.4858108119
 30
0.0
 11
5.133457103
 21
3.4857231851
 31
0.0
  0
LINE
  5
22B
100
AcDbEntity
  8
0
100
AcDbLine
 62
7
  6
CONTINUOUS
 10
5.5076549022
 20
3.3192247891
 30
0.0
 11
5.5080936153
 21
3.3190911126
 31
0.0
  0
LINE
  5
22C
100
AcDbEntity
  8
0
100
AcDbLine
 62
7
  6
CONTINUOUS
 10
5.1454234219
 20
3.3384377735
 30
0.0
 11
5.1449947716
 21
3.3386144556
 31
0.0
  0
LINE
  5
22D
100
AcDbEntity
  8
0
100
AcDbLine
 62
7
  6
CONTINUOUS
 10
5.3854334061
 20
3.2288282514
 30
0.0
 11
5.3858381029
 21
3.2286249916
 31
0.0
  0
LINE
  5
22E
100
AcDbEntity
  8
0
100
AcDbLine
 62
7
  6
CONTINUOUS
 10
5.1477423443
 20
3.3073257804
 30
0.0
 11
5.1480129234
 21
3.3071863004
 31
0.0
  0
LINE
  5
22F
100
AcDbEntity
  8
0
100
AcDbLine
 62
7
  6
CONTINUOUS
 10
5.5048327101
 20
3.1011595616
 30
0.0
 11
5.5045766144
 21
3.1013241303
 31
0.0
  0
LINE
  5
230
100
AcDbEntity
  8
0
100
AcDbLine
 62
7
  6
CONTINUOUS
 10
5.1318859692
 20
3.375214134
 30
0.0
 11
5.1315074967
 21
3.3754628356
 31
0.0
  0
LINE
  5
231
100
AcDbEntity
  8
0
100
AcDbLine
 62
7
  6
CONTINUOUS
 10
5.3468153892
 20
3.2221638669
 30
0.0
 11
5.3471828323
 21
3.2218811243
 31
0.0
  0
LINE
  5
232
100
AcDbEntity
  8
0
100
AcDbLine
 62
7
  6
CONTINUOUS
 10
5.4805766864
 20
3.0703155183
 30
0.0
 11
5.4803499748
 21
3.0705316707
 31
0.0
  0
LINE
  5
233
100
AcDbEntity
  8
0
100
AcDbLine
 62
7
  6
CONTINUOUS
 10
5.1255621838
 20
3.1989685213
 30
0.0
 11
5.1252375562
 21
3.199284415
 31
0.0
  0
LINE
  5
234
100
AcDbEntity
  8
0
100
AcDbLine
 62
7
  6
CONTINUOUS
 10
5.1255654125
 20
3.4138787654
 30
0.0
 11
5.1252375562
 21
3.4141978008
 31
0.0
  0
LINE
  5
235
100
AcDbEntity
  8
0
100
AcDbLine
 62
7
  6
CONTINUOUS
 10
5.3076511149
 20
3.0079987699
 30
0.0
 11
5.3079498275
 21
3.0076612997
 31
0.0
  0
LINE
  5
236
100
AcDbEntity
  8
0
100
AcDbLine
 62
7
  6
CONTINUOUS
 10
5.1266790696
 20
3.2381221221
 30
0.0
 11
5.126411562
 21
3.2385059831
 31
0.0
  0
LINE
  5
237
100
AcDbEntity
  8
0
100
AcDbLine
 62
7
  6
CONTINUOUS
 10
4.8351359809
 20
4.8760801098
 30
0.0
 11
4.8351349888
 21
3.8427478263
 31
0.0
  0
LINE
  5
238
100
AcDbEntity
  8
0
100
AcDbLine
 62
7
  6
CONTINUOUS
 10
5.4220783161
 20
3.6126354636
 30
0.0
 11
5.4225185371
 21
3.6127598778
 31
0.0
  0
LINE
  5
239
100
AcDbEntity
  8
0
100
AcDbLine
 62
7
  6
CONTINUOUS
 10
5.1656712489
 20
3.5504315266
 30
0.0
 11
5.1652119156
 21
3.5503379668
 31
0.0
  0
LINE
  5
23A
100
AcDbEntity
  8
0
100
AcDbLine
 62
7
  6
CONTINUOUS
 10
5.4554340208
 20
3.5920927903
 30
0.0
 11
5.4558984084
 21
3.5921323749
 31
0.0
  0
LINE
  5
23B
100
AcDbEntity
  8
0
100
AcDbLine
 62
7
  6
CONTINUOUS
 10
5.191896544
 20
3.5795390428
 30
0.0
 11
5.1914282285
 21
3.5795341075
 31
0.0
  0
LINE
  5
23C
100
AcDbEntity
  8
0
100
AcDbLine
 62
7
  6
CONTINUOUS
 10
5.4843046415
 20
3.5656098058
 30
0.0
 11
5.4847712815
 21
3.5655604556
 31
0.0
  0
LINE
  5
23D
100
AcDbEntity
  8
0
100
AcDbLine
 62
7
  6
CONTINUOUS
 10
5.2231511678
 20
3.6031584403
 30
0.0
 11
5.2226961844
 21
3.603241166
 31
0.0
  0
LINE
  5
23E
100
AcDbEntity
  8
0
100
AcDbLine
 62
7
  6
CONTINUOUS
 10
5.5076469891
 20
3.534140586
 30
0.0
 11
5.5080936153
 21
3.5340044984
 31
0.0
  0
LINE
  5
23F
100
AcDbEntity
  8
0
100
AcDbLine
 62
7
  6
CONTINUOUS
 10
5.5228131223
 20
3.3509500813
 30
0.0
 11
5.5225226187
 21
3.3510663684
 31
0.0
  0
LINE
  5
240
100
AcDbEntity
  8
0
100
AcDbLine
 62
7
  6
CONTINUOUS
 10
5.1477423443
 20
3.5222391662
 30
0.0
 11
5.1480212984
 21
3.522095369
 31
0.0
  0
LINE
  5
241
100
AcDbEntity
  8
0
100
AcDbLine
 62
7
  6
CONTINUOUS
 10
5.524608399
 20
3.2839104616
 30
0.0
 11
5.52502248
 21
3.2836916319
 31
0.0
  0
LINE
  5
242
100
AcDbEntity
  8
0
100
AcDbLine
 62
7
  6
CONTINUOUS
 10
5.5048327101
 20
3.3160729474
 30
0.0
 11
5.5045686879
 21
3.3162426098
 31
0.0
  0
LINE
  5
243
100
AcDbEntity
  8
0
100
AcDbLine
 62
7
  6
CONTINUOUS
 10
5.1689566221
 20
3.5552492269
 30
0.0
 11
5.1692025963
 21
3.555055806
 31
0.0
  0
LINE
  5
244
100
AcDbEntity
  8
0
100
AcDbLine
 62
7
  6
CONTINUOUS
 10
5.5345897518
 20
3.2460141401
 30
0.0
 11
5.5349460223
 21
3.2457280573
 31
0.0
  0
LINE
  5
245
100
AcDbEntity
  8
0
100
AcDbLine
 62
7
  6
CONTINUOUS
 10
5.4805766864
 20
3.2852289042
 30
0.0
 11
5.480351547
 21
3.2854435576
 31
0.0
  0
LINE
  5
246
100
AcDbEntity
  8
0
100
AcDbLine
 62
7
  6
CONTINUOUS
 10
5.3076391357
 20
3.2229257
 30
0.0
 11
5.3079498275
 21
3.2225746856
 31
0.0
  0
LINE
  5
247
100
AcDbEntity
  8
0
100
AcDbLine
 62
7
  6
CONTINUOUS
 10
5.450921727
 20
3.0446193498
 30
0.0
 11
5.4507430919
 21
3.0448701873
 31
0.0
  0
LINE
  5
248
100
AcDbEntity
  8
0
100
AcDbLine
 62
7
  6
CONTINUOUS
 10
5.126678037
 20
3.4530369897
 30
0.0
 11
5.126411562
 21
3.4534193689
 31
0.0
  0
LINE
  5
249
100
AcDbEntity
  8
0
100
AcDbLine
 62
7
  6
CONTINUOUS
 10
5.26931907
 20
3.0161695997
 30
0.0
 11
5.2695570716
 21
3.0157672224
 31
0.0
  0
LINE
  5
24A
100
AcDbEntity
  8
0
100
AcDbLine
 62
7
  6
CONTINUOUS
 10
5.2693186397
 20
3.2310837137
 30
0.0
 11
5.2695570716
 21
3.2306806082
 31
0.0
  0
LINE
  5
24B
100
AcDbEntity
  8
0
100
AcDbLine
 62
7
  6
CONTINUOUS
 10
5.135174637
 20
3.2763745978
 30
0.0
 11
5.1349870826
 21
3.2767965842
 31
0.0
  0
LINE
  5
24C
100
AcDbEntity
  8
0
100
AcDbLine
 62
7
  6
CONTINUOUS
 10
4.9381979809
 20
3.6927478263
 30
0.0
 11
4.9381979809
 21
3.8427478263
 31
0.0
  0
LINE
  5
24D
100
AcDbEntity
  8
0
100
AcDbLine
 62
7
  6
CONTINUOUS
 10
4.9426979809
 20
4.0888801098
 30
0.0
 11
4.9426979809
 21
3.9076612121
 31
0.0
  0
LINE
  5
24E
100
AcDbEntity
  8
0
100
AcDbLine
 62
7
  6
CONTINUOUS
 10
5.1661979809
 20
3.6927478263
 30
0.0
 11
4.9381979809
 21
3.6927478263
 31
0.0
  0
LINE
  5
24F
100
AcDbEntity
  8
0
100
AcDbLine
 62
7
  6
CONTINUOUS
 10
5.4961979809
 20
3.6927478263
 30
0.0
 11
5.7241979809
 21
3.6927478263
 31
0.0
  0
LINE
  5
250
100
AcDbEntity
  8
0
100
AcDbLine
 62
7
  6
CONTINUOUS
 10
5.2583062526
 20
3.6204390628
 30
0.0
 11
5.257885678
 21
3.6206023074
 31
0.0
  0
LINE
  5
251
100
AcDbEntity
  8
0
100
AcDbLine
 62
7
  6
CONTINUOUS
 10
5.524616696
 20
3.4988194627
 30
0.0
 11
5.52502248
 21
3.4986050177
 31
0.0
  0
LINE
  5
252
100
AcDbEntity
  8
0
100
AcDbLine
 62
7
  6
CONTINUOUS
 10
5.2961135691
 20
3.6307460063
 30
0.0
 11
5.2957248692
 21
3.630990055
 31
0.0
  0
LINE
  5
253
100
AcDbEntity
  8
0
100
AcDbLine
 62
7
  6
CONTINUOUS
 10
5.4118716117
 20
3.6186979908
 30
0.0
 11
5.4120279109
 21
3.6185842419
 31
0.0
  0
LINE
  5
254
100
AcDbEntity
  8
0
100
AcDbLine
 62
7
  6
CONTINUOUS
 10
5.4118729275
 20
3.6186988348
 30
0.0
 11
5.4120275728
 21
3.6185836394
 31
0.0
  0
LINE
  5
255
100
AcDbEntity
  8
0
100
AcDbLine
 62
7
  6
CONTINUOUS
 10
5.5345942515
 20
3.4609239127
 30
0.0
 11
5.5349460223
 21
3.4606414431
 31
0.0
  0
LINE
  5
256
100
AcDbEntity
  8
0
100
AcDbLine
 62
7
  6
CONTINUOUS
 10
5.3351874388
 20
3.6337103503
 30
0.0
 11
5.3348461511
 21
3.6340289685
 31
0.0
  0
LINE
  5
257
100
AcDbEntity
  8
0
100
AcDbLine
 62
7
  6
CONTINUOUS
 10
5.1960347254
 20
3.5836479243
 30
0.0
 11
5.1962366291
 21
3.5834149332
 31
0.0
  0
LINE
  5
258
100
AcDbEntity
  8
0
100
AcDbLine
 62
7
  6
CONTINUOUS
 10
5.537205946
 20
3.2069254736
 30
0.0
 11
5.5375055795
 21
3.2065724912
 31
0.0
  0
LINE
  5
259
100
AcDbEntity
  8
0
100
AcDbLine
 62
7
  6
CONTINUOUS
 10
5.450921727
 20
3.2595327356
 30
0.0
 11
5.4507450251
 21
3.2597808585
 31
0.0
  0
LINE
  5
25A
100
AcDbEntity
  8
0
100
AcDbLine
 62
7
  6
CONTINUOUS
 10
5.2279979809
 20
3.6064088555
 30
0.0
 11
5.228147991
 21
3.6061490535
 31
0.0
  0
LINE
  5
25B
100
AcDbEntity
  8
0
100
AcDbLine
 62
7
  6
CONTINUOUS
 10
5.4169396396
 20
3.0249997825
 30
0.0
 11
5.4168117039
 21
3.025279894
 31
0.0
  0
LINE
  5
25C
100
AcDbEntity
  8
0
100
AcDbLine
 62
7
  6
CONTINUOUS
 10
5.1351776641
 20
3.4912811728
 30
0.0
 11
5.1349870826
 21
3.49170997
 31
0.0
  0
LINE
  5
25D
100
AcDbEntity
  8
0
100
AcDbLine
 62
7
  6
CONTINUOUS
 10
5.2332361391
 20
3.0314284599
 30
0.0
 11
5.2333921787
 21
3.0309925373
 31
0.0
  0
LINE
  5
25E
100
AcDbEntity
  8
0
100
AcDbLine
 62
7
  6
CONTINUOUS
 10
5.2332363295
 20
3.2463413131
 30
0.0
 11
5.2333921787
 21
3.2459059232
 31
0.0
  0
LINE
  5
25F
100
AcDbEntity
  8
0
100
AcDbLine
 62
7
  6
CONTINUOUS
 10
5.1507577656
 20
3.3123255214
 30
0.0
 11
5.1506541763
 21
3.3127722964
 31
0.0
  0
LINE
  5
260
100
AcDbEntity
  8
0
100
AcDbLine
 62
7
  6
CONTINUOUS
 10
5.150759634
 20
3.5272308488
 30
0.0
 11
5.1506541763
 21
3.5276856822
 31
0.0
  0
LINE
  5
261
100
AcDbEntity
  8
0
100
AcDbLine
 62
7
  6
CONTINUOUS
 10
5.1728637706
 20
3.5595876077
 30
0.0
 11
5.1728465935
 21
3.5600462494
 31
0.0
  0
LINE
  5
262
100
AcDbEntity
  8
0
100
AcDbLine
 62
7
  6
CONTINUOUS
 10
5.1661979809
 20
3.8776612121
 30
0.0
 11
5.1661979809
 21
3.5516608432
 31
0.0
  0
LINE
  5
263
100
AcDbEntity
  8
0
100
AcDbLine
 62
7
  6
CONTINUOUS
 10
5.1661979809
 20
3.8427478263
 30
0.0
 11
4.8351349888
 21
3.8427478263
 31
0.0
  0
LINE
  5
264
100
AcDbEntity
  8
0
100
AcDbLine
 62
7
  6
CONTINUOUS
 10
5.4961979809
 20
3.8427478263
 30
0.0
 11
5.827260973
 21
3.8427478263
 31
0.0
  0
LINE
  5
265
100
AcDbEntity
  8
0
100
AcDbLine
 62
7
  6
CONTINUOUS
 10
5.4961979809
 20
3.8776612121
 30
0.0
 11
5.1661979809
 21
3.8776612121
 31
0.0
  0
LINE
  5
266
100
AcDbEntity
  8
0
100
AcDbLine
 62
7
  6
CONTINUOUS
 10
4.9426979809
 20
3.9076612121
 30
0.0
 11
5.7196979809
 21
3.9076612121
 31
0.0
  0
LINE
  5
267
100
AcDbEntity
  8
0
100
AcDbLine
 62
7
  6
CONTINUOUS
 10
5.537206312
 20
3.4218384282
 30
0.0
 11
5.5375055795
 21
3.421485877
 31
0.0
  0
LINE
  5
268
100
AcDbEntity
  8
0
100
AcDbLine
 62
7
  6
CONTINUOUS
 10
5.3741117784
 20
3.6292298693
 30
0.0
 11
5.3738355786
 21
3.6296092136
 31
0.0
  0
LINE
  5
269
100
AcDbEntity
  8
0
100
AcDbLine
 62
7
  6
CONTINUOUS
 10
5.5323790222
 20
3.168047336
 30
0.0
 11
5.5326086425
 21
3.1676401178
 31
0.0
  0
LINE
  5
26A
100
AcDbEntity
  8
0
100
AcDbLine
 62
7
  6
CONTINUOUS
 10
5.5323786068
 20
3.3829614585
 30
0.0
 11
5.5326086425
 21
3.3825535036
 31
0.0
  0
LINE
  5
26B
100
AcDbEntity
  8
0
100
AcDbLine
 62
7
  6
CONTINUOUS
 10
5.4169396396
 20
3.2399131683
 30
0.0
 11
5.4168130884
 21
3.2401902485
 31
0.0
  0
LINE
  5
26C
100
AcDbEntity
  8
0
100
AcDbLine
 62
7
  6
CONTINUOUS
 10
5.2636911533
 20
3.6227093811
 30
0.0
 11
5.2637920001
 21
3.6224180395
 31
0.0
  0
LINE
  5
26D
100
AcDbEntity
  8
0
100
AcDbLine
 62
7
  6
CONTINUOUS
 10
5.3798586252
 20
3.0121659186
 30
0.0
 11
5.3797847641
 21
3.012470327
 31
0.0
  0
LINE
  5
26E
100
AcDbEntity
  8
0
100
AcDbLine
 62
7
  6
CONTINUOUS
 10
5.3798586252
 20
3.2270793044
 30
0.0
 11
5.3797852762
 21
3.2273816021
 31
0.0
  0
LINE
  5
26F
100
AcDbEntity
  8
0
100
AcDbLine
 62
7
  6
CONTINUOUS
 10
5.2006924498
 20
3.053238516
 30
0.0
 11
5.2007622424
 21
3.0527869619
 31
0.0
  0
LINE
  5
270
100
AcDbEntity
  8
0
100
AcDbLine
 62
7
  6
CONTINUOUS
 10
5.200693329
 20
3.2681461984
 30
0.0
 11
5.2007622424
 21
3.2677003478
 31
0.0
  0
LINE
  5
271
100
AcDbEntity
  8
0
100
AcDbLine
 62
7
  6
CONTINUOUS
 10
5.3410188883
 20
3.0065816075
 30
0.0
 11
5.341004392
 21
3.0068856759
 31
0.0
  0
LINE
  5
272
100
AcDbEntity
  8
0
100
AcDbLine
 62
7
  6
CONTINUOUS
 10
5.3410188883
 20
3.2214949933
 30
0.0
 11
5.3410039433
 21
3.2218084733
 31
0.0
  0
LINE
  5
273
100
AcDbEntity
  8
0
100
AcDbLine
 62
7
  6
CONTINUOUS
 10
5.2201979809
 20
3.9076612121
 30
0.0
 11
5.2201979809
 21
3.8776612121
 31
0.0
  0
LINE
  5
274
100
AcDbEntity
  8
0
100
AcDbLine
 62
7
  6
CONTINUOUS
 10
5.1728635959
 20
3.2957348232
 30
0.0
 11
5.1728465934
 21
3.2952761748
 31
0.0
  0
LINE
  5
275
100
AcDbEntity
  8
0
100
AcDbLine
 62
7
  6
CONTINUOUS
 10
5.1728639473
 20
3.080830815
 30
0.0
 11
5.1728465934
 21
3.080362789
 31
0.0
  0
LINE
  5
276
100
AcDbEntity
  8
0
100
AcDbLine
 62
7
  6
CONTINUOUS
 10
5.2006935019
 20
3.5871761993
 30
0.0
 11
5.2007622424
 21
3.5876220765
 31
0.0
  0
LINE
  5
277
100
AcDbEntity
  8
0
100
AcDbLine
 62
7
  6
CONTINUOUS
 10
5.1507594638
 20
3.328091615
 30
0.0
 11
5.1506541763
 21
3.327636742
 31
0.0
  0
LINE
  5
278
100
AcDbEntity
  8
0
100
AcDbLine
 62
7
  6
CONTINUOUS
 10
4.8351359809
 20
4.0888801098
 30
0.0
 11
5.8272599809
 21
4.0888801098
 31
0.0
  0
LINE
  5
279
100
AcDbEntity
  8
0
100
AcDbLine
 62
7
  6
CONTINUOUS
 10
5.411482043
 20
3.6174686421
 30
0.0
 11
5.4112839722
 21
3.6178905317
 31
0.0
  0
LINE
  5
27A
100
AcDbEntity
  8
0
100
AcDbLine
 62
7
  6
CONTINUOUS
 10
5.5202891323
 20
3.1307654267
 30
0.0
 11
5.5204321995
 21
3.1303380545
 31
0.0
  0
LINE
  5
27B
100
AcDbEntity
  8
0
100
AcDbLine
 62
7
  6
CONTINUOUS
 10
5.5202833924
 20
3.345695959
 30
0.0
 11
5.5204321995
 21
3.3452514403
 31
0.0
  0
LINE
  5
27C
100
AcDbEntity
  8
0
100
AcDbLine
 62
7
  6
CONTINUOUS
 10
5.4459503836
 20
3.5988530598
 30
0.0
 11
5.4458378494
 21
3.5992964665
 31
0.0
  0
LINE
  5
27D
100
AcDbEntity
  8
0
100
AcDbLine
 62
7
  6
CONTINUOUS
 10
5.3018241983
 20
3.6319603577
 30
0.0
 11
5.3018687425
 21
3.6316506308
 31
0.0
  0
LINE
  5
27E
100
AcDbEntity
  8
0
100
AcDbLine
 62
7
  6
CONTINUOUS
 10
5.4762746634
 20
3.5740469485
 30
0.0
 11
5.4762483431
 21
3.5744990561
 31
0.0
  0
LINE
  5
27F
100
AcDbEntity
  8
0
100
AcDbLine
 62
7
  6
CONTINUOUS
 10
5.4421979809
 20
3.9076612121
 30
0.0
 11
5.4421979809
 21
3.8776612121
 31
0.0
  0
LINE
  5
280
100
AcDbEntity
  8
0
100
AcDbLine
 62
7
  6
CONTINUOUS
 10
5.4961979809
 20
3.8776612121
 30
0.0
 11
5.4961979809
 21
3.5516557225
 31
0.0
  0
LINE
  5
281
100
AcDbEntity
  8
0
100
AcDbLine
 62
7
  6
CONTINUOUS
 10
5.3410188883
 20
3.6338274309
 30
0.0
 11
5.3410039675
 21
3.6335139498
 31
0.0
  0
LINE
  5
282
100
AcDbEntity
  8
0
100
AcDbLine
 62
7
  6
CONTINUOUS
 10
5.3018241983
 20
3.2233620665
 30
0.0
 11
5.3018687186
 21
3.2236717969
 31
0.0
  0
LINE
  5
283
100
AcDbEntity
  8
0
100
AcDbLine
 62
7
  6
CONTINUOUS
 10
5.3018241983
 20
3.0084486807
 30
0.0
 11
5.3018683884
 21
3.008756114
 31
0.0
  0
LINE
  5
284
100
AcDbEntity
  8
0
100
AcDbLine
 62
7
  6
CONTINUOUS
 10
5.1507575952
 20
3.1131701707
 30
0.0
 11
5.1506541763
 21
3.1127233562
 31
0.0
  0
LINE
  5
285
100
AcDbEntity
  8
0
100
AcDbLine
 62
7
  6
CONTINUOUS
 10
5.3798586252
 20
3.6282431198
 30
0.0
 11
5.3797852995
 21
3.6279408167
 31
0.0
  0
LINE
  5
286
100
AcDbEntity
  8
0
100
AcDbLine
 62
7
  6
CONTINUOUS
 10
5.2332364941
 20
3.6089810523
 30
0.0
 11
5.2333921787
 21
3.6094165011
 31
0.0
  0
LINE
  5
287
100
AcDbEntity
  8
0
100
AcDbLine
 62
7
  6
CONTINUOUS
 10
5.1351775045
 20
3.3640413224
 30
0.0
 11
5.1349870826
 21
3.3636124542
 31
0.0
  0
LINE
  5
288
100
AcDbEntity
  8
0
100
AcDbLine
 62
7
  6
CONTINUOUS
 10
5.2693187901
 20
3.6242386217
 30
0.0
 11
5.2695570716
 21
3.624641816
 31
0.0
  0
LINE
  5
289
100
AcDbEntity
  8
0
100
AcDbLine
 62
7
  6
CONTINUOUS
 10
5.5013546996
 20
3.0964764963
 30
0.0
 11
5.5014163388
 21
3.0960144951
 31
0.0
  0
LINE
  5
28A
100
AcDbEntity
  8
0
100
AcDbLine
 62
7
  6
CONTINUOUS
 10
5.5013550249
 20
3.311387444
 30
0.0
 11
5.5014163388
 21
3.3109278809
 31
0.0
  0
LINE
  5
28B
100
AcDbEntity
  8
0
100
AcDbLine
 62
7
  6
CONTINUOUS
 10
5.4762744888
 20
3.2812754858
 30
0.0
 11
5.4762483431
 21
3.2808233682
 31
0.0
  0
LINE
  5
28C
100
AcDbEntity
  8
0
100
AcDbLine
 62
7
  6
CONTINUOUS
 10
5.476275207
 20
3.0663745188
 30
0.0
 11
5.4762483431
 21
3.0659099824
 31
0.0
  0
LINE
  5
28D
100
AcDbEntity
  8
0
100
AcDbLine
 62
7
  6
CONTINUOUS
 10
5.5013551981
 20
3.5439349571
 30
0.0
 11
5.5014163388
 21
3.5443945434
 31
0.0
  0
LINE
  5
28E
100
AcDbEntity
  8
0
100
AcDbLine
 62
7
  6
CONTINUOUS
 10
5.4459502141
 20
3.2564694074
 30
0.0
 11
5.4458378495
 21
3.2560259578
 31
0.0
  0
LINE
  5
28F
100
AcDbEntity
  8
0
100
AcDbLine
 62
7
  6
CONTINUOUS
 10
5.2636911533
 20
3.2326130432
 30
0.0
 11
5.2637919777
 21
3.2329043924
 31
0.0
  0
LINE
  5
290
100
AcDbEntity
  8
0
100
AcDbLine
 62
7
  6
CONTINUOUS
 10
5.2636911533
 20
3.0176996573
 30
0.0
 11
5.2637933043
 21
3.0179948401
 31
0.0
  0
LINE
  5
291
100
AcDbEntity
  8
0
100
AcDbLine
 62
7
  6
CONTINUOUS
 10
5.1351744772
 20
3.1491211258
 30
0.0
 11
5.1349870826
 21
3.1486990684
 31
0.0
  0
LINE
  5
292
100
AcDbEntity
  8
0
100
AcDbLine
 62
7
  6
CONTINUOUS
 10
5.4169396396
 20
3.615409256
 30
0.0
 11
5.4168131098
 21
3.6151321662
 31
0.0
  0
LINE
  5
293
100
AcDbEntity
  8
0
100
AcDbLine
 62
7
  6
CONTINUOUS
 10
5.2279979809
 20
3.2489135688
 30
0.0
 11
5.228147971
 21
3.2491733823
 31
0.0
  0
LINE
  5
294
100
AcDbEntity
  8
0
100
AcDbLine
 62
7
  6
CONTINUOUS
 10
5.1266778937
 20
3.4022855345
 30
0.0
 11
5.126411562
 21
3.4019030553
 31
0.0
  0
LINE
  5
295
100
AcDbEntity
  8
0
100
AcDbLine
 62
7
  6
CONTINUOUS
 10
5.1266789263
 20
3.1873736304
 30
0.0
 11
5.126411562
 21
3.1869896695
 31
0.0
  0
LINE
  5
296
100
AcDbEntity
  8
0
100
AcDbLine
 62
7
  6
CONTINUOUS
 10
5.3076392666
 20
3.6323966085
 30
0.0
 11
5.3079498275
 21
3.6327477387
 31
0.0
  0
LINE
  5
297
100
AcDbEntity
  8
0
100
AcDbLine
 62
7
  6
CONTINUOUS
 10
5.1255652905
 20
3.4414437842
 30
0.0
 11
5.1252375561
 21
3.4411246234
 31
0.0
  0
LINE
  5
298
100
AcDbEntity
  8
0
100
AcDbLine
 62
7
  6
CONTINUOUS
 10
5.2503690093
 20
3.6185841294
 30
0.0
 11
5.2505226701
 21
3.6186985922
 31
0.0
  0
LINE
  5
299
100
AcDbEntity
  8
0
100
AcDbLine
 62
7
  6
CONTINUOUS
 10
5.2503686733
 20
3.6185847285
 30
0.0
 11
5.250523978
 21
3.6186977535
 31
0.0
  0
LINE
  5
29A
100
AcDbEntity
  8
0
100
AcDbLine
 62
7
  6
CONTINUOUS
 10
5.7196979809
 20
4.0888801098
 30
0.0
 11
5.7196979809
 21
3.9076612121
 31
0.0
  0
LINE
  5
29B
100
AcDbEntity
  8
0
100
AcDbLine
 62
7
  6
CONTINUOUS
 10
5.7241979809
 20
3.6927478263
 30
0.0
 11
5.7241979809
 21
3.8427478263
 31
0.0
  0
LINE
  5
29C
100
AcDbEntity
  8
0
100
AcDbLine
 62
7
  6
CONTINUOUS
 10
5.827260973
 20
3.8427478263
 30
0.0
 11
5.8272599809
 21
4.8760801098
 31
0.0
  0
LINE
  5
29D
100
AcDbEntity
  8
0
100
AcDbLine
 62
7
  6
CONTINUOUS
 10
5.4459491076
 20
3.0415516546
 30
0.0
 11
5.4458378495
 21
3.041112572
 31
0.0
  0
LINE
  5
29E
100
AcDbEntity
  8
0
100
AcDbLine
 62
7
  6
CONTINUOUS
 10
5.520283558
 20
3.5096264098
 30
0.0
 11
5.5204321996
 21
3.510070984
 31
0.0
  0
LINE
  5
29F
100
AcDbEntity
  8
0
100
AcDbLine
 62
7
  6
CONTINUOUS
 10
5.5202892982
 20
3.2947301704
 30
0.0
 11
5.5204321996
 21
3.2951575982
 31
0.0
  0
LINE
  5
2A0
100
AcDbEntity
  8
0
100
AcDbLine
 62
7
  6
CONTINUOUS
 10
5.4114818848
 20
3.2378538564
 30
0.0
 11
5.4112839722
 21
3.2374318926
 31
0.0
  0
LINE
  5
2A1
100
AcDbEntity
  8
0
100
AcDbLine
 62
7
  6
CONTINUOUS
 10
5.532378759
 20
3.47236088
 30
0.0
 11
5.5326086426
 21
3.4727689207
 31
0.0
  0
LINE
  5
2A2
100
AcDbEntity
  8
0
100
AcDbLine
 62
7
  6
CONTINUOUS
 10
5.2279979809
 20
3.034000183
 30
0.0
 11
5.228147971
 21
3.0342599965
 31
0.0
  0
LINE
  5
2A3
100
AcDbEntity
  8
0
100
AcDbLine
 62
7
  6
CONTINUOUS
 10
5.450921727
 20
3.5957896886
 30
0.0
 11
5.4507450441
 21
3.595541552
 31
0.0
  0
LINE
  5
2A4
100
AcDbEntity
  8
0
100
AcDbLine
 62
7
  6
CONTINUOUS
 10
5.1960347254
 20
3.2716745
 30
0.0
 11
5.1962366112
 21
3.2719075068
 31
0.0
  0
LINE
  5
2A5
100
AcDbEntity
  8
0
100
AcDbLine
 62
7
  6
CONTINUOUS
 10
5.1255620619
 20
3.2265272567
 30
0.0
 11
5.1252375561
 21
3.2262112376
 31
0.0
  0
LINE
  5
2A6
100
AcDbEntity
  8
0
100
AcDbLine
 62
7
  6
CONTINUOUS
 10
5.4805766864
 20
3.5700935201
 30
0.0
 11
5.4803515634
 21
3.5698788492
 31
0.0
  0
LINE
  5
2A7
100
AcDbEntity
  8
0
100
AcDbLine
 62
7
  6
CONTINUOUS
 10
5.3468154959
 20
3.6331584189
 30
0.0
 11
5.3471828322
 21
3.6334412999
 31
0.0
  0
LINE
  5
2A8
100
AcDbEntity
  8
0
100
AcDbLine
 62
7
  6
CONTINUOUS
 10
5.1318858732
 20
3.4801084365
 30
0.0
 11
5.1315074966
 21
3.4798595887
 31
0.0
  0
LINE
  5
2A9
100
AcDbEntity
  8
0
100
AcDbLine
 62
7
  6
CONTINUOUS
 10
5.3854334847
 20
3.6264940166
 30
0.0
 11
5.3858381028
 21
3.6266974326
 31
0.0
  0
LINE
  5
2AA
100
AcDbEntity
  8
0
100
AcDbLine
 62
7
  6
CONTINUOUS
 10
5.1454233553
 20
3.5168848124
 30
0.0
 11
5.1449947716
 21
3.5167079687
 31
0.0
  0
LINE
  5
2AB
100
AcDbEntity
  8
0
100
AcDbLine
 62
7
  6
CONTINUOUS
 10
5.4114826517
 20
3.0229421057
 30
0.0
 11
5.4112839722
 21
3.0225185068
 31
0.0
  0
LINE
  5
2AC
100
AcDbEntity
  8
0
100
AcDbLine
 62
7
  6
CONTINUOUS
 10
5.5323791744
 20
3.2574482308
 30
0.0
 11
5.5326086426
 21
3.2578555349
 31
0.0
  0
LINE
  5
2AD
100
AcDbEntity
  8
0
100
AcDbLine
 62
7
  6
CONTINUOUS
 10
5.3741116371
 20
3.2260926578
 30
0.0
 11
5.3738355786
 21
3.2257132108
 31
0.0
  0
LINE
  5
2AE
100
AcDbEntity
  8
0
100
AcDbLine
 62
7
  6
CONTINUOUS
 10
5.5372064453
 20
3.433483883
 30
0.0
 11
5.5375055795
 21
3.4338365473
 31
0.0
  0
LINE
  5
2AF
100
AcDbEntity
  8
0
100
AcDbLine
 62
7
  6
CONTINUOUS
 10
5.1960347254
 20
3.0567611142
 30
0.0
 11
5.1962392675
 21
3.0569971867
 31
0.0
  0
LINE
  5
2B0
100
AcDbEntity
  8
0
100
AcDbLine
 62
7
  6
CONTINUOUS
 10
5.3351873195
 20
3.2216122016
 30
0.0
 11
5.3348461511
 21
3.2212934558
 31
0.0
  0
LINE
  5
2B1
100
AcDbEntity
  8
0
100
AcDbLine
 62
7
  6
CONTINUOUS
 10
5.1689566221
 20
3.3000731974
 30
0.0
 11
5.1692025815
 21
3.3002666373
 31
0.0
  0
LINE
  5
2B2
100
AcDbEntity
  8
0
100
AcDbLine
 62
7
  6
CONTINUOUS
 10
5.1318962692
 20
3.2652018819
 30
0.0
 11
5.1315074966
 21
3.2649462029
 31
0.0
  0
LINE
  5
2B3
100
AcDbEntity
  8
0
100
AcDbLine
 62
7
  6
CONTINUOUS
 10
5.5048327101
 20
3.5392494769
 30
0.0
 11
5.5045687009
 21
3.5390797941
 31
0.0
  0
LINE
  5
2B4
100
AcDbEntity
  8
0
100
AcDbLine
 62
7
  6
CONTINUOUS
 10
5.1477423443
 20
3.333083258
 30
0.0
 11
5.1480212873
 21
3.3332270768
 31
0.0
  0
LINE
  5
2B5
100
AcDbEntity
  8
0
100
AcDbLine
 62
7
  6
CONTINUOUS
 10
5.1454256294
 20
3.3019723639
 30
0.0
 11
5.1449947716
 21
3.3017945828
 31
0.0
  0
LINE
  5
2B6
100
AcDbEntity
  8
0
100
AcDbLine
 62
7
  6
CONTINUOUS
 10
5.5228131223
 20
3.504372343
 30
0.0
 11
5.5225226278
 21
3.5042560336
 31
0.0
  0
LINE
  5
2B7
100
AcDbEntity
  8
0
100
AcDbLine
 62
7
  6
CONTINUOUS
 10
5.1331586311
 20
3.3695116124
 30
0.0
 11
5.1334570962
 21
3.3695992621
 31
0.0
  0
LINE
  5
2B8
100
AcDbEntity
  8
0
100
AcDbLine
 62
7
  6
CONTINUOUS
 10
5.3741072524
 20
3.011173245
 30
0.0
 11
5.3738355786
 21
3.0107998249
 31
0.0
  0
LINE
  5
2B9
100
AcDbEntity
  8
0
100
AcDbLine
 62
7
  6
CONTINUOUS
 10
5.5372060793
 20
3.2185700659
 30
0.0
 11
5.5375055795
 21
3.2189231615
 31
0.0
  0
LINE
  5
2BA
100
AcDbEntity
  8
0
100
AcDbLine
 62
7
  6
CONTINUOUS
 10
5.3351812749
 20
3.0066931684
 30
0.0
 11
5.3348461511
 21
3.00638007
 31
0.0
  0
LINE
  5
2BB
100
AcDbEntity
  8
0
100
AcDbLine
 62
7
  6
CONTINUOUS
 10
5.534594361
 20
3.3943983752
 30
0.0
 11
5.5349460223
 21
3.3946809812
 31
0.0
  0
LINE
  5
2BC
100
AcDbEntity
  8
0
100
AcDbLine
 62
7
  6
CONTINUOUS
 10
5.1689566221
 20
3.0851598116
 30
0.0
 11
5.1692007572
 21
3.0853518167
 31
0.0
  0
LINE
  5
2BD
100
AcDbEntity
  8
0
100
AcDbLine
 62
7
  6
CONTINUOUS
 10
5.2961134761
 20
3.224576566
 30
0.0
 11
5.2957248692
 21
3.2243323692
 31
0.0
  0
LINE
  5
2BE
100
AcDbEntity
  8
0
100
AcDbLine
 62
7
  6
CONTINUOUS
 10
5.5246167777
 20
3.3565028069
 30
0.0
 11
5.52502248
 21
3.3567174066
 31
0.0
  0
LINE
  5
2BF
100
AcDbEntity
  8
0
100
AcDbLine
 62
7
  6
CONTINUOUS
 10
5.1477423443
 20
3.1181698722
 30
0.0
 11
5.1480129128
 21
3.1183093732
 31
0.0
  0
LINE
  5
2C0
100
AcDbEntity
  8
0
100
AcDbLine
 62
7
  6
CONTINUOUS
 10
5.5228131223
 20
3.2894589572
 30
0.0
 11
5.5225247821
 21
3.2893435103
 31
0.0
  0
LINE
  5
2C1
100
AcDbEntity
  8
0
100
AcDbLine
 62
7
  6
CONTINUOUS
 10
5.2583061893
 20
3.2348835245
 30
0.0
 11
5.257885678
 21
3.2347201168
 31
0.0
  0
LINE
  5
2C2
100
AcDbEntity
  8
0
100
AcDbLine
 62
7
  6
CONTINUOUS
 10
5.50764704
 20
3.3211816711
 30
0.0
 11
5.5080936153
 21
3.3213179259
 31
0.0
  0
LINE
  5
2C3
100
AcDbEntity
  8
0
100
AcDbLine
 62
7
  6
CONTINUOUS
 10
7.4281979809
 20
4.8760801098
 30
0.0
 11
3.2341979809
 21
4.8760801098
 31
0.0
  0
LINE
  5
2C4
100
AcDbEntity
  8
0
100
AcDbLine
 62
7
  6
CONTINUOUS
 10
5.5345898613
 20
3.1794813761
 30
0.0
 11
5.5349460223
 21
3.1797675954
 31
0.0
  0
LINE
  5
2C5
100
AcDbEntity
  8
0
100
AcDbLine
 62
7
  6
CONTINUOUS
 10
5.2961214218
 20
3.0096681732
 30
0.0
 11
5.2957248692
 21
3.0094189834
 31
0.0
  0
LINE
  5
2C6
100
AcDbEntity
  8
0
100
AcDbLine
 62
7
  6
CONTINUOUS
 10
5.5246084806
 20
3.1415850366
 30
0.0
 11
5.52502248
 21
3.1418040207
 31
0.0
  0
LINE
  5
2C7
100
AcDbEntity
  8
0
100
AcDbLine
 62
7
  6
CONTINUOUS
 10
5.2583115683
 20
3.0199722289
 30
0.0
 11
5.257885678
 21
3.019806731
 31
0.0
  0
LINE
  5
2C8
100
AcDbEntity
  8
0
100
AcDbLine
 62
7
  6
CONTINUOUS
 10
5.1331586311
 20
3.1545982266
 30
0.0
 11
5.1334591803
 21
3.1546864883
 31
0.0
  0
LINE
  5
2C9
100
AcDbEntity
  8
0
100
AcDbLine
 62
7
  6
CONTINUOUS
 10
7.4581979809
 20
4.9060801098
 30
0.0
 11
3.2041979809
 21
4.9060801098
 31
0.0
  0
LINE
  5
2CA
100
AcDbEntity
  8
0
100
AcDbLine
 62
7
  6
CONTINUOUS
 10
5.5076549531
 20
3.1062706963
 30
0.0
 11
5.5080936153
 21
3.1064045401
 31
0.0
  0
LINE
  5
2CB
100
AcDbEntity
  8
0
100
AcDbLine
 62
7
  6
CONTINUOUS
 10
7.4581979809
 20
5.1388801098
 30
0.0
 11
3.2041979809
 21
5.1388801098
 31
0.0
  0
LINE
  5
2CC
100
AcDbEntity
  8
0
100
AcDbLine
 62
7
  6
CONTINUOUS
 10
7.4581979809
 20
5.1388801098
 30
0.0
 11
7.4581979809
 21
4.9060801098
 31
0.0
  0
ARC
  5
2CD
100
AcDbEntity
  8
0
100
AcDbCircle
 62
7
  6
CONTINUOUS
 10
5.3156733617
 20
3.4893996545
 30
0.0
 40
0.1611602802
100
AcDbArc
 50
51.9132443149
 51
53.2819176143
  0
ARC
  5
2CE
100
AcDbEntity
  8
0
100
AcDbCircle
 62
7
  6
CONTINUOUS
 10
3.2341979809
 20
4.9060801098
 30
0.0
 40
0.03
100
AcDbArc
 50
180.0
 51
270.0
  0
ARC
  5
2CF
100
AcDbEntity
  8
0
100
AcDbCircle
 62
7
  6
CONTINUOUS
 10
5.3311979809
 20
3.2127478263
 30
0.0
 40
0.2064
100
AcDbArc
 50
148.625274519
 51
31.3742594701
  0
ARC
  5
2D0
100
AcDbEntity
  8
0
100
AcDbCircle
 62
7
  6
CONTINUOUS
 10
5.3311979809
 20
3.2127478263
 30
0.0
 40
0.2061
100
AcDbArc
 50
148.6679445436
 51
31.3311039679
  0
ARC
  5
2D1
100
AcDbEntity
  8
0
100
AcDbCircle
 62
7
  6
CONTINUOUS
 10
5.3311979809
 20
3.2127478263
 30
0.0
 40
0.1881
100
AcDbArc
 50
151.1866369536
 51
28.8133629231
  0
CIRCLE
  5
2D2
100
AcDbEntity
  8
0
100
AcDbCircle
 62
7
  6
CONTINUOUS
 10
5.3311979809
 20
3.4276612121
 30
0.0
 40
0.2064
  0
CIRCLE
  5
2D3
100
AcDbEntity
  8
0
100
AcDbCircle
 62
7
  6
CONTINUOUS
 10
5.3311979809
 20
3.4276612121
 30
0.0
 40
0.2061
  0
CIRCLE
  5
2D4
100
AcDbEntity
  8
0
100
AcDbCircle
 62
7
  6
CONTINUOUS
 10
5.3311979809
 20
3.4276612121
 30
0.0
 40
0.1881
  0
ARC
  5
2D5
100
AcDbEntity
  8
0
100
AcDbCircle
 62
7
  6
CONTINUOUS
 10
5.3470343926
 20
3.4889929511
 30
0.0
 40
0.1616727245
100
AcDbArc
 50
126.7202014904
 51
128.0876256189
  0
ARC
  5
2D6
100
AcDbEntity
  8
0
100
AcDbCircle
 62
7
  6
CONTINUOUS
 10
7.4281979809
 20
4.9060801098
 30
0.0
 40
0.03
100
AcDbArc
 50
270.0
 51
360.0
  0
LINE
  5
2D7
100
AcDbEntity
  8
0
100
AcDbLine
 62
7
  6
CONTINUOUS
 10
5.1898926319
 20
3.2772160116
 30
0.0
 11
5.189221032
 21
3.2782711067
 31
0.0
  0
LINE
  5
2D8
100
AcDbEntity
  8
0
100
AcDbLine
 62
7
  6
CONTINUOUS
 10
5.1752314299
 20
3.2929510178
 30
0.0
 11
5.1741996045
 21
3.2936743851
 31
0.0
  0
LINE
  5
2D9
100
AcDbEntity
  8
0
100
AcDbLine
 62
7
  6
CONTINUOUS
 10
5.1639742623
 20
3.3066769655
 30
0.0
 11
5.163514535
 21
3.3078490809
 31
0.0
  0
LINE
  5
2DA
100
AcDbEntity
  8
0
100
AcDbLine
 62
7
  6
CONTINUOUS
 10
5.152556582
 20
3.3249019582
 30
0.0
 11
5.151679596
 21
3.3258078397
 31
0.0
  0
LINE
  5
2DB
100
AcDbEntity
  8
0
100
AcDbLine
 62
7
  6
CONTINUOUS
 10
5.1440997935
 20
3.3405106053
 30
0.0
 11
5.1438706697
 21
3.3417508473
 31
0.0
  0
LINE
  5
2DC
100
AcDbEntity
  8
0
100
AcDbLine
 62
7
  6
CONTINUOUS
 10
5.1363329142
 20
3.3605702924
 30
0.0
 11
5.1356478496
 21
3.3616225405
 31
0.0
  0
LINE
  5
2DD
100
AcDbEntity
  8
0
100
AcDbLine
 62
7
  6
CONTINUOUS
 10
5.1309875407
 20
3.3774940951
 30
0.0
 11
5.1309957717
 21
3.3787516444
 31
0.0
  0
LINE
  5
2DE
100
AcDbEntity
  8
0
100
AcDbLine
 62
7
  6
CONTINUOUS
 10
5.1271488981
 20
3.3986699886
 30
0.0
 11
5.1266837944
 21
3.3998240511
 31
0.0
  0
LINE
  5
2DF
100
AcDbEntity
  8
0
100
AcDbLine
 62
7
  6
CONTINUOUS
 10
5.1251114148
 20
3.4162907552
 30
0.0
 11
5.1253519339
 21
3.4175154624
 31
0.0
  0
LINE
  5
2E0
100
AcDbEntity
  8
0
100
AcDbLine
 62
7
  6
CONTINUOUS
 10
5.1253519326
 20
3.4378069638
 30
0.0
 11
5.1251114148
 21
3.4390316691
 31
0.0
  0
LINE
  5
2E1
100
AcDbEntity
  8
0
100
AcDbLine
 62
7
  6
CONTINUOUS
 10
5.1266837944
 20
3.4554983732
 30
0.0
 11
5.1271488989
 21
3.4566524364
 31
0.0
  0
LINE
  5
2E2
100
AcDbEntity
  8
0
100
AcDbLine
 62
7
  6
CONTINUOUS
 10
5.1309957697
 20
3.4765707848
 30
0.0
 11
5.1309875407
 21
3.4778283292
 31
0.0
  0
LINE
  5
2E3
100
AcDbEntity
  8
0
100
AcDbLine
 62
7
  6
CONTINUOUS
 10
5.1356478496
 20
3.4936998837
 30
0.0
 11
5.1363329181
 21
3.4947521346
 31
0.0
  0
LINE
  5
2E4
100
AcDbEntity
  8
0
100
AcDbLine
 62
7
  6
CONTINUOUS
 10
5.1438706684
 20
3.5135715833
 30
0.0
 11
5.1440997935
 21
3.514811819
 31
0.0
  0
LINE
  5
2E5
100
AcDbEntity
  8
0
100
AcDbLine
 62
7
  6
CONTINUOUS
 10
5.151679596
 20
3.5295145846
 30
0.0
 11
5.1525565878
 21
3.5304204686
 31
0.0
  0
LINE
  5
2E6
100
AcDbEntity
  8
0
100
AcDbLine
 62
7
  6
CONTINUOUS
 10
5.1635145344
 20
3.5474734185
 30
0.0
 11
5.1639742623
 21
3.5486454588
 31
0.0
  0
LINE
  5
2E7
100
AcDbEntity
  8
0
100
AcDbLine
 62
7
  6
CONTINUOUS
 10
5.1741996045
 20
3.5616480392
 30
0.0
 11
5.1752314358
 21
3.5623714078
 31
0.0
  0
LINE
  5
2E8
100
AcDbEntity
  8
0
100
AcDbLine
 62
7
  6
CONTINUOUS
 10
5.1892210326
 20
3.5770513207
 30
0.0
 11
5.1898926319
 21
3.5781064127
 31
0.0
  0
LINE
  5
2E9
100
AcDbEntity
  8
0
100
AcDbLine
 62
7
  6
CONTINUOUS
 10
5.2023939435
 20
3.5889388608
 30
0.0
 11
5.203536949
 21
3.5894536033
 31
0.0
  0
LINE
  5
2EA
100
AcDbEntity
  8
0
100
AcDbLine
 62
7
  6
CONTINUOUS
 10
5.2200628229
 20
3.60123045
 30
0.0
 11
5.2209181451
 21
3.602129885
 31
0.0
  0
LINE
  5
2EB
100
AcDbEntity
  8
0
100
AcDbLine
 62
7
  6
CONTINUOUS
 10
5.2352435959
 20
3.6104006879
 30
0.0
 11
5.2364501907
 21
3.6106917011
 31
0.0
  0
LINE
  5
2EC
100
AcDbEntity
  8
0
100
AcDbLine
 62
7
  6
CONTINUOUS
 10
5.2549121781
 20
3.6191151078
 30
0.0
 11
5.2559294588
 21
3.619847605
 31
0.0
  0
LINE
  5
2ED
100
AcDbEntity
  8
0
100
AcDbLine
 62
7
  6
CONTINUOUS
 10
5.2715612898
 20
3.6252578343
 30
0.0
 11
5.2728108289
 21
3.6253119094
 31
0.0
  0
LINE
  5
2EE
100
AcDbEntity
  8
0
100
AcDbLine
 62
7
  6
CONTINUOUS
 10
5.292518806
 20
3.6300873046
 30
0.0
 11
5.2936611731
 21
3.6306192079
 31
0.0
  0
LINE
  5
2EF
100
AcDbEntity
  8
0
100
AcDbLine
 62
7
  6
CONTINUOUS
 10
5.3100344092
 20
3.6329733239
 30
0.0
 11
5.3112792918
 21
3.6327854386
 31
0.0
  0
LINE
  5
2F0
100
AcDbEntity
  8
0
100
AcDbLine
 62
7
  6
CONTINUOUS
 10
5.3315265559
 20
3.6337488287
 30
0.0
 11
5.3327495653
 21
3.6340553801
 31
0.0
  0
LINE
  5
2F1
100
AcDbEntity
  8
0
100
AcDbLine
 62
7
  6
CONTINUOUS
 10
5.3492724351
 20
3.6332682988
 30
0.0
 11
5.3504610781
 21
3.6328466048
 31
0.0
  0
LINE
  5
2F2
100
AcDbEntity
  8
0
100
AcDbLine
 62
7
  6
CONTINUOUS
 10
5.3705280733
 20
3.62996477
 30
0.0
 11
5.3717818793
 21
3.6300319294
 31
0.0
  0
LINE
  5
2F3
100
AcDbEntity
  8
0
100
AcDbLine
 62
7
  6
CONTINUOUS
 10
5.3878572032
 20
3.626132098
 30
0.0
 11
5.3889421573
 21
3.6254961951
 31
0.0
  0
LINE
  5
2F4
100
AcDbEntity
  8
0
100
AcDbLine
 62
7
  6
CONTINUOUS
 10
5.4081153862
 20
3.6188685132
 30
0.0
 11
5.4093473855
 21
3.6186942736
 31
0.0
  0
LINE
  5
2F5
100
AcDbEntity
  8
0
100
AcDbLine
 62
7
  6
CONTINUOUS
 10
5.4243941593
 20
3.6118226422
 30
0.0
 11
5.4253345273
 21
3.611001993
 31
0.0
  0
LINE
  5
2F6
100
AcDbEntity
  8
0
100
AcDbLine
 62
7
  6
CONTINUOUS
 10
5.4429074837
 20
3.6008562434
 30
0.0
 11
5.4440883685
 21
3.6004521852
 31
0.0
  0
LINE
  5
2F7
100
AcDbEntity
  8
0
100
AcDbLine
 62
7
  6
CONTINUOUS
 10
5.4575627628
 20
3.5908571125
 30
0.0
 11
5.4583296586
 21
3.5898772886
 31
0.0
  0
LINE
  5
2F8
100
AcDbEntity
  8
0
100
AcDbLine
 62
7
  6
CONTINUOUS
 10
5.4736560189
 20
3.5765866266
 30
0.0
 11
5.4747491988
 21
3.5759649809
 31
0.0
  0
LINE
  5
2F9
100
AcDbEntity
  8
0
100
AcDbLine
 62
7
  6
CONTINUOUS
 10
5.4861642138
 20
3.5639932578
 30
0.0
 11
5.4867329555
 21
3.5628738456
 31
0.0
  0
LINE
  5
2FA
100
AcDbEntity
  8
0
100
AcDbLine
 62
7
  6
CONTINUOUS
 10
5.4992622061
 20
3.5469362363
 30
0.0
 11
5.5002217141
 21
3.546117692
 31
0.0
  0
LINE
  5
2FB
100
AcDbEntity
  8
0
100
AcDbLine
 62
7
  6
CONTINUOUS
 10
5.5091647813
 20
3.5322020077
 30
0.0
 11
5.509510804
 21
3.5309895684
 31
0.0
  0
LINE
  5
2FC
100
AcDbEntity
  8
0
100
AcDbLine
 62
7
  6
CONTINUOUS
 10
5.5188001216
 20
3.5129732318
 30
0.0
 11
5.5195852712
 21
3.5119890773
 31
0.0
  0
LINE
  5
2FD
100
AcDbEntity
  8
0
100
AcDbLine
 62
7
  6
CONTINUOUS
 10
5.5257331651
 20
3.4966323809
 30
0.0
 11
5.525843705
 21
3.4953771045
 31
0.0
  0
LINE
  5
2FE
100
AcDbEntity
  8
0
100
AcDbLine
 62
7
  6
CONTINUOUS
 10
5.5315620842
 20
3.4759218018
 30
0.0
 11
5.5321400209
 21
3.4748126338
 31
0.0
  0
LINE
  5
2FF
100
AcDbEntity
  8
0
100
AcDbLine
 62
7
  6
CONTINUOUS
 10
5.5352705404
 20
3.4585699563
 30
0.0
 11
5.5351448177
 21
3.4573227133
 31
0.0
  0
LINE
  5
300
100
AcDbEntity
  8
0
100
AcDbLine
 62
7
  6
CONTINUOUS
 10
5.5370809292
 20
3.4371224633
 30
0.0
 11
5.5374322017
 21
3.435932015
 31
0.0
  0
LINE
  5
301
100
AcDbEntity
  8
0
100
AcDbLine
 62
7
  6
CONTINUOUS
 10
5.5374322017
 20
3.2044770234
 30
0.0
 11
5.5370815564
 21
3.2032873835
 31
0.0
  0
LINE
  5
302
100
AcDbEntity
  8
0
100
AcDbLine
 62
7
  6
CONTINUOUS
 10
5.5351424892
 20
3.1830907613
 30
0.0
 11
5.5352705404
 21
3.1818390821
 31
0.0
  0
LINE
  5
303
100
AcDbEntity
  8
0
100
AcDbLine
 62
7
  6
CONTINUOUS
 10
5.5321400209
 20
3.1655964047
 30
0.0
 11
5.5315551632
 21
3.164481318
 31
0.0
  0
LINE
  5
304
100
AcDbEntity
  8
0
100
AcDbLine
 62
7
  6
CONTINUOUS
 10
5.5258448081
 20
3.1450283076
 30
0.0
 11
5.5257331651
 21
3.1437766576
 31
0.0
  0
LINE
  5
305
100
AcDbEntity
  8
0
100
AcDbLine
 62
7
  6
CONTINUOUS
 10
5.5195852712
 20
3.1284199612
 30
0.0
 11
5.5188037606
 21
3.1274378669
 31
0.0
  0
LINE
  5
306
100
AcDbEntity
  8
0
100
AcDbLine
 62
7
  6
CONTINUOUS
 10
5.5095125368
 20
3.1094021521
 30
0.0
 11
5.5091647813
 21
3.1082070307
 31
0.0
  0
LINE
  5
307
100
AcDbEntity
  8
0
100
AcDbLine
 62
7
  6
CONTINUOUS
 10
5.5002217141
 20
3.0942913464
 30
0.0
 11
5.4992764866
 21
3.0934776512
 31
0.0
  0
LINE
  5
308
100
AcDbEntity
  8
0
100
AcDbLine
 62
7
  6
CONTINUOUS
 10
5.4867333566
 20
3.0775398415
 30
0.0
 11
5.4861642138
 21
3.0764157807
 31
0.0
  0
LINE
  5
309
100
AcDbEntity
  8
0
100
AcDbLine
 62
7
  6
CONTINUOUS
 10
5.4747491988
 20
3.0644440575
 30
0.0
 11
5.4736531467
 21
3.0638220287
 31
0.0
  0
LINE
  5
30A
100
AcDbEntity
  8
0
100
AcDbLine
 62
7
  6
CONTINUOUS
 10
5.4583321928
 20
3.0505403981
 30
0.0
 11
5.4575627628
 21
3.0495519259
 31
0.0
  0
LINE
  5
30B
100
AcDbEntity
  8
0
100
AcDbLine
 62
7
  6
CONTINUOUS
 10
5.4440883685
 20
3.0399568532
 30
0.0
 11
5.4429048109
 21
3.0395529261
 31
0.0
  0
LINE
  5
30C
100
AcDbEntity
  8
0
100
AcDbLine
 62
7
  6
CONTINUOUS
 10
5.4253357479
 20
3.029409421
 30
0.0
 11
5.4243941593
 21
3.0285863962
 31
0.0
  0
LINE
  5
30D
100
AcDbEntity
  8
0
100
AcDbLine
 62
7
  6
CONTINUOUS
 10
5.4093473855
 20
3.0217147649
 30
0.0
 11
5.4081066248
 21
3.0215426559
 31
0.0
  0
LINE
  5
30E
100
AcDbEntity
  8
0
100
AcDbLine
 62
7
  6
CONTINUOUS
 10
5.3889439183
 20
3.0149151301
 30
0.0
 11
5.3878572032
 21
3.0142769405
 31
0.0
  0
LINE
  5
30F
100
AcDbEntity
  8
0
100
AcDbLine
 62
7
  6
CONTINUOUS
 10
5.3717818793
 20
3.0103771091
 30
0.0
 11
5.3705238372
 21
3.0104462499
 31
0.0
  0
LINE
  5
310
100
AcDbEntity
  8
0
100
AcDbLine
 62
7
  6
CONTINUOUS
 10
5.3504497022
 20
3.0075524592
 30
0.0
 11
5.3492724351
 21
3.0071407396
 31
0.0
  0
LINE
  5
311
100
AcDbEntity
  8
0
100
AcDbLine
 62
7
  6
CONTINUOUS
 10
5.3327495653
 20
3.0063536583
 30
0.0
 11
5.3315406812
 21
3.0066500546
 31
0.0
  0
LINE
  5
312
100
AcDbEntity
  8
0
100
AcDbLine
 62
7
  6
CONTINUOUS
 10
5.3112756793
 20
3.0076214732
 30
0.0
 11
5.3100344092
 21
3.0074357146
 31
0.0
  0
LINE
  5
313
100
AcDbEntity
  8
0
100
AcDbLine
 62
7
  6
CONTINUOUS
 10
5.2936611731
 20
3.0097898305
 30
0.0
 11
5.2925213874
 21
3.0103189735
 31
0.0
  0
LINE
  5
314
100
AcDbEntity
  8
0
100
AcDbLine
 62
7
  6
CONTINUOUS
 10
5.2728194066
 20
3.0151001605
 30
0.0
 11
5.2715612898
 21
3.0151512042
 31
0.0
  0
LINE
  5
315
100
AcDbEntity
  8
0
100
AcDbLine
 62
7
  6
CONTINUOUS
 10
5.2559294588
 20
3.0205614335
 30
0.0
 11
5.2549094956
 21
3.0212981733
 31
0.0
  0
LINE
  5
316
100
AcDbEntity
  8
0
100
AcDbLine
 62
7
  6
CONTINUOUS
 10
5.2364491771
 20
3.0297171983
 30
0.0
 11
5.2352435959
 21
3.0300083505
 31
0.0
  0
LINE
  5
317
100
AcDbEntity
  8
0
100
AcDbLine
 62
7
  6
CONTINUOUS
 10
5.2209181451
 20
3.0382791534
 30
0.0
 11
5.2200632094
 21
3.039177641
 31
0.0
  0
LINE
  5
318
100
AcDbEntity
  8
0
100
AcDbLine
 62
7
  6
CONTINUOUS
 10
5.203541955
 20
3.0509552337
 30
0.0
 11
5.2023939435
 21
3.0514701777
 31
0.0
  0
LINE
  5
319
100
AcDbEntity
  8
0
100
AcDbLine
 62
7
  6
CONTINUOUS
 10
5.1898926319
 20
3.0623026258
 30
0.0
 11
5.1892193674
 21
3.0633666708
 31
0.0
  0
LINE
  5
31A
100
AcDbEntity
  8
0
100
AcDbLine
 62
7
  6
CONTINUOUS
 10
5.1752277437
 20
3.0780384886
 30
0.0
 11
5.1741996045
 21
3.0787609993
 31
0.0
  0
LINE
  5
31B
100
AcDbEntity
  8
0
100
AcDbLine
 62
7
  6
CONTINUOUS
 10
5.1639742623
 20
3.0917635797
 30
0.0
 11
5.1635144993
 21
3.0929314926
 31
0.0
  0
LINE
  5
31C
100
AcDbEntity
  8
0
100
AcDbLine
 62
7
  6
CONTINUOUS
 10
5.1525407236
 20
3.1099957281
 30
0.0
 11
5.151679596
 21
3.1108944539
 31
0.0
  0
LINE
  5
31D
100
AcDbEntity
  8
0
100
AcDbLine
 62
7
  6
CONTINUOUS
 10
5.1440997935
 20
3.1255972195
 30
0.0
 11
5.14386772
 21
3.1268226245
 31
0.0
  0
LINE
  5
31E
100
AcDbEntity
  8
0
100
AcDbLine
 62
7
  6
CONTINUOUS
 10
5.1363367434
 20
3.1456542321
 30
0.0
 11
5.1356478496
 21
3.1467091547
 31
0.0
  0
LINE
  5
31F
100
AcDbEntity
  8
0
100
AcDbLine
 62
7
  6
CONTINUOUS
 10
5.1309875407
 20
3.1625807092
 30
0.0
 11
5.130996874
 21
3.1638409326
 31
0.0
  0
LINE
  5
320
100
AcDbEntity
  8
0
100
AcDbLine
 62
7
  6
CONTINUOUS
 10
5.1271551214
 20
3.1837500832
 30
0.0
 11
5.1266837944
 21
3.1849106652
 31
0.0
  0
LINE
  5
321
100
AcDbEntity
  8
0
100
AcDbLine
 62
7
  6
CONTINUOUS
 10
5.1251114148
 20
3.2013773693
 30
0.0
 11
5.1253533825
 21
3.2026043239
 31
0.0
  0
LINE
  5
322
100
AcDbEntity
  8
0
100
AcDbLine
 62
7
  6
CONTINUOUS
 10
5.1253533808
 20
3.2228913313
 30
0.0
 11
5.1251114148
 21
3.2241182833
 31
0.0
  0
LINE
  5
323
100
AcDbEntity
  8
0
100
AcDbLine
 62
7
  6
CONTINUOUS
 10
5.1266837944
 20
3.2405849874
 30
0.0
 11
5.127155124
 21
3.2417455721
 31
0.0
  0
LINE
  5
324
100
AcDbEntity
  8
0
100
AcDbLine
 62
7
  6
CONTINUOUS
 10
5.1309968716
 20
3.2616547257
 30
0.0
 11
5.1309875407
 21
3.2629149434
 31
0.0
  0
LINE
  5
325
100
AcDbEntity
  8
0
100
AcDbLine
 62
7
  6
CONTINUOUS
 10
5.1356478496
 20
3.2787864979
 30
0.0
 11
5.1363367484
 21
3.2798414239
 31
0.0
  0
LINE
  5
326
100
AcDbEntity
  8
0
100
AcDbLine
 62
7
  6
CONTINUOUS
 10
5.1438677196
 20
3.2986730301
 30
0.0
 11
5.1440997935
 21
3.2998984332
 31
0.0
  0
LINE
  5
327
100
AcDbEntity
  8
0
100
AcDbLine
 62
7
  6
CONTINUOUS
 10
5.151679596
 20
3.3146011988
 30
0.0
 11
5.1525407247
 21
3.315499925
 31
0.0
  0
LINE
  5
328
100
AcDbEntity
  8
0
100
AcDbLine
 62
7
  6
CONTINUOUS
 10
5.5091647813
 20
3.3172886219
 30
0.0
 11
5.5095125367
 21
3.3160934994
 31
0.0
  0
LINE
  5
329
100
AcDbEntity
  8
0
100
AcDbLine
 62
7
  6
CONTINUOUS
 10
5.5188037645
 20
3.2980577836
 30
0.0
 11
5.5195852712
 21
3.2970756914
 31
0.0
  0
LINE
  5
32A
100
AcDbEntity
  8
0
100
AcDbLine
 62
7
  6
CONTINUOUS
 10
5.5257331651
 20
3.2817189951
 30
0.0
 11
5.5258448066
 21
3.2804673402
 31
0.0
  0
LINE
  5
32B
100
AcDbEntity
  8
0
100
AcDbLine
 62
7
  6
CONTINUOUS
 10
5.5315551676
 20
3.2610143309
 30
0.0
 11
5.5321400209
 21
3.2598992479
 31
0.0
  0
LINE
  5
32C
100
AcDbEntity
  8
0
100
AcDbLine
 62
7
  6
CONTINUOUS
 10
5.5352705404
 20
3.2436565705
 30
0.0
 11
5.5351424866
 21
3.2424048865
 31
0.0
  0
LINE
  5
32D
100
AcDbEntity
  8
0
100
AcDbLine
 62
7
  6
CONTINUOUS
 10
5.5370815563
 20
3.2222082693
 30
0.0
 11
5.5374322017
 21
3.2210186292
 31
0.0
  0
SPLINE
  5
32E
100
AcDbEntity
  8
0
100
AcDbSpline
 62
7
  6
CONTINUOUS
 70
0
 71
3
 72
19
 73
15
 74
0
 42
0.0000001
 43
0.0000001
 44
0.0000000001
 40
0.0
 40
0.0
 40
0.0
 40
0.0
 40
0.1190784017
 40
0.2399693743
 40
0.362726872
 40
0.4248148286
 40
0.4873567104
 40
0.6136911516
 40
0.6774493285
 40
0.7415365997
 40
0.8058992712
 40
0.8704753075
 40
0.9352034987
 40
1.0
 40
1.0
 40
1.0
 40
1.0
 10
5.2505226701
 20
3.6186985922
 30
0.0
 10
5.2532889107
 20
3.6207566017
 30
0.0
 10
5.2589997823
 20
3.624724742
 30
0.0
 10
5.2680210003
 20
3.6301182306
 30
0.0
 10
5.2759367112
 20
3.634101606
 30
0.0
 10
5.2825111889
 20
3.6369489303
 30
0.0
 10
5.2892896746
 20
3.6395709836
 30
0.0
 10
5.2962695587
 20
3.6417925827
 30
0.0
 10
5.3034119823
 20
3.6435744815
 30
0.0
 10
5.3088666887
 20
3.6446874694
 30
0.0
 10
5.3143882847
 20
3.6455639013
 30
0.0
 10
5.3199621213
 20
3.6461944871
 30
0.0
 10
5.3255710174
 20
3.6465755286
 30
0.0
 10
5.3293218478
 20
3.6466611677
 30
0.0
 10
5.3311979809
 20
3.6466612121
 30
0.0
  0
SPLINE
  5
32F
100
AcDbEntity
  8
0
100
AcDbSpline
 62
7
  6
CONTINUOUS
 70
0
 71
3
 72
18
 73
14
 74
0
 42
0.0000001
 43
0.0000001
 44
0.0000000001
 40
0.0
 40
0.0
 40
0.0
 40
0.0
 40
0.0647984147
 40
0.1295285248
 40
0.1941064682
 40
0.2584710511
 40
0.3862904186
 40
0.5126286032
 40
0.5751723733
 40
0.6372622007
 40
0.7600233664
 40
0.8809179757
 40
1.0
 40
1.0
 40
1.0
 40
1.0
 10
5.3311979809
 20
3.6466612121
 30
0.0
 10
5.3330741038
 20
3.6466611693
 30
0.0
 10
5.3368249178
 20
3.6465754636
 30
0.0
 10
5.3424337594
 20
3.6461943744
 30
0.0
 10
5.3480076416
 20
3.6455638441
 30
0.0
 10
5.355351869
 20
3.6443983725
 30
0.0
 10
5.3643577354
 20
3.6423555655
 30
0.0
 10
5.3731059318
 20
3.6395711433
 30
0.0
 10
5.3798845617
 20
3.6369490236
 30
0.0
 10
5.3864589462
 20
3.6341016929
 30
0.0
 10
5.3943746874
 20
3.6301184271
 30
0.0
 10
5.403395846
 20
3.6247249446
 30
0.0
 10
5.4091066859
 20
3.6207568169
 30
0.0
 10
5.4118729275
 20
3.6186988348
 30
0.0
  0
LINE
  5
330
100
AcDbEntity
  8
0
100
AcDbLine
 62
7
  6
CONTINUOUS
 10
5.5374322017
 20
3.4193904092
 30
0.0
 11
5.5370809291
 21
3.4181999609
 31
0.0
  0
LINE
  5
331
100
AcDbEntity
  8
0
100
AcDbLine
 62
7
  6
CONTINUOUS
 10
5.5351448196
 20
3.3979997075
 30
0.0
 11
5.5352705404
 21
3.3967524679
 31
0.0
  0
LINE
  5
332
100
AcDbEntity
  8
0
100
AcDbLine
 62
7
  6
CONTINUOUS
 10
5.5321400209
 20
3.3805097905
 30
0.0
 11
5.5315620817
 21
3.3794006204
 31
0.0
  0
LINE
  5
333
100
AcDbEntity
  8
0
100
AcDbLine
 62
7
  6
CONTINUOUS
 10
5.5258437068
 20
3.359945314
 30
0.0
 11
5.5257331651
 21
3.3586900434
 31
0.0
  0
LINE
  5
334
100
AcDbEntity
  8
0
100
AcDbLine
 62
7
  6
CONTINUOUS
 10
5.5195852712
 20
3.343333347
 30
0.0
 11
5.5188001165
 21
3.3423491897
 31
0.0
  0
LINE
  5
335
100
AcDbEntity
  8
0
100
AcDbLine
 62
7
  6
CONTINUOUS
 10
5.5095108047
 20
3.3243328495
 30
0.0
 11
5.5091647813
 21
3.3231204166
 31
0.0
  0
LINE
  5
336
100
AcDbEntity
  8
0
100
AcDbLine
 62
7
  6
CONTINUOUS
 10
5.5002217141
 20
3.3092047323
 30
0.0
 11
5.49926212
 21
3.3083861592
 31
0.0
  0
LINE
  5
337
100
AcDbEntity
  8
0
100
AcDbLine
 62
7
  6
CONTINUOUS
 10
5.4867329551
 20
3.292448574
 30
0.0
 11
5.4861642138
 21
3.2913291665
 31
0.0
  0
LINE
  5
338
100
AcDbEntity
  8
0
100
AcDbLine
 62
7
  6
CONTINUOUS
 10
5.4747491988
 20
3.2793574434
 30
0.0
 11
5.4736560137
 21
3.278735797
 31
0.0
  0
LINE
  5
339
100
AcDbEntity
  8
0
100
AcDbLine
 62
7
  6
CONTINUOUS
 10
5.4583296583
 20
3.2654451346
 30
0.0
 11
5.4575627628
 21
3.2644653118
 31
0.0
  0
LINE
  5
33A
100
AcDbEntity
  8
0
100
AcDbLine
 62
7
  6
CONTINUOUS
 10
5.4440883685
 20
3.254870239
 30
0.0
 11
5.4429074814
 21
3.254466181
 31
0.0
  0
LINE
  5
33B
100
AcDbEntity
  8
0
100
AcDbLine
 62
7
  6
CONTINUOUS
 10
5.4253345263
 20
3.2443204293
 30
0.0
 11
5.4243941593
 21
3.2434997821
 31
0.0
  0
LINE
  5
33C
100
AcDbEntity
  8
0
100
AcDbLine
 62
7
  6
CONTINUOUS
 10
5.4093473855
 20
3.2366281507
 30
0.0
 11
5.4081153852
 21
3.2364539113
 31
0.0
  0
LINE
  5
33D
100
AcDbEntity
  8
0
100
AcDbLine
 62
7
  6
CONTINUOUS
 10
5.3889421541
 20
3.229826225
 30
0.0
 11
5.3878572032
 21
3.2291903263
 31
0.0
  0
LINE
  5
33E
100
AcDbEntity
  8
0
100
AcDbLine
 62
7
  6
CONTINUOUS
 10
5.3717818793
 20
3.2252904949
 30
0.0
 11
5.3705280691
 21
3.2253576562
 31
0.0
  0
LINE
  5
33F
100
AcDbEntity
  8
0
100
AcDbLine
 62
7
  6
CONTINUOUS
 10
5.3504610733
 20
3.2224758151
 30
0.0
 11
5.3492724351
 21
3.2220541254
 31
0.0
  0
LINE
  5
340
100
AcDbEntity
  8
0
100
AcDbLine
 62
7
  6
CONTINUOUS
 10
5.3327495653
 20
3.2212670441
 30
0.0
 11
5.3315265508
 21
3.2215735993
 31
0.0
  0
LINE
  5
341
100
AcDbEntity
  8
0
100
AcDbLine
 62
7
  6
CONTINUOUS
 10
5.3112792868
 20
3.2225369826
 30
0.0
 11
5.3100344092
 21
3.2223491004
 31
0.0
  0
LINE
  5
342
100
AcDbEntity
  8
0
100
AcDbLine
 62
7
  6
CONTINUOUS
 10
5.2936611731
 20
3.2247032163
 30
0.0
 11
5.2925188019
 21
3.2252351241
 31
0.0
  0
LINE
  5
343
100
AcDbEntity
  8
0
100
AcDbLine
 62
7
  6
CONTINUOUS
 10
5.2728108259
 20
3.2300105138
 30
0.0
 11
5.2715612898
 21
3.23006459
 31
0.0
  0
LINE
  5
344
100
AcDbEntity
  8
0
100
AcDbLine
 62
7
  6
CONTINUOUS
 10
5.2559294588
 20
3.2354748193
 30
0.0
 11
5.254912176
 21
3.2362073198
 31
0.0
  0
LINE
  5
345
100
AcDbEntity
  8
0
100
AcDbLine
 62
7
  6
CONTINUOUS
 10
5.2364501906
 20
3.2446307231
 30
0.0
 11
5.2352435959
 21
3.2449217364
 31
0.0
  0
LINE
  5
346
100
AcDbEntity
  8
0
100
AcDbLine
 62
7
  6
CONTINUOUS
 10
5.2209181451
 20
3.2531925393
 30
0.0
 11
5.2200628229
 21
3.2540919743
 31
0.0
  0
LINE
  5
347
100
AcDbEntity
  8
0
100
AcDbLine
 62
7
  6
CONTINUOUS
 10
5.203536945
 20
3.2658688211
 30
0.0
 11
5.2023939435
 21
3.2663835635
 31
0.0
  0
ENDSEC
  0
SECTION
  2
OBJECTS
  0
DICTIONARY
  5
C
100
AcDbDictionary
280
0
281
1
  3
ACAD_GROUP
350
D
  3
ACAD_MLINESTYLE
350
17
  3
ACAD_LAYOUT
350
1A
  3
ACAD_PLOTSETTINGS
350
19
  3
ACAD_PLOTSTYLENAME
350
E
  0
DICTIONARY
  5
D
102
{ACAD_REACTORS
330
C
102
}
100
AcDbDictionary
280
0
281
1
  0
ACDBDICTIONARYWDFLT
  5
E
102
{ACAD_REACTORS
330
C
102
}
100
AcDbDictionary
281
1
  3
Normal
350
F
100
AcDbDictionaryWithDefault
340
F
  0
DICTIONARY
  5
17
102
{ACAD_REACTORS
330
C
102
}
100
AcDbDictionary
280
0
281
1
  3
Standard
350
18
  0
DICTIONARY
  5
19
102
{ACAD_REACTORS
330
C
102
}
100
AcDbDictionary
281
1
  0
DICTIONARY
  5
1A
102
{ACAD_REACTORS
330
C
102
}
100
AcDbDictionary
281
1
  3
Model
350
348
  3
Layout1
350
349
  0
ACDBPLACEHOLDER
  5
F
102
{ACAD_REACTORS
330
E
102
}
  0
MLINESTYLE
  5
18
102
{ACAD_REACTORS
330
17
102
}
100
AcDbMlineStyle
  2
STANDARD
 70
0
  3

 62
256
 51
90.0
 52
90.0
 71
2
 49
0.5
 62
256
  6
BYLAYER
 49
-0.5
 62
256
  6
BYLAYER
  0
LAYOUT
  5
348
102
{ACAD_REACTORS
330
1A
102
}
100
AcDbPlotSettings
  1

  2
none_device
  4
ANSI_A_(11.00_x_8.50_Inches)
  6

 40
0.0
 41
0.0
 42
0.0
 43
0.0
 44
279.4
 45
215.9
 46
0.0
 47
0.0
 48
0.0
 49
0.0
140
0.0
141
0.0
142
1.0
143
1.0
 70
1024
 72
0
 73
0
 74
0
  7

 75
0
147
1.0
148
0.0
149
0.0
100
AcDbLayout
  1
Model
 70
0
 71
0
 10
0.0
 20
0.0
 11
11.0
 21
8.5
 12
0.0
 22
0.0
 32
0.0
 14
0.0
 24
0.0
 34
0.0
 15
0.0
 25
0.0
 35
0.0
146
0.0
 13
0.0
 23
0.0
 33
0.0
 16
1.0
 26
0.0
 36
0.0
 17
0.0
 27
1.0
 37
0.0
 76
0
330
202
345
0
346
0
  0
LAYOUT
  5
349
102
{ACAD_REACTORS
330
1A
102
}
100
AcDbPlotSettings
  1

  2
none_device
  4
ANSI_A_(11.00_x_8.50_Inches)
  6

 40
0.0
 41
0.0
 42
0.0
 43
0.0
 44
279.4
 45
215.9
 46
0.0
 47
0.0
 48
0.0
 49
0.0
140
0.0
141
0.0
142
1.0
143
1.0
 70
0
 72
0
 73
0
 74
0
  7

 75
0
147
1.0
148
0.0
149
0.0
100
AcDbLayout
  1
Layout1
 70
0
 71
1
 10
0.0
 20
0.0
 11
11.0
 21
8.5
 12
0.0
 22
0.0
 32
0.0
 14
0.0
 24
0.0
 34
0.0
 15
0.0
 25
0.0
 35
0.0
146
0.0
 13
0.0
 23
0.0
 33
0.0
 16
1.0
 26
0.0
 36
0.0
 17
0.0
 27
1.0
 37
0.0
 76
0
330
203
345
0
346
0
  0
ENDSEC
  0
EOF
