999
DXF file: 3-3424tr_TOP.dxf
999
Pro/ENGINEER 2025093 by Parametric Technology Corporation
  0
SECTION
  2
HEADER
  9
$ACADVER
  1
AC1032
  9
$DWGCODEPAGE
  3
ANSI_1252
  9
$EXTMAX
 10
11.0
 20
8.5
 30
0.0
  9
$EXTMIN
 10
0.0
 20
0.0
 30
0.0
  9
$LIMMIN
 10
0.0
 20
0.0
  9
$LIMMAX
 10
11.0
 20
8.5
  9
$VIEWCTR
 10
5.5
 20
4.25
  9
$VIEWSIZE
 40
8.5
  9
$CLAYER
  8
0
  9
$LTSCALE
 40
0.605
  9
$CELTYPE
  6
BYLAYER
  9
$DIMSCALE
 40
1.0
  9
$DIMASZ
 40
0.1875
  9
$DIMEXO
 40
0.0625
  9
$DIMDLI
 40
0.418
  9
$DIMEXE
 40
0.125
  9
$DIMCEN
 40
0.099
  9
$DIMLFAC
 40
1.0
  9
$DIMBLK
  1
_FILLED
  9
$DIMALT
 70
0
  9
$DIMALTF
 40
25.4
  9
$DIMTXT
 40
0.15625
  9
$DIMTOL
 70
0
  9
$DIMLIM
 70
0
  9
$DIMTFAC
 40
1.0
  9
$DIMGAP
 40
0.09
  9
$DIMDSEP
 70
46
  9
$AUNITS
 70
0
  9
$PDMODE
 70
3
  9
$PDSIZE
 40
0.3125
  9
$HANDSEED
  5
319
  9
$TILEMODE
 70
1
  9
$MEASUREMENT
 70
0
  9
$INSUNITS
 70
1
  0
ENDSEC
  0
SECTION
  2
CLASSES
  0
CLASS
  1
ACDBDICTIONARYWDFLT
  2
AcDbDictionaryWithDefault
  3
AutoCAD 2000
 90
0
 91
1
280
0
281
0
  0
CLASS
  1
ACDBPLACEHOLDER
  2
AcDbPlaceHolder
  3
AutoCAD 2000
 90
0
 91
1
280
0
281
0
  0
CLASS
  1
LAYOUT
  2
AcDbLayout
  3
AutoCAD 2000
 90
0
 91
0
280
0
281
0
  0
ENDSEC
  0
SECTION
  2
TABLES
  0
TABLE
  2
VPORT
  5
8
100
AcDbSymbolTable
 70
2
  0
VPORT
  5
1F4
100
AcDbSymbolTableRecord
100
AcDbViewportTableRecord
  2
*ACTIVE
 70
0
 10
0.0
 20
0.0
 11
1.0
 21
1.0
 12
5.5
 22
4.25
 13
0.0
 23
0.0
 14
1.0
 24
1.0
 15
0.0
 25
0.0
 16
0.0
 26
0.0
 36
1.0
 17
0.0
 27
0.0
 37
0.0
 40
8.5
 41
1.2941176471
 42
50.0
 43
0.0
 44
0.0
 50
0.0
 51
0.0
 71
0
 72
100
 73
1
 74
1
 75
0
 76
0
 77
0
 78
0
  0
ENDTAB
  0
TABLE
  2
LTYPE
  5
5
100
AcDbSymbolTable
 70
6
  0
LTYPE
  5
14
100
AcDbSymbolTableRecord
100
AcDbLinetypeTableRecord
  2
BYBLOCK
 70
0
  3

 72
65
 73
0
 40
0.0
  0
LTYPE
  5
15
100
AcDbSymbolTableRecord
100
AcDbLinetypeTableRecord
  2
BYLAYER
 70
0
  3

 72
65
 73
0
 40
0.0
  0
LTYPE
  5
16
100
AcDbSymbolTableRecord
100
AcDbLinetypeTableRecord
  2
CONTINUOUS
 70
64
  3
Solid line
 72
65
 73
0
 40
0.0
  0
LTYPE
  5
1F5
100
AcDbSymbolTableRecord
100
AcDbLinetypeTableRecord
  2
CENTER
 70
64
  3
____ _ ____ _ ____ _ ____ _ ____ _ ____ _ ____
 72
65
 73
4
 40
0.6
 49
0.375
 74
0
 49
-0.075
 74
0
 49
0.075
 74
0
 49
-0.075
 74
0
  0
LTYPE
  5
1F6
100
AcDbSymbolTableRecord
100
AcDbLinetypeTableRecord
  2
HIDDEN
 70
64
  3
- - - - - - - - - - - - - - - - - - - -
 72
65
 73
2
 40
0.2
 49
0.1
 74
0
 49
-0.1
 74
0
  0
LTYPE
  5
1F7
100
AcDbSymbolTableRecord
100
AcDbLinetypeTableRecord
  2
PHANTOM
 70
64
  3
_____ _ _ _____ _ _ _____ _ _ _____
 72
65
 73
6
 40
0.8
 49
0.45
 74
0
 49
-0.05
 74
0
 49
0.1
 74
0
 49
-0.05
 74
0
 49
0.1
 74
0
 49
-0.05
 74
0
  0
LTYPE
  5
1F8
100
AcDbSymbolTableRecord
100
AcDbLinetypeTableRecord
  2
DOT
 70
64
  3
. . . . . . . . . . . . . . . . . . . .
 72
65
 73
2
 40
0.2
 49
0.1
 74
0
 49
-0.1
 74
0
  0
LTYPE
  5
1F9
100
AcDbSymbolTableRecord
100
AcDbLinetypeTableRecord
  2
DASHED
 70
64
  3
- - - - - - - - - - - - - - - - - - - -
 72
65
 73
2
 40
0.2
 49
0.1
 74
0
 49
-0.1
 74
0
  0
ENDTAB
  0
TABLE
  2
LAYER
  5
2
100
AcDbSymbolTable
 70
36
  0
LAYER
  5
10
100
AcDbSymbolTableRecord
100
AcDbLayerTableRecord
  2
0
 70
0
 62
7
  6
CONTINUOUS
370
-3
390
F
  0
LAYER
  5
1FA
100
AcDbSymbolTableRecord
100
AcDbLayerTableRecord
  2
DEFAULT_1
 70
0
 62
7
  6
CENTER
370
-3
390
F
  0
LAYER
  5
1FB
100
AcDbSymbolTableRecord
100
AcDbLayerTableRecord
  2
DEFAULT_2
 70
0
 62
8
  6
HIDDEN
370
-3
390
F
  0
LAYER
  5
1FC
100
AcDbSymbolTableRecord
100
AcDbLayerTableRecord
  2
DEFAULT_3
 70
0
 62
7
  6
PHANTOM
370
-3
390
F
  0
LAYER
  5
1FD
100
AcDbSymbolTableRecord
100
AcDbLayerTableRecord
  2
DEFAULT_COORDINATE_SYSTEM
 70
0
 62
7
  6
CONTINUOUS
370
-3
390
F
  0
LAYER
  5
1FE
100
AcDbSymbolTableRecord
100
AcDbLayerTableRecord
  2
DEFAULT_DATUM_AXES
 70
0
 62
7
  6
CONTINUOUS
370
-3
390
F
  0
LAYER
  5
1FF
100
AcDbSymbolTableRecord
100
AcDbLayerTableRecord
  2
DEFAULT_DATUM_PLANES
 70
0
 62
7
  6
CONTINUOUS
370
-3
390
F
  0
ENDTAB
  0
TABLE
  2
STYLE
  5
3
100
AcDbSymbolTable
 70
1
  0
STYLE
  5
11
100
AcDbSymbolTableRecord
100
AcDbTextStyleTableRecord
  2
STANDARD
 70
0
 40
0.0
 41
0.8
 50
0.0
 71
0
 42
0.2
  3
txt
  4

  0
STYLE
  5
200
100
AcDbSymbolTableRecord
100
AcDbTextStyleTableRecord
  2
TEXTSTYLE_1
 70
0
 40
0.0
 41
0.8
 50
0.0
 71
0
 42
0.2
  3
gdt
  4

  0
ENDTAB
  0
TABLE
  2
VIEW
  5
6
100
AcDbSymbolTable
 70
0
  0
ENDTAB
  0
TABLE
  2
UCS
  5
7
100
AcDbSymbolTable
 70
0
  0
ENDTAB
  0
TABLE
  2
APPID
  5
9
100
AcDbSymbolTable
 70
1
  0
APPID
  5
201
100
AcDbSymbolTableRecord
100
AcDbRegAppTableRecord
  2
ACAD
 70
0
  0
ENDTAB
  0
TABLE
  2
BLOCK_RECORD
  5
1
100
AcDbSymbolTable
 70
0
  0
BLOCK_RECORD
  5
202
100
AcDbSymbolTableRecord
100
AcDbBlockTableRecord
  2
*Model_Space
  0
BLOCK_RECORD
  5
203
100
AcDbSymbolTableRecord
100
AcDbBlockTableRecord
  2
*Paper_Space
  0
BLOCK_RECORD
  5
204
100
AcDbSymbolTableRecord
100
AcDbBlockTableRecord
  2
_FILLED
  0
ENDTAB
  0
TABLE
  2
DIMSTYLE
  5
A
100
AcDbSymbolTable
 70
1
100
AcDbDimStyleTable
 71
0
  0
DIMSTYLE
105
205
100
AcDbSymbolTableRecord
100
AcDbDimStyleTableRecord
  2
STANDARD
 70
0
  3

  4

 40
1.0
 41
0.1875
 42
0.0625
 43
0.38
 44
0.125
 45
0.0
 46
0.0
 47
0.001
 48
0.001
140
0.15625
141
0.0
142
0.0
143
25.4
144
1.0
145
0.0
146
1.0
147
0.09
 71
0
 72
0
 73
1
 74
1
 75
0
 76
0
 77
0
 78
4
 79
1
170
0
171
2
172
0
173
0
174
0
175
0
176
0
177
0
178
0
270
2
179
1
271
3
272
3
273
2
274
2
275
0
280
0
281
0
282
0
283
1
284
4
285
0
286
0
287
3
288
0
340
11
278
46
341
204
342
204
343
204
344
204
  0
ENDTAB
  0
ENDSEC
  0
SECTION
  2
BLOCKS
  0
BLOCK
  5
20
100
AcDbEntity
  8
0
100
AcDbBlockBegin
  2
*Model_Space
 70
0
 10
0.0
 20
0.0
 30
0.0
  3
*Model_Space
  1

  0
ENDBLK
  5
21
100
AcDbEntity
  8
0
100
AcDbBlockEnd
  0
BLOCK
  5
1C
100
AcDbEntity
  8
0
100
AcDbBlockBegin
  2
*Paper_Space
 70
0
 10
0.0
 20
0.0
 30
0.0
  3
*Paper_Space
  1

  0
ENDBLK
  5
1D
100
AcDbEntity
  8
0
100
AcDbBlockEnd
  0
BLOCK
  5
206
100
AcDbEntity
  8
0
100
AcDbBlockBegin
  2
_FILLED
 70
64
 10
0.0
 20
0.0
 30
0.0
  3
_FILLED
  1

  0
SOLID
  5
207
100
AcDbEntity
  8
0
  6
BYBLOCK
 62
0
100
AcDbTrace
 10
0.0
 20
0.0
 30
0.0
 11
-1.0
 21
0.1666666667
 31
0.0
 12
-1.0
 22
-0.1666666667
 32
0.0
 13
-1.0
 23
-0.1666666667
 33
0.0
  0
ENDBLK
  5
208
100
AcDbEntity
  8
0
  6
BYBLOCK
 62
0
100
AcDbBlockEnd
  0
ENDSEC
  0
SECTION
  2
ENTITIES
  0
LINE
  5
209
100
AcDbEntity
  8
0
100
AcDbLine
 62
7
  6
CONTINUOUS
 10
0.0
 20
0.0
 30
0.0
 11
0.0
 21
8.5
 31
0.0
  0
LINE
  5
20A
100
AcDbEntity
  8
0
100
AcDbLine
 62
7
  6
CONTINUOUS
 10
0.0
 20
0.0
 30
0.0
 11
11.0
 21
0.0
 31
0.0
  0
LINE
  5
20B
100
AcDbEntity
  8
0
100
AcDbLine
 62
7
  6
CONTINUOUS
 10
0.0
 20
8.5
 30
0.0
 11
11.0
 21
8.5
 31
0.0
  0
LINE
  5
20C
100
AcDbEntity
  8
0
100
AcDbLine
 62
7
  6
CONTINUOUS
 10
11.0
 20
0.0
 30
0.0
 11
11.0
 21
8.5
 31
0.0
  0
LINE
  5
20D
100
AcDbEntity
  8
0
100
AcDbLine
 62
7
  6
CONTINUOUS
 10
2.9455032367
 20
5.7867167796
 30
0.0
 11
2.9704720194
 21
5.5013222877
 31
0.0
  0
LINE
  5
20E
100
AcDbEntity
  8
0
100
AcDbLine
 62
7
  6
CONTINUOUS
 10
5.5495400155
 20
2.684373947
 30
0.0
 11
5.5502676376
 21
2.6844511217
 31
0.0
  0
LINE
  5
20F
100
AcDbEntity
  8
0
100
AcDbLine
 62
7
  6
CONTINUOUS
 10
5.1597612079
 20
2.6658133073
 30
0.0
 11
5.159143567
 21
2.6658195859
 31
0.0
  0
LINE
  5
210
100
AcDbEntity
  8
0
100
AcDbLine
 62
7
  6
CONTINUOUS
 10
5.5110627786
 20
2.6490819934
 30
0.0
 11
5.5117704735
 21
2.649021896
 31
0.0
  0
LINE
  5
211
100
AcDbEntity
  8
0
100
AcDbLine
 62
7
  6
CONTINUOUS
 10
5.2015759151
 20
2.6343453284
 30
0.0
 11
5.2008341749
 21
2.6342101745
 31
0.0
  0
LINE
  5
212
100
AcDbEntity
  8
0
100
AcDbLine
 62
7
  6
CONTINUOUS
 10
5.6207032367
 20
2.8683167796
 30
0.0
 11
5.6203032363
 21
2.8683167642
 31
0.0
  0
LINE
  5
213
100
AcDbEntity
  8
0
100
AcDbLine
 62
7
  6
CONTINUOUS
 10
5.1249229491
 20
2.7045984579
 30
0.0
 11
5.1241884831
 21
2.7047477734
 31
0.0
  0
LINE
  5
214
100
AcDbEntity
  8
0
100
AcDbLine
 62
7
  6
CONTINUOUS
 10
5.4665858424
 20
2.6217099763
 30
0.0
 11
5.4672639784
 21
2.6215185588
 31
0.0
  0
LINE
  5
215
100
AcDbEntity
  8
0
100
AcDbLine
 62
7
  6
CONTINUOUS
 10
5.097848672
 20
2.7493337095
 30
0.0
 11
5.097232291
 21
2.7495877709
 31
0.0
  0
LINE
  5
216
100
AcDbEntity
  8
0
100
AcDbLine
 62
7
  6
CONTINUOUS
 10
5.41770007
 20
2.6032650314
 30
0.0
 11
5.4183567327
 21
2.6029351523
 31
0.0
  0
LINE
  5
217
100
AcDbEntity
  8
0
100
AcDbLine
 62
7
  6
CONTINUOUS
 10
5.6157300142
 20
2.9203987221
 30
0.0
 11
5.6152356389
 21
2.9203034193
 31
0.0
  0
LINE
  5
218
100
AcDbEntity
  8
0
100
AcDbLine
 62
7
  6
CONTINUOUS
 10
5.0715493637
 20
2.8421573565
 30
0.0
 11
5.0720304419
 21
2.8422032936
 31
0.0
  0
LINE
  5
219
100
AcDbEntity
  8
0
100
AcDbLine
 62
7
  6
CONTINUOUS
 10
5.0715493637
 20
2.8944762027
 30
0.0
 11
5.0720299664
 21
2.8944303294
 31
0.0
  0
LINE
  5
21A
100
AcDbEntity
  8
0
100
AcDbLine
 62
7
  6
CONTINUOUS
 10
5.6157300142
 20
2.8162348372
 30
0.0
 11
5.6152356314
 21
2.8163301019
 31
0.0
  0
LINE
  5
21B
100
AcDbEntity
  8
0
100
AcDbLine
 62
7
  6
CONTINUOUS
 10
5.0814507704
 20
2.9458495793
 30
0.0
 11
5.081894152
 21
2.9457194092
 31
0.0
  0
LINE
  5
21C
100
AcDbEntity
  8
0
100
AcDbLine
 62
7
  6
CONTINUOUS
 10
5.6009900919
 20
2.7660352718
 30
0.0
 11
5.6005867104
 21
2.7661967434
 31
0.0
  0
LINE
  5
21D
100
AcDbEntity
  8
0
100
AcDbLine
 62
7
  6
CONTINUOUS
 10
5.1008957213
 20
2.9944207184
 30
0.0
 11
5.1013371088
 21
2.9941931888
 31
0.0
  0
LINE
  5
21E
100
AcDbEntity
  8
0
100
AcDbLine
 62
7
  6
CONTINUOUS
 10
5.0798633948
 20
2.7983153829
 30
0.0
 11
5.0792492578
 21
2.7987189442
 31
0.0
  0
LINE
  5
21F
100
AcDbEntity
  8
0
100
AcDbLine
 62
7
  6
CONTINUOUS
 10
5.366288017
 20
2.5943499174
 30
0.0
 11
5.3668163719
 21
2.5939433292
 31
0.0
  0
LINE
  5
220
100
AcDbEntity
  8
0
100
AcDbLine
 62
7
  6
CONTINUOUS
 10
5.0713943355
 20
2.8498741529
 30
0.0
 11
5.0708893371
 21
2.8503655646
 31
0.0
  0
LINE
  5
221
100
AcDbEntity
  8
0
100
AcDbLine
 62
7
  6
CONTINUOUS
 10
5.4665859041
 20
3.1149233648
 30
0.0
 11
5.4672639783
 21
3.1151150005
 31
0.0
  0
LINE
  5
222
100
AcDbEntity
  8
0
100
AcDbLine
 62
7
  6
CONTINUOUS
 10
5.1249229054
 20
3.0320353165
 30
0.0
 11
5.124188483
 21
3.0318857859
 31
0.0
  0
LINE
  5
223
100
AcDbEntity
  8
0
100
AcDbLine
 62
7
  6
CONTINUOUS
 10
5.5110627978
 20
3.0875513408
 30
0.0
 11
5.5117704735
 21
3.0876116633
 31
0.0
  0
LINE
  5
224
100
AcDbEntity
  8
0
100
AcDbLine
 62
7
  6
CONTINUOUS
 10
5.1597612056
 20
3.070820485
 30
0.0
 11
5.1591435669
 21
3.0708139734
 31
0.0
  0
LINE
  5
225
100
AcDbEntity
  8
0
100
AcDbLine
 62
7
  6
CONTINUOUS
 10
5.5495399921
 20
3.0522593908
 30
0.0
 11
5.5502676375
 21
3.0521824376
 31
0.0
  0
LINE
  5
226
100
AcDbEntity
  8
0
100
AcDbLine
 62
7
  6
CONTINUOUS
 10
5.2015759544
 20
3.1022884461
 30
0.0
 11
5.2008341748
 21
3.1024233847
 31
0.0
  0
LINE
  5
227
100
AcDbEntity
  8
0
100
AcDbLine
 62
7
  6
CONTINUOUS
 10
5.5807176423
 20
3.0103047992
 30
0.0
 11
5.5813640826
 21
3.010107828
 31
0.0
  0
LINE
  5
228
100
AcDbEntity
  8
0
100
AcDbLine
 62
7
  6
CONTINUOUS
 10
5.2483423377
 20
3.1253430048
 30
0.0
 11
5.2477534996
 21
3.1255715734
 31
0.0
  0
LINE
  5
229
100
AcDbEntity
  8
0
100
AcDbLine
 62
7
  6
CONTINUOUS
 10
5.6032744987
 20
2.9632580529
 30
0.0
 11
5.6039359022
 21
2.9629085204
 31
0.0
  0
LINE
  5
22A
100
AcDbEntity
  8
0
100
AcDbLine
 62
7
  6
CONTINUOUS
 10
5.577016209
 20
2.7195324267
 30
0.0
 11
5.5765984479
 21
2.7198008827
 31
0.0
  0
LINE
  5
22B
100
AcDbEntity
  8
0
100
AcDbLine
 62
7
  6
CONTINUOUS
 10
5.1291814251
 20
3.0384341326
 30
0.0
 11
5.1295229756
 21
3.0381655556
 31
0.0
  0
LINE
  5
22C
100
AcDbEntity
  8
0
100
AcDbLine
 62
7
  6
CONTINUOUS
 10
5.544674844
 20
2.6784070357
 30
0.0
 11
5.5443403986
 21
2.6787259042
 31
0.0
  0
LINE
  5
22D
100
AcDbEntity
  8
0
100
AcDbLine
 62
7
  6
CONTINUOUS
 10
5.3140089904
 20
2.5954293407
 30
0.0
 11
5.3145056989
 21
2.5948680775
 31
0.0
  0
LINE
  5
22E
100
AcDbEntity
  8
0
100
AcDbLine
 62
7
  6
CONTINUOUS
 10
5.0728607569
 20
2.9020782847
 30
0.0
 11
5.0724546782
 21
2.9026609886
 31
0.0
  0
LINE
  5
22F
100
AcDbEntity
  8
0
100
AcDbLine
 62
7
  6
CONTINUOUS
 10
4.5575032367
 20
5.4867167796
 30
0.0
 11
4.5575032367
 21
3.4923167796
 31
0.0
  0
LINE
  5
230
100
AcDbEntity
  8
0
100
AcDbLine
 62
7
  6
CONTINUOUS
 10
5.2988392773
 20
3.1390240635
 30
0.0
 11
5.2982057545
 21
3.1394219035
 31
0.0
  0
LINE
  5
231
100
AcDbEntity
  8
0
100
AcDbLine
 62
7
  6
CONTINUOUS
 10
5.616674781
 20
2.9126859039
 30
0.0
 11
5.6171672919
 21
2.9122904209
 31
0.0
  0
LINE
  5
232
100
AcDbEntity
  8
0
100
AcDbLine
 62
7
  6
CONTINUOUS
 10
5.3508614229
 20
3.1430126079
 30
0.0
 11
5.3503674637
 21
3.1434737881
 31
0.0
  0
LINE
  5
233
100
AcDbEntity
  8
0
100
AcDbLine
 62
7
  6
CONTINUOUS
 10
5.1652855628
 20
3.0762990625
 30
0.0
 11
5.1656152851
 21
3.0759185722
 31
0.0
  0
LINE
  5
234
100
AcDbEntity
  8
0
100
AcDbLine
 62
7
  6
CONTINUOUS
 10
5.5051348983
 20
2.6441454776
 30
0.0
 11
5.5048548389
 21
2.6445387339
 31
0.0
  0
LINE
  5
235
100
AcDbEntity
  8
0
100
AcDbLine
 62
7
  6
CONTINUOUS
 10
5.2630008991
 20
2.6062076094
 30
0.0
 11
5.2633153577
 21
2.6056759744
 31
0.0
  0
LINE
  5
236
100
AcDbEntity
  8
0
100
AcDbLine
 62
7
  6
CONTINUOUS
 10
6.1095032367
 20
3.4683167796
 30
0.0
 11
4.5815032367
 21
3.4683167796
 31
0.0
  0
LINE
  5
237
100
AcDbEntity
  8
0
100
AcDbLine
 62
7
  6
CONTINUOUS
 10
6.1335032367
 20
3.4923167796
 30
0.0
 11
4.5575032367
 21
3.4923167796
 31
0.0
  0
LINE
  5
238
100
AcDbEntity
  8
0
100
AcDbLine
 62
7
  6
CONTINUOUS
 10
5.6200921181
 20
2.8606577884
 30
0.0
 11
5.6205800349
 21
2.8600829994
 31
0.0
  0
LINE
  5
239
100
AcDbEntity
  8
0
100
AcDbLine
 62
7
  6
CONTINUOUS
 10
5.4027840133
 20
3.1369892296
 30
0.0
 11
5.402353367
 21
3.1375807815
 31
0.0
  0
LINE
  5
23A
100
AcDbEntity
  8
0
100
AcDbLine
 62
7
  6
CONTINUOUS
 10
5.2079032367
 20
3.1066469707
 30
0.0
 11
5.2081032503
 21
3.1063005679
 31
0.0
  0
LINE
  5
23B
100
AcDbEntity
  8
0
100
AcDbLine
 62
7
  6
CONTINUOUS
 10
5.0841858849
 20
2.9530464875
 30
0.0
 11
5.0838887057
 21
2.9537151235
 31
0.0
  0
LINE
  5
23C
100
AcDbEntity
  8
0
100
AcDbLine
 62
7
  6
CONTINUOUS
 10
5.214841471
 20
2.6266862636
 30
0.0
 11
5.2150955005
 21
2.6259763943
 31
0.0
  0
LINE
  5
23D
100
AcDbEntity
  8
0
100
AcDbLine
 62
7
  6
CONTINUOUS
 10
5.6137474026
 20
2.8087112003
 30
0.0
 11
5.6140507856
 21
2.8081731682
 31
0.0
  0
LINE
  5
23E
100
AcDbEntity
  8
0
100
AcDbLine
 62
7
  6
CONTINUOUS
 10
5.4598254483
 20
2.6179860545
 30
0.0
 11
5.4596248744
 21
2.6184252053
 31
0.0
  0
LINE
  5
23F
100
AcDbEntity
  8
0
100
AcDbLine
 62
7
  6
CONTINUOUS
 10
5.2554941332
 20
3.1283810049
 30
0.0
 11
5.255658823
 21
3.1279052245
 31
0.0
  0
LINE
  5
240
100
AcDbEntity
  8
0
100
AcDbLine
 62
7
  6
CONTINUOUS
 10
5.104930802
 20
3.0010244204
 30
0.0
 11
5.1047781639
 21
3.0016827397
 31
0.0
  0
LINE
  5
241
100
AcDbEntity
  8
0
100
AcDbLine
 62
7
  6
CONTINUOUS
 10
5.1714924458
 20
2.6556598602
 30
0.0
 11
5.1715889187
 21
2.6550356271
 31
0.0
  0
LINE
  5
242
100
AcDbEntity
  8
0
100
AcDbLine
 62
7
  6
CONTINUOUS
 10
5.1343960513
 20
3.0440826042
 30
0.0
 11
5.1343680535
 21
3.0448301627
 31
0.0
  0
LINE
  5
243
100
AcDbEntity
  8
0
100
AcDbLine
 62
7
  6
CONTINUOUS
 10
5.1255032367
 20
3.4683167796
 30
0.0
 11
5.1255032367
 21
3.0336496211
 31
0.0
  0
LINE
  5
244
100
AcDbEntity
  8
0
100
AcDbLine
 62
7
  6
CONTINUOUS
 10
5.4525863601
 20
3.1213129418
 30
0.0
 11
5.4522845585
 21
3.1219558723
 31
0.0
  0
LINE
  5
245
100
AcDbEntity
  8
0
100
AcDbLine
 62
7
  6
CONTINUOUS
 10
5.5975776062
 20
2.7591478078
 30
0.0
 11
5.5978155283
 21
2.7584370839
 31
0.0
  0
LINE
  5
246
100
AcDbEntity
  8
0
100
AcDbLine
 62
7
  6
CONTINUOUS
 10
5.4103840958
 20
2.600874236
 30
0.0
 11
5.4102751356
 21
2.6013233008
 31
0.0
  0
LINE
  5
247
100
AcDbEntity
  8
0
100
AcDbLine
 62
7
  6
CONTINUOUS
 10
5.3063381933
 20
3.1407156404
 30
0.0
 11
5.3064000455
 21
3.140285566
 31
0.0
  0
LINE
  5
248
100
AcDbEntity
  8
0
100
AcDbLine
 62
7
  6
CONTINUOUS
 10
5.35859778
 20
2.5934284879
 30
0.0
 11
5.3585741326
 21
2.5939245055
 31
0.0
  0
LINE
  5
249
100
AcDbEntity
  8
0
100
AcDbLine
 62
7
  6
CONTINUOUS
 10
5.1343958316
 20
2.6925509633
 30
0.0
 11
5.1343680535
 21
2.6918033965
 31
0.0
  0
LINE
  5
24A
100
AcDbEntity
  8
0
100
AcDbLine
 62
7
  6
CONTINUOUS
 10
5.1714926758
 20
3.0809736636
 30
0.0
 11
5.1715889187
 21
3.081597932
 31
0.0
  0
LINE
  5
24B
100
AcDbEntity
  8
0
100
AcDbLine
 62
7
  6
CONTINUOUS
 10
5.4985296903
 20
3.0964807937
 30
0.0
 11
5.4983563948
 21
3.0971637855
 31
0.0
  0
LINE
  5
24C
100
AcDbEntity
  8
0
100
AcDbLine
 62
7
  6
CONTINUOUS
 10
5.5389463674
 20
3.0633669454
 30
0.0
 11
5.5389037198
 21
3.0641005716
 31
0.0
  0
LINE
  5
24D
100
AcDbEntity
  8
0
100
AcDbLine
 62
7
  6
CONTINUOUS
 10
5.35859778
 20
3.1432050714
 30
0.0
 11
5.3585741708
 21
3.1427090517
 31
0.0
  0
LINE
  5
24E
100
AcDbEntity
  8
0
100
AcDbLine
 62
7
  6
CONTINUOUS
 10
5.3063381933
 20
2.5959179188
 30
0.0
 11
5.3064000125
 21
2.5963479987
 31
0.0
  0
LINE
  5
24F
100
AcDbEntity
  8
0
100
AcDbLine
 62
7
  6
CONTINUOUS
 10
5.104930578
 20
2.7356091908
 30
0.0
 11
5.1047781639
 21
2.7349508195
 31
0.0
  0
LINE
  5
250
100
AcDbEntity
  8
0
100
AcDbLine
 62
7
  6
CONTINUOUS
 10
5.5723728805
 20
2.7133331702
 30
0.0
 11
5.5724610473
 21
2.712672338
 31
0.0
  0
LINE
  5
251
100
AcDbEntity
  8
0
100
AcDbLine
 62
7
  6
CONTINUOUS
 10
5.5655032367
 20
3.4683167796
 30
0.0
 11
5.5655032367
 21
3.0336427935
 31
0.0
  0
LINE
  5
252
100
AcDbEntity
  8
0
100
AcDbLine
 62
7
  6
CONTINUOUS
 10
5.5389461456
 20
2.6732666266
 30
0.0
 11
5.5389037198
 21
2.6725329877
 31
0.0
  0
LINE
  5
253
100
AcDbEntity
  8
0
100
AcDbLine
 62
7
  6
CONTINUOUS
 10
5.5723731091
 20
3.0233003585
 30
0.0
 11
5.5724610473
 21
3.0239612213
 31
0.0
  0
LINE
  5
254
100
AcDbEntity
  8
0
100
AcDbLine
 62
7
  6
CONTINUOUS
 10
5.4103840958
 20
3.1357593232
 30
0.0
 11
5.4102751703
 21
3.1353102507
 31
0.0
  0
LINE
  5
255
100
AcDbEntity
  8
0
100
AcDbLine
 62
7
  6
CONTINUOUS
 10
5.214841677
 20
3.1099472221
 30
0.0
 11
5.2150955005
 21
3.1106571649
 31
0.0
  0
LINE
  5
256
100
AcDbEntity
  8
0
100
AcDbLine
 62
7
  6
CONTINUOUS
 10
5.0841856815
 20
2.7835871622
 30
0.0
 11
5.0838887057
 21
2.7829184357
 31
0.0
  0
LINE
  5
257
100
AcDbEntity
  8
0
100
AcDbLine
 62
7
  6
CONTINUOUS
 10
5.4985294706
 20
2.6401528211
 30
0.0
 11
5.4983563948
 21
2.6394697738
 31
0.0
  0
LINE
  5
258
100
AcDbEntity
  8
0
100
AcDbLine
 62
7
  6
CONTINUOUS
 10
5.2554941332
 20
2.6082525543
 30
0.0
 11
5.2556587863
 21
2.6087283473
 31
0.0
  0
LINE
  5
259
100
AcDbEntity
  8
0
100
AcDbLine
 62
7
  6
CONTINUOUS
 10
5.4598254483
 20
3.1186475047
 30
0.0
 11
5.459624908
 21
3.1182083381
 31
0.0
  0
LINE
  5
25A
100
AcDbEntity
  8
0
100
AcDbLine
 62
7
  6
CONTINUOUS
 10
5.2630010997
 20
3.1304258313
 30
0.0
 11
5.2633153576
 21
3.1309575848
 31
0.0
  0
LINE
  5
25B
100
AcDbEntity
  8
0
100
AcDbLine
 62
7
  6
CONTINUOUS
 10
5.0728605715
 20
2.8345554037
 30
0.0
 11
5.0724546782
 21
2.8339725706
 31
0.0
  0
LINE
  5
25C
100
AcDbEntity
  8
0
100
AcDbLine
 62
7
  6
CONTINUOUS
 10
6.1335032367
 20
5.4867167796
 30
0.0
 11
6.1335032367
 21
3.4923167796
 31
0.0
  0
LINE
  5
25D
100
AcDbEntity
  8
0
100
AcDbLine
 62
7
  6
CONTINUOUS
 10
5.5975778144
 20
2.9774856817
 30
0.0
 11
5.5978155283
 21
2.9781964754
 31
0.0
  0
LINE
  5
25E
100
AcDbEntity
  8
0
100
AcDbLine
 62
7
  6
CONTINUOUS
 10
5.4525861556
 20
2.6153207133
 30
0.0
 11
5.4522845585
 21
2.614677687
 31
0.0
  0
LINE
  5
25F
100
AcDbEntity
  8
0
100
AcDbLine
 62
7
  6
CONTINUOUS
 10
5.2079032367
 20
2.6299865885
 30
0.0
 11
5.2081032236
 21
2.6303330067
 31
0.0
  0
LINE
  5
260
100
AcDbEntity
  8
0
100
AcDbLine
 62
7
  6
CONTINUOUS
 10
5.5051348983
 20
3.0924880816
 30
0.0
 11
5.5048548694
 21
3.0920948041
 31
0.0
  0
LINE
  5
261
100
AcDbEntity
  8
0
100
AcDbLine
 62
7
  6
CONTINUOUS
 10
5.3140091549
 20
3.1412040731
 30
0.0
 11
5.3145056989
 21
3.1417654817
 31
0.0
  0
LINE
  5
262
100
AcDbEntity
  8
0
100
AcDbLine
 62
7
  6
CONTINUOUS
 10
5.0713941775
 20
2.8867595688
 30
0.0
 11
5.0708893371
 21
2.8862679946
 31
0.0
  0
LINE
  5
263
100
AcDbEntity
  8
0
100
AcDbLine
 62
7
  6
CONTINUOUS
 10
5.6137476056
 20
2.9279222445
 30
0.0
 11
5.6140507857
 21
2.9284603911
 31
0.0
  0
LINE
  5
264
100
AcDbEntity
  8
0
100
AcDbLine
 62
7
  6
CONTINUOUS
 10
5.4027838332
 20
2.5996444606
 30
0.0
 11
5.402353367
 21
2.5990527778
 31
0.0
  0
LINE
  5
265
100
AcDbEntity
  8
0
100
AcDbLine
 62
7
  6
CONTINUOUS
 10
5.1652855628
 20
2.6603344968
 30
0.0
 11
5.1656152559
 21
2.6607150125
 31
0.0
  0
LINE
  5
266
100
AcDbEntity
  8
0
100
AcDbLine
 62
7
  6
CONTINUOUS
 10
5.544674844
 20
3.0582265236
 30
0.0
 11
5.5443404227
 21
3.0579076289
 31
0.0
  0
LINE
  5
267
100
AcDbEntity
  8
0
100
AcDbLine
 62
7
  6
CONTINUOUS
 10
5.3662881578
 20
3.1422834591
 30
0.0
 11
5.3668163719
 21
3.14269023
 31
0.0
  0
LINE
  5
268
100
AcDbEntity
  8
0
100
AcDbLine
 62
7
  6
CONTINUOUS
 10
5.0798632729
 20
2.938318362
 30
0.0
 11
5.0792492578
 21
2.937914615
 31
0.0
  0
LINE
  5
269
100
AcDbEntity
  8
0
100
AcDbLine
 62
7
  6
CONTINUOUS
 10
5.2523805421
 20
3.1327749614
 30
0.0
 11
5.252651928
 21
3.1329440025
 31
0.0
  0
LINE
  5
26A
100
AcDbEntity
  8
0
100
AcDbLine
 62
7
  6
CONTINUOUS
 10
5.4177001698
 20
3.1333683293
 30
0.0
 11
5.4183567327
 21
3.133698407
 31
0.0
  0
LINE
  5
26B
100
AcDbEntity
  8
0
100
AcDbLine
 62
7
  6
CONTINUOUS
 10
5.6200922848
 20
2.8759756293
 30
0.0
 11
5.6205800349
 21
2.8765505598
 31
0.0
  0
LINE
  5
26C
100
AcDbEntity
  8
0
100
AcDbLine
 62
7
  6
CONTINUOUS
 10
5.3508612659
 20
2.5936211193
 30
0.0
 11
5.3503674637
 21
2.5931597712
 31
0.0
  0
LINE
  5
26D
100
AcDbEntity
  8
0
100
AcDbLine
 62
7
  6
CONTINUOUS
 10
5.1291814251
 20
2.6981994266
 30
0.0
 11
5.1295229543
 21
2.6984680294
 31
0.0
  0
LINE
  5
26E
100
AcDbEntity
  8
0
100
AcDbLine
 62
7
  6
CONTINUOUS
 10
5.577016209
 20
3.0171011326
 30
0.0
 11
5.5765984688
 21
3.0168326446
 31
0.0
  0
LINE
  5
26F
100
AcDbEntity
  8
0
100
AcDbLine
 62
7
  6
CONTINUOUS
 10
5.1008957213
 20
2.7422128408
 30
0.0
 11
5.1013370915
 21
2.7424404045
 31
0.0
  0
LINE
  5
270
100
AcDbEntity
  8
0
100
AcDbLine
 62
7
  6
CONTINUOUS
 10
5.0978485841
 20
2.987300063
 30
0.0
 11
5.097232291
 21
2.9870457883
 31
0.0
  0
LINE
  5
271
100
AcDbEntity
  8
0
100
AcDbLine
 62
7
  6
CONTINUOUS
 10
5.6166749267
 20
2.8239474739
 30
0.0
 11
5.617167292
 21
2.8243431384
 31
0.0
  0
LINE
  5
272
100
AcDbEntity
  8
0
100
AcDbLine
 62
7
  6
CONTINUOUS
 10
5.2988391603
 20
2.5976096818
 30
0.0
 11
5.2982057545
 21
2.5972116558
 31
0.0
  0
LINE
  5
273
100
AcDbEntity
  8
0
100
AcDbLine
 62
7
  6
CONTINUOUS
 10
5.6009900919
 20
2.9705982874
 30
0.0
 11
5.6005867221
 21
2.9704367845
 31
0.0
  0
LINE
  5
274
100
AcDbEntity
  8
0
100
AcDbLine
 62
7
  6
CONTINUOUS
 10
5.0814507704
 20
2.79078398
 30
0.0
 11
5.0818941414
 21
2.790914184
 31
0.0
  0
LINE
  5
275
100
AcDbEntity
  8
0
100
AcDbLine
 62
7
  6
CONTINUOUS
 10
7.7045953389
 20
5.4867167796
 30
0.0
 11
2.9864111346
 21
5.4867167796
 31
0.0
  0
LINE
  5
276
100
AcDbEntity
  8
0
100
AcDbLine
 62
7
  6
CONTINUOUS
 10
7.7205344541
 20
5.5013222877
 30
0.0
 11
2.9704720194
 21
5.5013222877
 31
0.0
  0
LINE
  5
277
100
AcDbEntity
  8
0
100
AcDbLine
 62
7
  6
CONTINUOUS
 10
5.6032746013
 20
2.773375312
 30
0.0
 11
5.6039359023
 21
2.7737250388
 31
0.0
  0
LINE
  5
278
100
AcDbEntity
  8
0
100
AcDbLine
 62
7
  6
CONTINUOUS
 10
5.2483422534
 20
2.6112907714
 30
0.0
 11
5.2477534996
 21
2.6110619859
 31
0.0
  0
LINE
  5
279
100
AcDbEntity
  8
0
100
AcDbLine
 62
7
  6
CONTINUOUS
 10
5.5807177093
 20
2.7263285401
 30
0.0
 11
5.5813640827
 21
2.7265257313
 31
0.0
  0
LINE
  5
27A
100
AcDbEntity
  8
0
100
AcDbLine
 62
7
  6
CONTINUOUS
 10
7.7455032367
 20
5.7867167796
 30
0.0
 11
2.9455032367
 21
5.7867167796
 31
0.0
  0
LINE
  5
27B
100
AcDbEntity
  8
0
100
AcDbLine
 62
7
  6
CONTINUOUS
 10
7.7455032367
 20
5.7867167796
 30
0.0
 11
7.7205344541
 21
5.5013222877
 31
0.0
  0
ARC
  5
27C
100
AcDbEntity
  8
0
100
AcDbCircle
 62
7
  6
CONTINUOUS
 10
5.3247306744
 20
2.9505102906
 30
0.0
 40
0.2150238387
100
AcDbArc
 50
51.9967378856
 51
53.3487409963
  0
ARC
  5
27D
100
AcDbEntity
  8
0
100
AcDbCircle
 62
7
  6
CONTINUOUS
 10
5.3280604755
 20
2.9550505249
 30
0.0
 40
0.2093935851
100
AcDbArc
 50
53.3381201088
 51
55.9388113805
  0
ARC
  5
27E
100
AcDbEntity
  8
0
100
AcDbCircle
 62
7
  6
CONTINUOUS
 10
5.3301394201
 20
2.9581028071
 30
0.0
 40
0.2057005821
100
AcDbArc
 50
55.9423668637
 51
56.4418401323
  0
ARC
  5
27F
100
AcDbEntity
  8
0
100
AcDbCircle
 62
7
  6
CONTINUOUS
 10
5.3319996435
 20
2.9609385663
 30
0.0
 40
0.2023091732
100
AcDbArc
 50
56.4369154115
 51
58.2656819877
  0
ARC
  5
280
100
AcDbEntity
  8
0
100
AcDbCircle
 62
7
  6
CONTINUOUS
 10
5.3339190236
 20
2.9640467367
 30
0.0
 40
0.1986561283
100
AcDbArc
 50
58.264985878
 51
59.552699905
  0
ARC
  5
281
100
AcDbEntity
  8
0
100
AcDbCircle
 62
7
  6
CONTINUOUS
 10
5.3352809945
 20
2.966370567
 30
0.0
 40
0.1959625916
100
AcDbArc
 50
59.5516936224
 51
60.6957734438
  0
ARC
  5
282
100
AcDbEntity
  8
0
100
AcDbCircle
 62
7
  6
CONTINUOUS
 10
5.3369009216
 20
2.9692869667
 30
0.0
 40
0.1926265268
100
AcDbArc
 50
60.6913735358
 51
62.6704255536
  0
ARC
  5
283
100
AcDbEntity
  8
0
100
AcDbCircle
 62
7
  6
CONTINUOUS
 10
4.5815032367
 20
3.4923167796
 30
0.0
 40
0.024
100
AcDbArc
 50
180.0
 51
270.0
  0
ARC
  5
284
100
AcDbEntity
  8
0
100
AcDbCircle
 62
7
  6
CONTINUOUS
 10
2.9864111346
 20
5.5027167796
 30
0.0
 40
0.016
100
AcDbArc
 50
185.0
 51
270.0
  0
ARC
  5
285
100
AcDbEntity
  8
0
100
AcDbCircle
 62
7
  6
CONTINUOUS
 10
5.3455032367
 20
2.8683167796
 30
0.0
 40
0.2752
100
AcDbArc
 50
99.8963212883
 51
110.7531966461
  0
ARC
  5
286
100
AcDbEntity
  8
0
100
AcDbCircle
 62
7
  6
CONTINUOUS
 10
5.3455032367
 20
2.8683167796
 30
0.0
 40
0.2752
100
AcDbArc
 50
88.9872303792
 51
99.8441057364
  0
ARC
  5
287
100
AcDbEntity
  8
0
100
AcDbCircle
 62
7
  6
CONTINUOUS
 10
5.3455032367
 20
2.8683167796
 30
0.0
 40
0.2752
100
AcDbArc
 50
78.0781394701
 51
88.935014828
  0
ARC
  5
288
100
AcDbEntity
  8
0
100
AcDbCircle
 62
7
  6
CONTINUOUS
 10
5.3455032367
 20
2.8683167796
 30
0.0
 40
0.2752
100
AcDbArc
 50
67.1690485611
 51
78.0259239192
  0
ARC
  5
289
100
AcDbEntity
  8
0
100
AcDbCircle
 62
7
  6
CONTINUOUS
 10
5.3455032367
 20
2.8683167796
 30
0.0
 40
0.2752
100
AcDbArc
 50
56.259957652
 51
67.1168330092
  0
ARC
  5
28A
100
AcDbEntity
  8
0
100
AcDbCircle
 62
7
  6
CONTINUOUS
 10
5.3455032367
 20
2.8683167796
 30
0.0
 40
0.2752
100
AcDbArc
 50
52.8831552917
 51
56.2077421003
  0
ARC
  5
28B
100
AcDbEntity
  8
0
100
AcDbCircle
 62
7
  6
CONTINUOUS
 10
5.3455032367
 20
2.8683167796
 30
0.0
 40
0.2752
100
AcDbArc
 50
45.3508667429
 51
52.8309514005
  0
ARC
  5
28C
100
AcDbEntity
  8
0
100
AcDbCircle
 62
7
  6
CONTINUOUS
 10
5.3455032367
 20
2.8683167796
 30
0.0
 40
0.2752
100
AcDbArc
 50
41.9740643827
 51
45.2986511916
  0
ARC
  5
28D
100
AcDbEntity
  8
0
100
AcDbCircle
 62
7
  6
CONTINUOUS
 10
5.3455032367
 20
2.8683167796
 30
0.0
 40
0.2752
100
AcDbArc
 50
34.4417758338
 51
41.9218604915
  0
ARC
  5
28E
100
AcDbEntity
  8
0
100
AcDbCircle
 62
7
  6
CONTINUOUS
 10
5.3455032367
 20
2.8683167796
 30
0.0
 40
0.2752
100
AcDbArc
 50
31.0649734726
 51
34.3895602826
  0
ARC
  5
28F
100
AcDbEntity
  8
0
100
AcDbCircle
 62
7
  6
CONTINUOUS
 10
5.3455032367
 20
2.8683167796
 30
0.0
 40
0.2752
100
AcDbArc
 50
23.5326849247
 51
31.0127695824
  0
ARC
  5
290
100
AcDbEntity
  8
0
100
AcDbCircle
 62
7
  6
CONTINUOUS
 10
5.3455032367
 20
2.8683167796
 30
0.0
 40
0.2752
100
AcDbArc
 50
20.1558825666
 51
23.4804693727
  0
ARC
  5
291
100
AcDbEntity
  8
0
100
AcDbCircle
 62
7
  6
CONTINUOUS
 10
5.3455032367
 20
2.8683167796
 30
0.0
 40
0.2752
100
AcDbArc
 50
12.6235940156
 51
20.1036786733
  0
ARC
  5
292
100
AcDbEntity
  8
0
100
AcDbCircle
 62
7
  6
CONTINUOUS
 10
5.3455032367
 20
2.8683167796
 30
0.0
 40
0.2752
100
AcDbArc
 50
9.2467916533
 51
12.5713784641
  0
ARC
  5
293
100
AcDbEntity
  8
0
100
AcDbCircle
 62
7
  6
CONTINUOUS
 10
5.3455032367
 20
2.8683167796
 30
0.0
 40
0.2752
100
AcDbArc
 50
1.7145031065
 51
9.1945877642
  0
ARC
  5
294
100
AcDbEntity
  8
0
100
AcDbCircle
 62
7
  6
CONTINUOUS
 10
5.3455032367
 20
2.8683167796
 30
0.0
 40
0.2752
100
AcDbArc
 50
358.3377010733
 51
1.6622875554
  0
ARC
  5
295
100
AcDbEntity
  8
0
100
AcDbCircle
 62
7
  6
CONTINUOUS
 10
5.3455032367
 20
2.8683167796
 30
0.0
 40
0.2752
100
AcDbArc
 50
350.8054121974
 51
358.2854968551
  0
ARC
  5
296
100
AcDbEntity
  8
0
100
AcDbCircle
 62
7
  6
CONTINUOUS
 10
5.3455032367
 20
2.8683167796
 30
0.0
 40
0.2752
100
AcDbArc
 50
339.8963212883
 51
350.753196646
  0
ARC
  5
297
100
AcDbEntity
  8
0
100
AcDbCircle
 62
7
  6
CONTINUOUS
 10
5.3455032367
 20
2.8683167796
 30
0.0
 40
0.2752
100
AcDbArc
 50
328.9872303792
 51
339.8441057364
  0
ARC
  5
298
100
AcDbEntity
  8
0
100
AcDbCircle
 62
7
  6
CONTINUOUS
 10
5.3455032367
 20
2.8683167796
 30
0.0
 40
0.2752
100
AcDbArc
 50
325.6104280284
 51
328.935014828
  0
ARC
  5
299
100
AcDbEntity
  8
0
100
AcDbCircle
 62
7
  6
CONTINUOUS
 10
5.3455032367
 20
2.8683167796
 30
0.0
 40
0.2752
100
AcDbArc
 50
318.0781394701
 51
325.5582241278
  0
ARC
  5
29A
100
AcDbEntity
  8
0
100
AcDbCircle
 62
7
  6
CONTINUOUS
 10
5.3455032367
 20
2.8683167796
 30
0.0
 40
0.2752
100
AcDbArc
 50
314.7013371203
 51
318.0259239192
  0
ARC
  5
29B
100
AcDbEntity
  8
0
100
AcDbCircle
 62
7
  6
CONTINUOUS
 10
5.3455032367
 20
2.8683167796
 30
0.0
 40
0.2752
100
AcDbArc
 50
307.1690485611
 51
314.6491332187
  0
ARC
  5
29C
100
AcDbEntity
  8
0
100
AcDbCircle
 62
7
  6
CONTINUOUS
 10
5.3455032367
 20
2.8683167796
 30
0.0
 40
0.2752
100
AcDbArc
 50
303.7922462065
 51
307.1168330092
  0
ARC
  5
29D
100
AcDbEntity
  8
0
100
AcDbCircle
 62
7
  6
CONTINUOUS
 10
5.3455032367
 20
2.8683167796
 30
0.0
 40
0.2752
100
AcDbArc
 50
296.259957652
 51
303.7400423096
  0
ARC
  5
29E
100
AcDbEntity
  8
0
100
AcDbCircle
 62
7
  6
CONTINUOUS
 10
5.3455032367
 20
2.8683167796
 30
0.0
 40
0.2752
100
AcDbArc
 50
285.3508667429
 51
296.2077421003
  0
ARC
  5
29F
100
AcDbEntity
  8
0
100
AcDbCircle
 62
7
  6
CONTINUOUS
 10
5.3455032367
 20
2.8683167796
 30
0.0
 40
0.2752
100
AcDbArc
 50
274.4417758338
 51
285.2986511916
  0
ARC
  5
2A0
100
AcDbEntity
  8
0
100
AcDbCircle
 62
7
  6
CONTINUOUS
 10
5.3455032367
 20
2.8683167796
 30
0.0
 40
0.2752
100
AcDbArc
 50
263.5326849247
 51
274.3895602826
  0
ARC
  5
2A1
100
AcDbEntity
  8
0
100
AcDbCircle
 62
7
  6
CONTINUOUS
 10
5.3455032367
 20
2.8683167796
 30
0.0
 40
0.2752
100
AcDbArc
 50
252.6235940156
 51
263.4804693727
  0
ARC
  5
2A2
100
AcDbEntity
  8
0
100
AcDbCircle
 62
7
  6
CONTINUOUS
 10
5.3455032367
 20
2.8683167796
 30
0.0
 40
0.2752
100
AcDbArc
 50
241.7145031065
 51
252.5713784641
  0
ARC
  5
2A3
100
AcDbEntity
  8
0
100
AcDbCircle
 62
7
  6
CONTINUOUS
 10
5.3455032367
 20
2.8683167796
 30
0.0
 40
0.2752
100
AcDbArc
 50
238.3377007564
 51
241.6622875553
  0
ARC
  5
2A4
100
AcDbEntity
  8
0
100
AcDbCircle
 62
7
  6
CONTINUOUS
 10
5.3455032367
 20
2.8683167796
 30
0.0
 40
0.2752
100
AcDbArc
 50
230.8054121974
 51
238.2854968551
  0
ARC
  5
2A5
100
AcDbEntity
  8
0
100
AcDbCircle
 62
7
  6
CONTINUOUS
 10
5.3455032367
 20
2.8683167796
 30
0.0
 40
0.2752
100
AcDbArc
 50
227.4286098466
 51
230.7531966458
  0
ARC
  5
2A6
100
AcDbEntity
  8
0
100
AcDbCircle
 62
7
  6
CONTINUOUS
 10
5.3455032367
 20
2.8683167796
 30
0.0
 40
0.2752
100
AcDbArc
 50
219.8963212883
 51
227.376405946
  0
ARC
  5
2A7
100
AcDbEntity
  8
0
100
AcDbCircle
 62
7
  6
CONTINUOUS
 10
5.3455032367
 20
2.8683167796
 30
0.0
 40
0.2752
100
AcDbArc
 50
216.5195189318
 51
219.8441057365
  0
ARC
  5
2A8
100
AcDbEntity
  8
0
100
AcDbCircle
 62
7
  6
CONTINUOUS
 10
5.3455032367
 20
2.8683167796
 30
0.0
 40
0.2752
100
AcDbArc
 50
208.9872303792
 51
216.4673150369
  0
ARC
  5
2A9
100
AcDbEntity
  8
0
100
AcDbCircle
 62
7
  6
CONTINUOUS
 10
5.3455032367
 20
2.8683167796
 30
0.0
 40
0.2752
100
AcDbArc
 50
198.0781394701
 51
208.9350148279
  0
ARC
  5
2AA
100
AcDbEntity
  8
0
100
AcDbCircle
 62
7
  6
CONTINUOUS
 10
5.3455032367
 20
2.8683167796
 30
0.0
 40
0.2752
100
AcDbArc
 50
194.7013371168
 51
198.025923919
  0
ARC
  5
2AB
100
AcDbEntity
  8
0
100
AcDbCircle
 62
7
  6
CONTINUOUS
 10
5.3455032367
 20
2.8683167796
 30
0.0
 40
0.2752
100
AcDbArc
 50
187.169048561
 51
194.6491332187
  0
ARC
  5
2AC
100
AcDbEntity
  8
0
100
AcDbCircle
 62
7
  6
CONTINUOUS
 10
5.3455032367
 20
2.8683167796
 30
0.0
 40
0.2752
100
AcDbArc
 50
176.259957652
 51
187.1168330091
  0
ARC
  5
2AD
100
AcDbEntity
  8
0
100
AcDbCircle
 62
7
  6
CONTINUOUS
 10
5.3455032367
 20
2.8683167796
 30
0.0
 40
0.2752
100
AcDbArc
 50
165.3508667429
 51
176.2077421003
  0
ARC
  5
2AE
100
AcDbEntity
  8
0
100
AcDbCircle
 62
7
  6
CONTINUOUS
 10
5.3455032367
 20
2.8683167796
 30
0.0
 40
0.2752
100
AcDbArc
 50
154.4417758338
 51
165.2986511916
  0
ARC
  5
2AF
100
AcDbEntity
  8
0
100
AcDbCircle
 62
7
  6
CONTINUOUS
 10
5.3455032367
 20
2.8683167796
 30
0.0
 40
0.2752
100
AcDbArc
 50
143.5326849247
 51
154.3895602826
  0
ARC
  5
2B0
100
AcDbEntity
  8
0
100
AcDbCircle
 62
7
  6
CONTINUOUS
 10
5.3455032367
 20
2.8683167796
 30
0.0
 40
0.2752
100
AcDbArc
 50
140.155882572
 51
143.4804693727
  0
ARC
  5
2B1
100
AcDbEntity
  8
0
100
AcDbCircle
 62
7
  6
CONTINUOUS
 10
5.3455032367
 20
2.8683167796
 30
0.0
 40
0.2752
100
AcDbArc
 50
132.6235940156
 51
140.1036786733
  0
ARC
  5
2B2
100
AcDbEntity
  8
0
100
AcDbCircle
 62
7
  6
CONTINUOUS
 10
5.3455032367
 20
2.8683167796
 30
0.0
 40
0.2752
100
AcDbArc
 50
129.2467916567
 51
132.5713784641
  0
ARC
  5
2B3
100
AcDbEntity
  8
0
100
AcDbCircle
 62
7
  6
CONTINUOUS
 10
5.3455032367
 20
2.8683167796
 30
0.0
 40
0.2752
100
AcDbArc
 50
121.7145031065
 51
129.1945877642
  0
ARC
  5
2B4
100
AcDbEntity
  8
0
100
AcDbCircle
 62
7
  6
CONTINUOUS
 10
5.3455032367
 20
2.8683167796
 30
0.0
 40
0.2752
100
AcDbArc
 50
110.8054121974
 51
121.6622875554
  0
CIRCLE
  5
2B5
100
AcDbEntity
  8
0
100
AcDbCircle
 62
7
  6
CONTINUOUS
 10
5.3455032367
 20
2.8683167796
 30
0.0
 40
0.2748
  0
CIRCLE
  5
2B6
100
AcDbEntity
  8
0
100
AcDbCircle
 62
7
  6
CONTINUOUS
 10
5.3455032367
 20
2.8683167796
 30
0.0
 40
0.2508
  0
ARC
  5
2B7
100
AcDbEntity
  8
0
100
AcDbCircle
 62
7
  6
CONTINUOUS
 10
5.3665907357
 20
2.9500972656
 30
0.0
 40
0.2155431485
100
AcDbArc
 50
126.6605580894
 51
128.0047073506
  0
ARC
  5
2B8
100
AcDbEntity
  8
0
100
AcDbCircle
 62
7
  6
CONTINUOUS
 10
5.3644371255
 20
2.9529840219
 30
0.0
 40
0.2119415679
100
AcDbArc
 50
125.1464164219
 51
126.6594785445
  0
ARC
  5
2B9
100
AcDbEntity
  8
0
100
AcDbCircle
 62
7
  6
CONTINUOUS
 10
5.3626808916
 20
2.9554542639
 30
0.0
 40
0.2089106846
100
AcDbArc
 50
124.8088864921
 51
125.1425754902
  0
ARC
  5
2BA
100
AcDbEntity
  8
0
100
AcDbCircle
 62
7
  6
CONTINUOUS
 10
5.3619195329
 20
2.9565505356
 30
0.0
 40
0.2075759643
100
AcDbArc
 50
124.0582445839
 51
124.8090728256
  0
ARC
  5
2BB
100
AcDbEntity
  8
0
100
AcDbCircle
 62
7
  6
CONTINUOUS
 10
5.3598869446
 20
2.9595681065
 30
0.0
 40
0.20393768
100
AcDbArc
 50
121.8315425136
 51
124.0599332529
  0
ARC
  5
2BC
100
AcDbEntity
  8
0
100
AcDbCircle
 62
7
  6
CONTINUOUS
 10
5.3573374055
 20
2.9636329549
 30
0.0
 40
0.1991394825
100
AcDbArc
 50
120.4299269404
 51
121.7330394121
  0
ARC
  5
2BD
100
AcDbEntity
  8
0
100
AcDbCircle
 62
7
  6
CONTINUOUS
 10
5.3559197859
 20
2.9660334531
 30
0.0
 40
0.196351653
100
AcDbArc
 50
119.3045590753
 51
120.4280223654
  0
ARC
  5
2BE
100
AcDbEntity
  8
0
100
AcDbCircle
 62
7
  6
CONTINUOUS
 10
5.3548832816
 20
2.9678700117
 30
0.0
 40
0.1942427992
100
AcDbArc
 50
118.4959262535
 51
119.3030971578
  0
ARC
  5
2BF
100
AcDbEntity
  8
0
100
AcDbCircle
 62
7
  6
CONTINUOUS
 10
5.3539654844
 20
2.9695587635
 30
0.0
 40
0.1923207603
100
AcDbArc
 50
117.3115057434
 51
118.4956551717
  0
CIRCLE
  5
2C0
100
AcDbEntity
  8
0
100
AcDbCircle
 62
7
  6
CONTINUOUS
 10
5.3455032367
 20
3.9883167796
 30
0.0
 40
0.104
  0
CIRCLE
  5
2C1
100
AcDbEntity
  8
0
100
AcDbCircle
 62
7
  6
CONTINUOUS
 10
5.3455032367
 20
3.9883167796
 30
0.0
 40
0.0712727273
  0
ARC
  5
2C2
100
AcDbEntity
  8
0
100
AcDbCircle
 62
7
  6
CONTINUOUS
 10
6.1095032367
 20
3.4923167796
 30
0.0
 40
0.024
100
AcDbArc
 50
270.0
 51
360.0
  0
ARC
  5
2C3
100
AcDbEntity
  8
0
100
AcDbCircle
 62
7
  6
CONTINUOUS
 10
7.7045953389
 20
5.5027167796
 30
0.0
 40
0.016
100
AcDbArc
 50
270.0
 51
355.0
  0
SPLINE
  5
2C4
100
AcDbEntity
  8
0
100
AcDbSpline
 62
7
  6
CONTINUOUS
 70
0
 71
3
 72
10
 73
6
 74
0
 42
0.0000001
 43
0.0000001
 44
0.0000000001
 40
0.0
 40
0.0
 40
0.0
 40
0.0
 40
0.2830629328
 40
0.5431319378
 40
1.0
 40
1.0
 40
1.0
 40
1.0
 10
5.6204821978
 20
2.8572890424
 30
0.0
 10
5.6204755611
 20
2.8571235556
 30
0.0
 10
5.6204475287
 20
2.856805832
 30
0.0
 10
5.6203252845
 20
2.856234144
 30
0.0
 10
5.6201380274
 20
2.8558410741
 30
0.0
 10
5.6199628817
 20
2.8556391328
 30
0.0
  0
SPLINE
  5
2C5
100
AcDbEntity
  8
0
100
AcDbSpline
 62
7
  6
CONTINUOUS
 70
0
 71
3
 72
10
 73
6
 74
0
 42
0.0000001
 43
0.0000001
 44
0.0000000001
 40
0.0
 40
0.0
 40
0.0
 40
0.0
 40
0.220082321
 40
0.583377802
 40
1.0
 40
1.0
 40
1.0
 40
1.0
 10
5.6173622958
 20
2.8288887032
 30
0.0
 10
5.617435658
 20
2.82877593
 30
0.0
 10
5.6175873725
 20
2.8284481574
 30
0.0
 10
5.617676263
 20
2.8278348356
 30
0.0
 10
5.6176381214
 20
2.8273569284
 30
0.0
 10
5.6175999827
 20
2.8271051207
 30
0.0
  0
SPLINE
  5
2C6
100
AcDbEntity
  8
0
100
AcDbSpline
 62
7
  6
CONTINUOUS
 70
0
 71
3
 72
11
 73
7
 74
0
 42
0.0000001
 43
0.0000001
 44
0.0000000001
 40
0.0
 40
0.0
 40
0.0
 40
0.0
 40
0.2833692208
 40
0.5428670418
 40
0.779964327
 40
1.0
 40
1.0
 40
1.0
 40
1.0
 10
5.6134259567
 20
2.8054482175
 30
0.0
 10
5.6133868244
 20
2.8052814496
 30
0.0
 10
5.6132961354
 20
2.8049652174
 30
0.0
 10
5.613107704
 20
2.8045311448
 30
0.0
 10
5.6128693029
 20
2.8041664586
 30
0.0
 10
5.6126681745
 20
2.8039719994
 30
0.0
 10
5.6125606079
 20
2.8038937581
 30
0.0
  0
SPLINE
  5
2C7
100
AcDbEntity
  8
0
100
AcDbSpline
 62
7
  6
CONTINUOUS
 70
0
 71
3
 72
10
 73
6
 74
0
 42
0.0000001
 43
0.0000001
 44
0.0000000001
 40
0.0
 40
0.0
 40
0.0
 40
0.0
 40
0.4581235917
 40
0.7180077452
 40
1.0
 40
1.0
 40
1.0
 40
1.0
 10
5.605030516
 20
2.7780312792
 30
0.0
 10
5.6051073389
 20
2.777782515
 30
0.0
 10
5.6051263675
 20
2.7773610699
 30
0.0
 10
5.6050267006
 20
2.7768019696
 30
0.0
 10
5.6049370349
 20
2.7765062679
 30
0.0
 10
5.6048834823
 20
2.7763552213
 30
0.0
  0
SPLINE
  5
2C8
100
AcDbEntity
  8
0
100
AcDbSpline
 62
7
  6
CONTINUOUS
 70
0
 71
3
 72
11
 73
7
 74
0
 42
0.0000001
 43
0.0000001
 44
0.0000000001
 40
0.0
 40
0.0
 40
0.0
 40
0.0
 40
0.2830983564
 40
0.5425791456
 40
0.7798387869
 40
1.0
 40
1.0
 40
1.0
 40
1.0
 10
5.5966862905
 20
2.7558796261
 30
0.0
 10
5.5966169331
 20
2.7557246825
 30
0.0
 10
5.5964694408
 20
2.755433792
 30
0.0
 10
5.5962052258
 20
2.7550459508
 30
0.0
 10
5.5959058377
 20
2.7547341294
 30
0.0
 10
5.595674596
 20
2.7545805761
 30
0.0
 10
5.5955556402
 20
2.7545233185
 30
0.0
  0
SPLINE
  5
2C9
100
AcDbEntity
  8
0
100
AcDbSpline
 62
7
  6
CONTINUOUS
 70
0
 71
3
 72
10
 73
6
 74
0
 42
0.0000001
 43
0.0000001
 44
0.0000000001
 40
0.0
 40
0.0
 40
0.0
 40
0.0
 40
0.2200179583
 40
0.5831857414
 40
1.0
 40
1.0
 40
1.0
 40
1.0
 10
5.5832326825
 20
2.730682381
 30
0.0
 10
5.5832598711
 20
2.7305499689
 30
0.0
 10
5.5832808883
 20
2.7301875992
 30
0.0
 10
5.5831359982
 20
2.7295816566
 30
0.0
 10
5.5829220087
 20
2.7291498571
 30
0.0
 10
5.582792304
 20
2.7289290522
 30
0.0
  0
SPLINE
  5
2CA
100
AcDbEntity
  8
0
100
AcDbSpline
 62
7
  6
CONTINUOUS
 70
0
 71
3
 72
10
 73
6
 74
0
 42
0.0000001
 43
0.0000001
 44
0.0000000001
 40
0.0
 40
0.0
 40
0.0
 40
0.0
 40
0.283531505
 40
0.5436663601
 40
1.0
 40
1.0
 40
1.0
 40
1.0
 10
5.5708682143
 20
2.7103748065
 30
0.0
 10
5.5707718493
 20
2.7102373047
 30
0.0
 10
5.5705737367
 20
2.7099819578
 30
0.0
 10
5.5701557624
 20
2.7095631837
 30
0.0
 10
5.5697789016
 20
2.7093337784
 30
0.0
 10
5.5695184583
 20
2.7092616702
 30
0.0
  0
SPLINE
  5
2CB
100
AcDbEntity
  8
0
100
AcDbSpline
 62
7
  6
CONTINUOUS
 70
0
 71
3
 72
10
 73
6
 74
0
 42
0.0000001
 43
0.0000001
 44
0.0000000001
 40
0.0
 40
0.0
 40
0.0
 40
0.0
 40
0.4592280645
 40
0.7189331865
 40
1.0
 40
1.0
 40
1.0
 40
1.0
 10
5.5528801628
 20
2.687998754
 30
0.0
 10
5.55285236
 20
2.6877458552
 30
0.0
 10
5.5527112035
 20
2.6873603572
 30
0.0
 10
5.5524159124
 20
2.6868919713
 30
0.0
 10
5.5522277355
 20
2.6866576321
 30
0.0
 10
5.5521248806
 20
2.6865407188
 30
0.0
  0
SPLINE
  5
2CC
100
AcDbEntity
  8
0
100
AcDbSpline
 62
7
  6
CONTINUOUS
 70
0
 71
3
 72
10
 73
6
 74
0
 42
0.0000001
 43
0.0000001
 44
0.0000000001
 40
0.0
 40
0.0
 40
0.0
 40
0.0
 40
0.2840363761
 40
0.6646625502
 40
1.0
 40
1.0
 40
1.0
 40
1.0
 10
5.5369048606
 20
2.6705784212
 30
0.0
 10
5.5367808058
 20
2.6704583419
 30
0.0
 10
5.5364762412
 20
2.6701917206
 30
0.0
 10
5.5359579783
 20
2.6698647285
 30
0.0
 10
5.5355271917
 20
2.6697478042
 30
0.0
 10
5.5353235979
 20
2.6697378841
 30
0.0
  0
SPLINE
  5
2CD
100
AcDbEntity
  8
0
100
AcDbSpline
 62
7
  6
CONTINUOUS
 70
0
 71
3
 72
10
 73
6
 74
0
 42
0.0000001
 43
0.0000001
 44
0.0000000001
 40
0.0
 40
0.0
 40
0.0
 40
0.0
 40
0.2200397175
 40
0.5832515813
 40
1.0
 40
1.0
 40
1.0
 40
1.0
 10
5.5150495181
 20
2.6521831415
 30
0.0
 10
5.515025285
 20
2.6520503805
 30
0.0
 10
5.5149096941
 20
2.6517069511
 30
0.0
 10
5.5145502537
 20
2.6511994569
 30
0.0
 10
5.5141917096
 20
2.6508787322
 30
0.0
 10
5.5139896126
 20
2.6507222458
 30
0.0
  0
LINE
  5
2CE
100
AcDbEntity
  8
0
100
AcDbLine
 62
7
  6
CONTINUOUS
 10
5.4960237536
 20
2.6379288155
 30
0.0
 11
5.4948031724
 21
2.6374103102
 31
0.0
  0
LINE
  5
2CF
100
AcDbEntity
  8
0
100
AcDbLine
 62
7
  6
CONTINUOUS
 10
5.4948031724
 20
2.6374103102
 30
0.0
 11
5.4944093216
 21
2.6373921653
 31
0.0
  0
SPLINE
  5
2D0
100
AcDbEntity
  8
0
100
AcDbSpline
 62
7
  6
CONTINUOUS
 70
0
 71
3
 72
10
 73
6
 74
0
 42
0.0000001
 43
0.0000001
 44
0.0000000001
 40
0.0
 40
0.0
 40
0.0
 40
0.0
 40
0.4576169802
 40
0.7175782704
 40
1.0
 40
1.0
 40
1.0
 40
1.0
 10
5.4710368092
 20
2.6238980918
 30
0.0
 10
5.4709226914
 20
2.623660994
 30
0.0
 10
5.4706444868
 20
2.6233367475
 30
0.0
 10
5.4701820112
 20
2.6229957938
 30
0.0
 10
5.4699097045
 20
2.6228415321
 30
0.0
 10
5.469764808
 20
2.6227682062
 30
0.0
  0
LINE
  5
2D1
100
AcDbEntity
  8
0
100
AcDbLine
 62
7
  6
CONTINUOUS
 10
5.4497024428
 20
2.613606031
 30
0.0
 11
5.4490098955
 21
2.6133870664
 31
0.0
  0
LINE
  5
2D2
100
AcDbEntity
  8
0
100
AcDbLine
 62
7
  6
CONTINUOUS
 10
5.4490098955
 20
2.6133870664
 30
0.0
 11
5.447907428
 21
2.6134185322
 31
0.0
  0
SPLINE
  5
2D3
100
AcDbEntity
  8
0
100
AcDbSpline
 62
7
  6
CONTINUOUS
 70
0
 71
3
 72
10
 73
6
 74
0
 42
0.0000001
 43
0.0000001
 44
0.0000000001
 40
0.0
 40
0.0
 40
0.0
 40
0.0
 40
0.2201501875
 40
0.583572303
 40
1.0
 40
1.0
 40
1.0
 40
1.0
 10
5.4225674826
 20
2.604638171
 30
0.0
 10
5.4224949792
 20
2.6045256029
 30
0.0
 10
5.4222596032
 20
2.6042540255
 30
0.0
 10
5.4217406854
 20
2.6039212886
 30
0.0
 10
5.4212924105
 20
2.6037584585
 30
0.0
 10
5.4210488665
 20
2.6036889318
 30
0.0
  0
SPLINE
  5
2D4
100
AcDbEntity
  8
0
100
AcDbSpline
 62
7
  6
CONTINUOUS
 70
0
 71
3
 72
10
 73
6
 74
0
 42
0.0000001
 43
0.0000001
 44
0.0000000001
 40
0.0
 40
0.0
 40
0.0
 40
0.0
 40
0.281064985
 40
0.5407700029
 40
1.0
 40
1.0
 40
1.0
 40
1.0
 10
5.3996151013
 20
2.5984891567
 30
0.0
 10
5.3994624296
 20
2.5984585395
 30
0.0
 10
5.3991654078
 20
2.5984127443
 30
0.0
 10
5.3986121451
 20
2.5983912048
 30
0.0
 10
5.3982077271
 20
2.5984616981
 30
0.0
 10
5.3979748114
 20
2.5985640585
 30
0.0
  0
SPLINE
  5
2D5
100
AcDbEntity
  8
0
100
AcDbSpline
 62
7
  6
CONTINUOUS
 70
0
 71
3
 72
10
 73
6
 74
0
 42
0.0000001
 43
0.0000001
 44
0.0000000001
 40
0.0
 40
0.0
 40
0.0
 40
0.0
 40
0.4564240372
 40
0.7165523802
 40
1.0
 40
1.0
 40
1.0
 40
1.0
 10
5.3712392384
 20
2.5947841836
 30
0.0
 10
5.3710464067
 20
2.5945954294
 30
0.0
 10
5.3706597756
 20
2.5943846336
 30
0.0
 10
5.3700890342
 20
2.5942324703
 30
0.0
 10
5.3697694392
 20
2.5941886718
 30
0.0
 10
5.369602509
 20
2.5941739973
 30
0.0
  0
SPLINE
  5
2D6
100
AcDbEntity
  8
0
100
AcDbSpline
 62
7
  6
CONTINUOUS
 70
0
 71
3
 72
10
 73
6
 74
0
 42
0.0000001
 43
0.0000001
 44
0.0000000001
 40
0.0
 40
0.0
 40
0.0
 40
0.0
 40
0.284391154
 40
0.6649436322
 40
1.0
 40
1.0
 40
1.0
 40
1.0
 10
5.347572016
 20
2.5931245556
 30
0.0
 10
5.3473974038
 20
2.593123243
 30
0.0
 10
5.3469887248
 20
2.5931408748
 30
0.0
 10
5.3463820495
 20
2.593264738
 30
0.0
 10
5.3459873338
 20
2.5934831766
 30
0.0
 10
5.3458334888
 20
2.5936197591
 30
0.0
  0
SPLINE
  5
2D7
100
AcDbEntity
  8
0
100
AcDbSpline
 62
7
  6
CONTINUOUS
 70
0
 71
3
 72
11
 73
7
 74
0
 42
0.0000001
 43
0.0000001
 44
0.0000000001
 40
0.0
 40
0.0
 40
0.0
 40
0.0
 40
0.2201603767
 40
0.4574184911
 40
0.7168991759
 40
1.0
 40
1.0
 40
1.0
 40
1.0
 10
5.3190251435
 20
2.5948683725
 30
0.0
 10
5.3189160787
 20
2.5947939711
 30
0.0
 10
5.3186674711
 20
2.594670466
 30
0.0
 10
5.3182477131
 20
2.5945670807
 30
0.0
 10
5.3177796995
 20
2.5945321763
 30
0.0
 10
5.3174540156
 20
2.5945498897
 30
0.0
 10
5.3172851411
 20
2.5945672973
 30
0.0
  0
SPLINE
  5
2D8
100
AcDbEntity
  8
0
100
AcDbSpline
 62
7
  6
CONTINUOUS
 70
0
 71
3
 72
10
 73
6
 74
0
 42
0.0000001
 43
0.0000001
 44
0.0000000001
 40
0.0
 40
0.0
 40
0.0
 40
0.0
 40
0.2819902549
 40
0.5418743209
 40
1.0
 40
1.0
 40
1.0
 40
1.0
 10
5.2954541597
 20
2.5977061186
 30
0.0
 10
5.2952965798
 20
2.5977352627
 30
0.0
 10
5.2949956736
 20
2.5978054576
 30
0.0
 10
5.2944616624
 20
2.5979986828
 30
0.0
 10
5.2941062022
 20
2.5982258672
 30
0.0
 10
5.2939291747
 20
2.5984167664
 30
0.0
  0
SPLINE
  5
2D9
100
AcDbEntity
  8
0
100
AcDbSpline
 62
7
  6
CONTINUOUS
 70
0
 71
3
 72
11
 73
7
 74
0
 42
0.0000001
 43
0.0000001
 44
0.0000000001
 40
0.0
 40
0.0
 40
0.0
 40
0.0
 40
0.2200348039
 40
0.4571304091
 40
0.716628104
 40
1.0
 40
1.0
 40
1.0
 40
1.0
 10
5.2677666255
 20
2.6048268482
 30
0.0
 10
5.2676450807
 20
2.6047728007
 30
0.0
 10
5.2673760992
 20
2.6046958261
 30
0.0
 10
5.2669410464
 20
2.6046716912
 30
0.0
 10
5.2664708825
 20
2.6047255375
 30
0.0
 10
5.2661516516
 20
2.604805119
 30
0.0
 10
5.2659876487
 20
2.6048546168
 30
0.0
  0
SPLINE
  5
2DA
100
AcDbEntity
  8
0
100
AcDbSpline
 62
7
  6
CONTINUOUS
 70
0
 71
3
 72
10
 73
6
 74
0
 42
0.0000001
 43
0.0000001
 44
0.0000000001
 40
0.0
 40
0.0
 40
0.0
 40
0.0
 40
0.284214492
 40
0.6648047631
 40
1.0
 40
1.0
 40
1.0
 40
1.0
 10
5.2451452073
 20
2.6120682559
 30
0.0
 10
5.2449835295
 20
2.6121315759
 30
0.0
 10
5.2446125776
 20
2.6122988476
 30
0.0
 10
5.2440976145
 20
2.6126368751
 30
0.0
 10
5.2438123154
 20
2.6129832568
 30
0.0
 10
5.2437194752
 20
2.613165783
 30
0.0
  0
SPLINE
  5
2DB
100
AcDbEntity
  8
0
100
AcDbSpline
 62
7
  6
CONTINUOUS
 70
0
 71
3
 72
10
 73
6
 74
0
 42
0.0000001
 43
0.0000001
 44
0.0000000001
 40
0.0
 40
0.0
 40
0.0
 40
0.0
 40
0.4568656172
 40
0.7169347015
 40
1.0
 40
1.0
 40
1.0
 40
1.0
 10
5.2192526586
 20
2.6242889487
 30
0.0
 10
5.2189901918
 20
2.6242382215
 30
0.0
 10
5.2185561323
 20
2.6242725741
 30
0.0
 10
5.2179998867
 20
2.624452554
 30
0.0
 10
5.2177106989
 20
2.6245871452
 30
0.0
 10
5.2175640568
 20
2.6246641453
 30
0.0
  0
SPLINE
  5
2DC
100
AcDbEntity
  8
0
100
AcDbSpline
 62
7
  6
CONTINUOUS
 70
0
 71
3
 72
10
 73
6
 74
0
 42
0.0000001
 43
0.0000001
 44
0.0000000001
 40
0.0
 40
0.0
 40
0.0
 40
0.0
 40
0.2830629328
 40
0.5431319378
 40
1.0
 40
1.0
 40
1.0
 40
1.0
 10
5.1984634557
 20
2.6356918825
 30
0.0
 10
5.1983234582
 20
2.6357803734
 30
0.0
 10
5.1980623177
 20
2.6359635119
 30
0.0
 10
5.1976283435
 20
2.6363552226
 30
0.0
 10
5.1973815635
 20
2.6367139269
 30
0.0
 10
5.19729425
 20
2.6369665782
 30
0.0
  0
SPLINE
  5
2DD
100
AcDbEntity
  8
0
100
AcDbSpline
 62
7
  6
CONTINUOUS
 70
0
 71
3
 72
10
 73
6
 74
0
 42
0.0000001
 43
0.0000001
 44
0.0000000001
 40
0.0
 40
0.0
 40
0.0
 40
0.0
 40
0.2200823192
 40
0.5833777947
 40
1.0
 40
1.0
 40
1.0
 40
1.0
 10
5.1754279917
 20
2.6525939665
 30
0.0
 10
5.1752936462
 20
2.6525868195
 30
0.0
 10
5.1749339294
 20
2.6526193171
 30
0.0
 10
5.1743583318
 20
2.6528489966
 30
0.0
 10
5.1739635227
 20
2.6531209819
 30
0.0
 10
5.1737645202
 20
2.6532799148
 30
0.0
  0
SPLINE
  5
2DE
100
AcDbEntity
  8
0
100
AcDbSpline
 62
7
  6
CONTINUOUS
 70
0
 71
3
 72
10
 73
6
 74
0
 42
0.0000001
 43
0.0000001
 44
0.0000000001
 40
0.0
 40
0.0
 40
0.0
 40
0.0
 40
0.2846117501
 40
0.6651138581
 40
1.0
 40
1.0
 40
1.0
 40
1.0
 10
5.1570961048
 20
2.6677231789
 30
0.0
 10
5.1569679249
 20
2.6678435716
 30
0.0
 10
5.1566825628
 20
2.6681403958
 30
0.0
 10
5.1563275249
 20
2.6686525946
 30
0.0
 10
5.1561941495
 20
2.6690866947
 30
0.0
 10
5.1561786737
 20
2.6692930319
 30
0.0
  0
SPLINE
  5
2DF
100
AcDbEntity
  8
0
100
AcDbSpline
 62
7
  6
CONTINUOUS
 70
0
 71
3
 72
10
 73
6
 74
0
 42
0.0000001
 43
0.0000001
 44
0.0000000001
 40
0.0
 40
0.0
 40
0.0
 40
0.0
 40
0.4581235865
 40
0.7180077404
 40
1.0
 40
1.0
 40
1.0
 40
1.0
 10
5.1375500603
 20
2.688702313
 30
0.0
 10
5.1372962127
 20
2.6887601646
 30
0.0
 10
5.1369217162
 20
2.6889544078
 30
0.0
 10
5.1364873546
 20
2.689320272
 30
0.0
 10
5.1362761022
 20
2.6895457756
 30
0.0
 10
5.1361720683
 20
2.6896676769
 30
0.0
  0
LINE
  5
2E0
100
AcDbEntity
  8
0
100
AcDbLine
 62
7
  6
CONTINUOUS
 10
5.1225382786
 20
2.7070044508
 30
0.0
 11
5.1219654762
 21
2.7081836319
 31
0.0
  0
LINE
  5
2E1
100
AcDbEntity
  8
0
100
AcDbLine
 62
7
  6
CONTINUOUS
 10
5.1219654762
 20
2.7081836319
 30
0.0
 11
5.1219292935
 21
2.7086648966
 31
0.0
  0
SPLINE
  5
2E2
100
AcDbEntity
  8
0
100
AcDbSpline
 62
7
  6
CONTINUOUS
 70
0
 71
3
 72
10
 73
6
 74
0
 42
0.0000001
 43
0.0000001
 44
0.0000000001
 40
0.0
 40
0.0
 40
0.0
 40
0.0
 40
0.2200179566
 40
0.583185734
 40
1.0
 40
1.0
 40
1.0
 40
1.0
 10
5.1074436285
 20
2.7312542396
 30
0.0
 10
5.107315362
 20
2.7312968996
 30
0.0
 10
5.1069910319
 20
2.731459883
 30
0.0
 10
5.1065387152
 20
2.7318883328
 30
0.0
 10
5.1062717606
 20
2.732289553
 30
0.0
 10
5.1061453902
 20
2.732512283
 30
0.0
  0
LINE
  5
2E3
100
AcDbEntity
  8
0
100
AcDbLine
 62
7
  6
CONTINUOUS
 10
5.0960389869
 20
2.7521159705
 30
0.0
 11
5.0957873176
 21
2.7527973147
 31
0.0
  0
LINE
  5
2E4
100
AcDbEntity
  8
0
100
AcDbLine
 62
7
  6
CONTINUOUS
 10
5.0957873176
 20
2.7527973147
 30
0.0
 11
5.0957490328
 21
2.7538384181
 31
0.0
  0
SPLINE
  5
2E5
100
AcDbEntity
  8
0
100
AcDbSpline
 62
7
  6
CONTINUOUS
 70
0
 71
3
 72
10
 73
6
 74
0
 42
0.0000001
 43
0.0000001
 44
0.0000000001
 40
0.0
 40
0.0
 40
0.0
 40
0.0
 40
0.4592280596
 40
0.7189331821
 40
1.0
 40
1.0
 40
1.0
 40
1.0
 10
5.0856547829
 20
2.7788821062
 30
0.0
 10
5.0854496675
 20
2.7790326335
 30
0.0
 10
5.0851863946
 20
2.7793476277
 30
0.0
 10
5.084928406
 20
2.7798375503
 30
0.0
 10
5.0848195508
 20
2.7801176859
 30
0.0
 10
5.0847697283
 20
2.7802652175
 30
0.0
  0
LINE
  5
2E6
100
AcDbEntity
  8
0
100
AcDbLine
 62
7
  6
CONTINUOUS
 10
5.0785559831
 20
2.8014272902
 30
0.0
 11
5.078437807
 21
2.8021439503
 31
0.0
  0
LINE
  5
2E7
100
AcDbEntity
  8
0
100
AcDbLine
 62
7
  6
CONTINUOUS
 10
5.078437807
 20
2.8021439503
 30
0.0
 11
5.0786186879
 21
2.8032169725
 31
0.0
  0
SPLINE
  5
2E8
100
AcDbEntity
  8
0
100
AcDbSpline
 62
7
  6
CONTINUOUS
 70
0
 71
3
 72
10
 73
6
 74
0
 42
0.0000001
 43
0.0000001
 44
0.0000000001
 40
0.0
 40
0.0
 40
0.0
 40
0.0
 40
0.2200397158
 40
0.5832515741
 40
1.0
 40
1.0
 40
1.0
 40
1.0
 10
5.0735528751
 20
2.8295522118
 30
0.0
 10
5.0734500172
 20
2.8296395788
 30
0.0
 10
5.073210394
 20
2.8299113981
 30
0.0
 10
5.0729506112
 20
2.8304764298
 30
0.0
 10
5.0728521275
 20
2.8309473005
 30
0.0
 10
5.0728176548
 20
2.8312005649
 30
0.0
  0
SPLINE
  5
2E9
100
AcDbEntity
  8
0
100
AcDbSpline
 62
7
  6
CONTINUOUS
 70
0
 71
3
 72
10
 73
6
 74
0
 42
0.0000001
 43
0.0000001
 44
0.0000000001
 40
0.0
 40
0.0
 40
0.0
 40
0.0
 40
0.2824193931
 40
0.5423805627
 40
1.0
 40
1.0
 40
1.0
 40
1.0
 10
5.0707211487
 20
2.8531561703
 30
0.0
 10
5.070712203
 20
2.8533183088
 30
0.0
 10
5.0707096437
 20
2.8536312486
 30
0.0
 10
5.070773672
 20
2.8542022163
 30
0.0
 10
5.070915356
 20
2.8546052571
 30
0.0
 10
5.071063612
 20
2.8548226345
 30
0.0
  0
SPLINE
  5
2EA
100
AcDbEntity
  8
0
100
AcDbSpline
 62
7
  6
CONTINUOUS
 70
0
 71
3
 72
10
 73
6
 74
0
 42
0.0000001
 43
0.0000001
 44
0.0000000001
 40
0.0
 40
0.0
 40
0.0
 40
0.0
 40
0.457616974
 40
0.7175782647
 40
1.0
 40
1.0
 40
1.0
 40
1.0
 10
5.0710636578
 20
2.8818108606
 30
0.0
 10
5.070915384
 20
2.8820282384
 30
0.0
 10
5.0707736805
 20
2.882431294
 30
0.0
 10
5.0707096438
 20
2.8830022865
 30
0.0
 10
5.0707122025
 20
2.8833152419
 30
0.0
 10
5.0707211487
 20
2.8834773889
 30
0.0
  0
SPLINE
  5
2EB
100
AcDbEntity
  8
0
100
AcDbSpline
 62
7
  6
CONTINUOUS
 70
0
 71
3
 72
37
 73
33
 74
0
 42
0.0000001
 43
0.0000001
 44
0.0000000001
 40
0.0
 40
0.0
 40
0.0
 40
0.0
 40
0.0312902944
 40
0.0626030661
 40
0.0938849837
 40
0.1251430206
 40
0.1407710281
 40
0.1563958194
 40
0.1876218314
 40
0.218834906
 40
0.2500434205
 40
0.2812542638
 40
0.3124749895
 40
0.3437094903
 40
0.3749620705
 40
0.4374568592
 40
0.4999999815
 40
0.5625431052
 40
0.6250378945
 40
0.6562904751
 40
0.6875249755
 40
0.7187457015
 40
0.7499565434
 40
0.7811650583
 40
0.8123781315
 40
0.8436041446
 40
0.8592289348
 40
0.8748569413
 40
0.9061149801
 40
0.9373969074
 40
0.9687096979
 40
1.0
 40
1.0
 40
1.0
 40
1.0
 10
5.3455032367
 20
3.8483167796
 30
0.0
 10
5.3410932389
 20
3.8483167796
 30
0.0
 10
5.332262498
 20
3.848811929
 30
0.0
 10
5.3191880613
 20
3.8510094088
 30
0.0
 10
5.3064395843
 20
3.8546339215
 30
0.0
 10
5.296208998
 20
3.858782433
 30
0.0
 10
5.2883319155
 20
3.86273622
 30
0.0
 10
5.2806765434
 20
3.8670946973
 30
0.0
 10
5.2715508957
 20
3.873278317
 30
0.0
 10
5.2614158772
 20
3.8817667067
 30
0.0
 10
5.2521710813
 20
3.8912133388
 30
0.0
 10
5.2438830385
 20
3.901509653
 30
0.0
 10
5.2366029983
 20
3.9125448776
 30
0.0
 10
5.2303752762
 20
3.9242133972
 30
0.0
 10
5.2235220366
 20
3.9404620082
 30
0.0
 10
5.2177363888
 20
3.9618477903
 30
0.0
 10
5.2154113623
 20
3.9883167719
 30
0.0
 10
5.2177363861
 20
4.0147857539
 30
0.0
 10
5.2235220314
 20
4.036171537
 30
0.0
 10
5.2303752701
 20
4.0524201485
 30
0.0
 10
5.2366029904
 20
4.0640886692
 30
0.0
 10
5.2438830301
 20
4.0751238939
 30
0.0
 10
5.2521710709
 20
4.0854202095
 30
0.0
 10
5.2614158662
 20
4.0948668417
 30
0.0
 10
5.2715508829
 20
4.1033552336
 30
0.0
 10
5.2806765306
 20
4.109538853
 30
0.0
 10
5.2883319014
 20
4.113897332
 30
0.0
 10
5.2962089833
 20
4.1178511204
 30
0.0
 10
5.3064395708
 20
4.1219996329
 30
0.0
 10
5.3191880513
 20
4.1256241491
 30
0.0
 10
5.3322624934
 20
4.127821628
 30
0.0
 10
5.3410932378
 20
4.1283167796
 30
0.0
 10
5.3455032367
 20
4.1283167796
 30
0.0
  0
SPLINE
  5
2EC
100
AcDbEntity
  8
0
100
AcDbSpline
 62
7
  6
CONTINUOUS
 70
0
 71
3
 72
10
 73
6
 74
0
 42
0.0000001
 43
0.0000001
 44
0.0000000001
 40
0.0
 40
0.0
 40
0.0
 40
0.0
 40
0.2843305578
 40
0.6648962492
 40
1.0
 40
1.0
 40
1.0
 40
1.0
 10
5.0728176548
 20
2.9054329944
 30
0.0
 10
5.0728411599
 20
2.9056056815
 30
0.0
 10
5.0729165971
 20
2.9060069771
 30
0.0
 10
5.0731249016
 20
2.9065889105
 30
0.0
 10
5.0733962452
 20
2.9069482864
 30
0.0
 10
5.0735527834
 20
2.9070812723
 30
0.0
  0
SPLINE
  5
2ED
100
AcDbEntity
  8
0
100
AcDbSpline
 62
7
  6
CONTINUOUS
 70
0
 71
3
 72
10
 73
6
 74
0
 42
0.0000001
 43
0.0000001
 44
0.0000000001
 40
0.0
 40
0.0
 40
0.0
 40
0.0
 40
0.2201501857
 40
0.583572296
 40
1.0
 40
1.0
 40
1.0
 40
1.0
 10
5.0786187404
 20
2.9334164891
 30
0.0
 10
5.0785575053
 20
2.9335355629
 30
0.0
 10
5.0784400003
 20
2.9338751933
 30
0.0
 10
5.0784113005
 20
2.9344909578
 30
0.0
 10
5.078494423
 20
2.9349605904
 30
0.0
 10
5.0785559831
 20
2.935206269
 30
0.0
  0
SPLINE
  5
2EE
100
AcDbEntity
  8
0
100
AcDbSpline
 62
7
  6
CONTINUOUS
 70
0
 71
3
 72
10
 73
6
 74
0
 42
0.0000001
 43
0.0000001
 44
0.0000000001
 40
0.0
 40
0.0
 40
0.0
 40
0.0
 40
0.281064985
 40
0.5407700029
 40
1.0
 40
1.0
 40
1.0
 40
1.0
 10
5.0847697283
 20
2.9563683417
 30
0.0
 10
5.084819549
 20
2.9565158679
 30
0.0
 10
5.0849284001
 20
2.9567959939
 30
0.0
 10
5.0851863776
 20
2.9572859033
 30
0.0
 10
5.0854496356
 20
2.9576008928
 30
0.0
 10
5.0856547402
 20
2.9577514236
 30
0.0
  0
SPLINE
  5
2EF
100
AcDbEntity
  8
0
100
AcDbSpline
 62
7
  6
CONTINUOUS
 70
0
 71
3
 72
10
 73
6
 74
0
 42
0.0000001
 43
0.0000001
 44
0.0000000001
 40
0.0
 40
0.0
 40
0.0
 40
0.0
 40
0.4564240302
 40
0.7165523737
 40
1.0
 40
1.0
 40
1.0
 40
1.0
 10
5.0957490591
 20
2.9827950462
 30
0.0
 10
5.095682009
 20
2.9830564204
 30
0.0
 10
5.0956927699
 20
2.9834966508
 30
0.0
 10
5.0958463634
 20
2.984067009
 30
0.0
 10
5.0959682302
 20
2.9843656857
 30
0.0
 10
5.0960389869
 20
2.9845175888
 30
0.0
  0
SPLINE
  5
2F0
100
AcDbEntity
  8
0
100
AcDbSpline
 62
7
  6
CONTINUOUS
 70
0
 71
3
 72
10
 73
6
 74
0
 42
0.0000001
 43
0.0000001
 44
0.0000000001
 40
0.0
 40
0.0
 40
0.0
 40
0.0
 40
0.284391154
 40
0.6649436322
 40
1.0
 40
1.0
 40
1.0
 40
1.0
 10
5.1061453902
 20
3.0041212762
 30
0.0
 10
5.1062315595
 20
3.0042731512
 30
0.0
 10
5.1064511686
 20
3.0046182617
 30
0.0
 10
5.106861775
 20
3.0050817263
 30
0.0
 10
5.1072483062
 20
3.0053143407
 30
0.0
 10
5.1074435126
 20
3.0053792832
 30
0.0
  0
SPLINE
  5
2F1
100
AcDbEntity
  8
0
100
AcDbSpline
 62
7
  6
CONTINUOUS
 70
0
 71
3
 72
11
 73
7
 74
0
 42
0.0000001
 43
0.0000001
 44
0.0000000001
 40
0.0
 40
0.0
 40
0.0
 40
0.0
 40
0.2201648844
 40
0.4574311826
 40
0.7169124665
 40
1.0
 40
1.0
 40
1.0
 40
1.0
 10
5.1219289659
 20
3.0279722127
 30
0.0
 10
5.1219191167
 20
3.0281038343
 30
0.0
 10
5.1219365418
 20
3.0283808051
 30
0.0
 10
5.1220569221
 20
3.0287958825
 30
0.0
 10
5.12226067
 20
3.0292185044
 30
0.0
 10
5.1224387996
 20
3.0294916092
 30
0.0
 10
5.1225382786
 20
3.0296291085
 30
0.0
  0
SPLINE
  5
2F2
100
AcDbEntity
  8
0
100
AcDbSpline
 62
7
  6
CONTINUOUS
 70
0
 71
3
 72
37
 73
33
 74
0
 42
0.0000001
 43
0.0000001
 44
0.0000000001
 40
0.0
 40
0.0
 40
0.0
 40
0.0
 40
0.0312902937
 40
0.0626030638
 40
0.0938849808
 40
0.1251430179
 40
0.1407710256
 40
0.1563958171
 40
0.1876218293
 40
0.2188349042
 40
0.2500434188
 40
0.2812542624
 40
0.3124749883
 40
0.3437094892
 40
0.3749620696
 40
0.4374568586
 40
0.4999999813
 40
0.5625431054
 40
0.6250378951
 40
0.6562904759
 40
0.6875249764
 40
0.7187457026
 40
0.7499565447
 40
0.7811650598
 40
0.8123781332
 40
0.8436041465
 40
0.859228937
 40
0.8748569437
 40
0.9061149827
 40
0.9373969095
 40
0.9687096985
 40
1.0
 40
1.0
 40
1.0
 40
1.0
 10
5.3455032367
 20
4.1283167796
 30
0.0
 10
5.3499132345
 20
4.1283167796
 30
0.0
 10
5.3587439751
 20
4.1278216304
 30
0.0
 10
5.3718184114
 20
4.1256241506
 30
0.0
 10
5.3845668882
 20
4.1219996381
 30
0.0
 10
5.3947974744
 20
4.1178511267
 30
0.0
 10
5.4026745571
 20
4.1138973397
 30
0.0
 10
5.4103299293
 20
4.1095388626
 30
0.0
 10
5.4194555771
 20
4.1033552428
 30
0.0
 10
5.4295905957
 20
4.0948668531
 30
0.0
 10
5.4388353917
 20
4.0854202209
 30
0.0
 10
5.4471234346
 20
4.0751239067
 30
0.0
 10
5.4544034749
 20
4.0640886821
 30
0.0
 10
5.4606311971
 20
4.0524201624
 30
0.0
 10
5.4674844368
 20
4.0361715514
 30
0.0
 10
5.4732700847
 20
4.0147857692
 30
0.0
 10
5.4755951112
 20
3.9883167874
 30
0.0
 10
5.4732700874
 20
3.9618478053
 30
0.0
 10
5.467484442
 20
3.940462022
 30
0.0
 10
5.4606312032
 20
3.9242134105
 30
0.0
 10
5.4544034829
 20
3.9125448897
 30
0.0
 10
5.4471234432
 20
3.901509665
 30
0.0
 10
5.4388354022
 20
3.8912133493
 30
0.0
 10
5.4295906068
 20
3.8817667171
 30
0.0
 10
5.41945559
 20
3.8732783253
 30
0.0
 10
5.4103299422
 20
3.8670947058
 30
0.0
 10
5.4026745712
 20
3.8627362269
 30
0.0
 10
5.3947974892
 20
3.8587824385
 30
0.0
 10
5.3845669018
 20
3.854633926
 30
0.0
 10
5.3718184214
 20
3.85100941
 30
0.0
 10
5.3587439798
 20
3.848811931
 30
0.0
 10
5.3499132356
 20
3.8483167796
 30
0.0
 10
5.3455032367
 20
3.8483167796
 30
0.0
  0
SPLINE
  5
2F3
100
AcDbEntity
  8
0
100
AcDbSpline
 62
7
  6
CONTINUOUS
 70
0
 71
3
 72
10
 73
6
 74
0
 42
0.0000001
 43
0.0000001
 44
0.0000000001
 40
0.0
 40
0.0
 40
0.0
 40
0.0
 40
0.2819902549
 40
0.5418743209
 40
1.0
 40
1.0
 40
1.0
 40
1.0
 10
5.1361720683
 20
3.0469658824
 30
0.0
 10
5.1362760978
 20
3.0470877784
 30
0.0
 10
5.1364873414
 20
3.0473132734
 30
0.0
 10
5.1369216849
 20
3.0476791281
 30
0.0
 10
5.1372961625
 20
3.0478733734
 30
0.0
 10
5.1375499998
 20
3.0479312341
 30
0.0
  0
SPLINE
  5
2F4
100
AcDbEntity
  8
0
100
AcDbSpline
 62
7
  6
CONTINUOUS
 70
0
 71
3
 72
11
 73
7
 74
0
 42
0.0000001
 43
0.0000001
 44
0.0000000001
 40
0.0
 40
0.0
 40
0.0
 40
0.0
 40
0.2200348017
 40
0.4571304026
 40
0.7166280973
 40
1.0
 40
1.0
 40
1.0
 40
1.0
 10
5.1561825681
 20
3.0673836252
 30
0.0
 10
5.156196534
 20
3.0675159099
 30
0.0
 10
5.1562643627
 20
3.067787342
 30
0.0
 10
5.1564609877
 20
3.0681761763
 30
0.0
 10
5.1567427019
 20
3.0685564271
 30
0.0
 10
5.156971237
 20
3.0687930985
 30
0.0
 10
5.1570961048
 20
3.0689103803
 30
0.0
  0
LINE
  5
2F5
100
AcDbEntity
  8
0
100
AcDbLine
 62
7
  6
CONTINUOUS
 10
5.1737645202
 20
3.0833536444
 30
0.0
 11
5.1749302874
 21
3.0839858255
 31
0.0
  0
LINE
  5
2F6
100
AcDbEntity
  8
0
100
AcDbLine
 62
7
  6
CONTINUOUS
 10
5.1749302874
 20
3.0839858255
 30
0.0
 11
5.1754278726
 21
3.0840396011
 31
0.0
  0
SPLINE
  5
2F7
100
AcDbEntity
  8
0
100
AcDbSpline
 62
7
  6
CONTINUOUS
 70
0
 71
3
 72
10
 73
6
 74
0
 42
0.0000001
 43
0.0000001
 44
0.0000000001
 40
0.0
 40
0.0
 40
0.0
 40
0.0
 40
0.4568656049
 40
0.71693469
 40
1.0
 40
1.0
 40
1.0
 40
1.0
 10
5.1972942249
 20
3.0996669026
 30
0.0
 10
5.1973815272
 20
3.0999195692
 30
0.0
 10
5.1976283072
 20
3.1002782996
 30
0.0
 10
5.1980622972
 20
3.1006700326
 30
0.0
 10
5.1983234506
 20
3.100853181
 30
0.0
 10
5.1984634557
 20
3.1009416768
 30
0.0
  0
LINE
  5
2F8
100
AcDbEntity
  8
0
100
AcDbLine
 62
7
  6
CONTINUOUS
 10
5.2175640568
 20
3.111969414
 30
0.0
 11
5.2182326543
 21
3.1122532179
 31
0.0
  0
LINE
  5
2F9
100
AcDbEntity
  8
0
100
AcDbLine
 62
7
  6
CONTINUOUS
 10
5.2182326543
 20
3.1122532179
 30
0.0
 11
5.2192525785
 21
3.1123446279
 31
0.0
  0
SPLINE
  5
2FA
100
AcDbEntity
  8
0
100
AcDbSpline
 62
7
  6
CONTINUOUS
 70
0
 71
3
 72
10
 73
6
 74
0
 42
0.0000001
 43
0.0000001
 44
0.0000000001
 40
0.0
 40
0.0
 40
0.0
 40
0.0
 40
0.2200823192
 40
0.5833777947
 40
1.0
 40
1.0
 40
1.0
 40
1.0
 10
5.2437194229
 20
3.123467669
 30
0.0
 10
5.2437804062
 20
3.1235875891
 30
0.0
 10
5.2439884083
 20
3.1238828642
 30
0.0
 10
5.2444751154
 20
3.1242665065
 30
0.0
 10
5.2449080661
 20
3.1244724286
 30
0.0
 10
5.2451452073
 20
3.1245653034
 30
0.0
  0
LINE
  5
2FB
100
AcDbEntity
  8
0
100
AcDbLine
 62
7
  6
CONTINUOUS
 10
5.2659876487
 20
3.1317789425
 30
0.0
 11
5.266697874
 21
3.1319310848
 31
0.0
  0
LINE
  5
2FC
100
AcDbEntity
  8
0
100
AcDbLine
 62
7
  6
CONTINUOUS
 10
5.266697874
 20
3.1319310848
 30
0.0
 11
5.2677665244
 21
3.1318067581
 31
0.0
  0
SPLINE
  5
2FD
100
AcDbEntity
  8
0
100
AcDbSpline
 62
7
  6
CONTINUOUS
 70
0
 71
3
 72
10
 73
6
 74
0
 42
0.0000001
 43
0.0000001
 44
0.0000000001
 40
0.0
 40
0.0
 40
0.0
 40
0.0
 40
0.4581235865
 40
0.7180077404
 40
1.0
 40
1.0
 40
1.0
 40
1.0
 10
5.293929134
 20
3.1382167465
 30
0.0
 10
5.2941061587
 20
3.1384076592
 30
0.0
 10
5.2944616265
 20
3.1386348611
 30
0.0
 10
5.2949956551
 20
3.1388280971
 30
0.0
 10
5.2952965731
 20
3.1388982953
 30
0.0
 10
5.2954541597
 20
3.1389274407
 30
0.0
  0
SPLINE
  5
2FE
100
AcDbEntity
  8
0
100
AcDbSpline
 62
7
  6
CONTINUOUS
 70
0
 71
3
 72
11
 73
7
 74
0
 42
0.0000001
 43
0.0000001
 44
0.0000000001
 40
0.0
 40
0.0
 40
0.0
 40
0.0
 40
0.2830983564
 40
0.5425791456
 40
0.7798387869
 40
1.0
 40
1.0
 40
1.0
 40
1.0
 10
5.3172851411
 20
3.142066262
 30
0.0
 10
5.317454005
 20
3.1420836684
 30
0.0
 10
5.3177796697
 20
3.1421013816
 30
0.0
 10
5.3182476575
 20
3.1420664853
 30
0.0
 10
5.3186673968
 20
3.1419631184
 30
0.0
 10
5.3189159986
 20
3.1418396338
 30
0.0
 10
5.3190250631
 20
3.1417652438
 30
0.0
  0
SPLINE
  5
2FF
100
AcDbEntity
  8
0
100
AcDbSpline
 62
7
  6
CONTINUOUS
 70
0
 71
3
 72
10
 73
6
 74
0
 42
0.0000001
 43
0.0000001
 44
0.0000000001
 40
0.0
 40
0.0
 40
0.0
 40
0.0
 40
0.2200179566
 40
0.583185734
 40
1.0
 40
1.0
 40
1.0
 40
1.0
 10
5.3458333993
 20
3.143013718
 30
0.0
 10
5.3459344772
 20
3.14310347
 30
0.0
 10
5.34623779
 20
3.1433028565
 30
0.0
 10
5.3468349968
 20
3.1434803493
 30
0.0
 10
5.347315941
 20
3.1435109287
 30
0.0
 10
5.347572016
 20
3.1435090036
 30
0.0
  0
SPLINE
  5
300
100
AcDbEntity
  8
0
100
AcDbSpline
 62
7
  6
CONTINUOUS
 70
0
 71
3
 72
29
 73
25
 74
0
 42
0.0000001
 43
0.0000001
 44
0.0000000001
 40
0.0
 40
0.0
 40
0.0
 40
0.0
 40
0.0625258469
 40
0.1250109896
 40
0.1874455613
 40
0.2498513462
 40
0.3122687875
 40
0.3435271277
 40
0.3747987417
 40
0.4060841484
 40
0.4373815366
 40
0.4686883726
 40
0.49999999
 40
0.5313116074
 40
0.5626184435
 40
0.5939158316
 40
0.6252012384
 40
0.656472852
 40
0.6877311924
 40
0.7501486338
 40
0.8125544198
 40
0.8749889939
 40
0.9374741469
 40
1.0
 40
1.0
 40
1.0
 40
1.0
 10
5.3455032367
 20
4.1043167796
 30
0.0
 10
5.3381690195
 20
4.1043167796
 30
0.0
 10
5.3234554482
 20
4.1026992242
 30
0.0
 10
5.3024791831
 20
4.0955908952
 30
0.0
 10
5.2834647954
 20
4.0842634556
 30
0.0
 10
5.2671361078
 20
4.0693620637
 30
0.0
 10
5.2561779703
 20
4.0545456113
 30
0.0
 10
5.2491884077
 20
4.0416442465
 30
0.0
 10
5.2448521844
 20
4.0315125214
 30
0.0
 10
5.2414541715
 20
4.0210254015
 30
0.0
 10
5.2390139821
 20
4.0102707634
 30
0.0
 10
5.237543241
 20
3.9993383675
 30
0.0
 10
5.2370533892
 20
3.9883167832
 30
0.0
 10
5.2375432403
 20
3.9772951988
 30
0.0
 10
5.239013981
 20
3.9663628029
 30
0.0
 10
5.2414541694
 20
3.9556081646
 30
0.0
 10
5.2448521821
 20
3.9451210446
 30
0.0
 10
5.2491884044
 20
3.9349893191
 30
0.0
 10
5.2561779666
 20
3.9220879541
 30
0.0
 10
5.267136103
 20
3.9072715007
 30
0.0
 10
5.2834647902
 20
3.8923701077
 30
0.0
 10
5.3024791784
 20
3.8810426658
 30
0.0
 10
5.3234554455
 20
3.8739343356
 30
0.0
 10
5.3381690188
 20
3.8723167796
 30
0.0
 10
5.3455032367
 20
3.8723167796
 30
0.0
  0
SPLINE
  5
301
100
AcDbEntity
  8
0
100
AcDbSpline
 62
7
  6
CONTINUOUS
 70
0
 71
3
 72
29
 73
25
 74
0
 42
0.0000001
 43
0.0000001
 44
0.0000000001
 40
0.0
 40
0.0
 40
0.0
 40
0.0
 40
0.0625258469
 40
0.1250109896
 40
0.1874455613
 40
0.2498513462
 40
0.3122687875
 40
0.3435271277
 40
0.3747987417
 40
0.4060841484
 40
0.4373815366
 40
0.4686883726
 40
0.49999999
 40
0.5313116074
 40
0.5626184435
 40
0.5939158316
 40
0.6252012384
 40
0.656472852
 40
0.6877311924
 40
0.7501486338
 40
0.8125544198
 40
0.8749889939
 40
0.9374741469
 40
1.0
 40
1.0
 40
1.0
 40
1.0
 10
5.3455032367
 20
3.8723167796
 30
0.0
 10
5.352837454
 20
3.8723167796
 30
0.0
 10
5.3675510253
 20
3.8739343351
 30
0.0
 10
5.3885272904
 20
3.8810426641
 30
0.0
 10
5.4075416781
 20
3.8923701036
 30
0.0
 10
5.4238703657
 20
3.9072714955
 30
0.0
 10
5.4348285032
 20
3.9220879479
 30
0.0
 10
5.4418180658
 20
3.9349893127
 30
0.0
 10
5.4461542891
 20
3.9451210378
 30
0.0
 10
5.449552302
 20
3.9556081578
 30
0.0
 10
5.4519924914
 20
3.9663627959
 30
0.0
 10
5.4534632325
 20
3.9772951918
 30
0.0
 10
5.4539530843
 20
3.9883167761
 30
0.0
 10
5.4534632332
 20
3.9993383604
 30
0.0
 10
5.4519924925
 20
4.0102707563
 30
0.0
 10
5.4495523041
 20
4.0210253947
 30
0.0
 10
5.4461542914
 20
4.0315125146
 30
0.0
 10
5.4418180691
 20
4.0416442401
 30
0.0
 10
5.4348285069
 20
4.0545456051
 30
0.0
 10
5.4238703704
 20
4.0693620585
 30
0.0
 10
5.4075416833
 20
4.0842634516
 30
0.0
 10
5.388527295
 20
4.0955908934
 30
0.0
 10
5.3675510279
 20
4.1026992236
 30
0.0
 10
5.3528374547
 20
4.1043167796
 30
0.0
 10
5.3455032367
 20
4.1043167796
 30
0.0
  0
SPLINE
  5
302
100
AcDbEntity
  8
0
100
AcDbSpline
 62
7
  6
CONTINUOUS
 70
0
 71
3
 72
10
 73
6
 74
0
 42
0.0000001
 43
0.0000001
 44
0.0000000001
 40
0.0
 40
0.0
 40
0.0
 40
0.0
 40
0.2834449446
 40
0.5435731924
 40
1.0
 40
1.0
 40
1.0
 40
1.0
 10
5.369602509
 20
3.1424595619
 30
0.0
 10
5.3697694286
 20
3.1424448884
 30
0.0
 10
5.3700890046
 20
3.1424010934
 30
0.0
 10
5.370659717
 20
3.1422489453
 30
0.0
 10
5.3710463339
 20
3.1420381774
 30
0.0
 10
5.3712391695
 20
3.1418494457
 30
0.0
  0
SPLINE
  5
303
100
AcDbEntity
  8
0
100
AcDbSpline
 62
7
  6
CONTINUOUS
 70
0
 71
3
 72
10
 73
6
 74
0
 42
0.0000001
 43
0.0000001
 44
0.0000000001
 40
0.0
 40
0.0
 40
0.0
 40
0.0
 40
0.4592280596
 40
0.7189331821
 40
1.0
 40
1.0
 40
1.0
 40
1.0
 10
5.3979747645
 20
3.1380694785
 30
0.0
 10
5.3982076827
 20
3.13817185
 30
0.0
 10
5.3986121121
 20
3.1382423539
 30
0.0
 10
5.3991653918
 20
3.1382208173
 30
0.0
 10
5.3994624239
 20
3.1381750209
 30
0.0
 10
5.3996151013
 20
3.1381444026
 30
0.0
  0
SPLINE
  5
304
100
AcDbEntity
  8
0
100
AcDbSpline
 62
7
  6
CONTINUOUS
 70
0
 71
3
 72
10
 73
6
 74
0
 42
0.0000001
 43
0.0000001
 44
0.0000000001
 40
0.0
 40
0.0
 40
0.0
 40
0.0
 40
0.2840363761
 40
0.6646625502
 40
1.0
 40
1.0
 40
1.0
 40
1.0
 10
5.4210488665
 20
3.1329446274
 30
0.0
 10
5.4212148857
 20
3.1328972325
 30
0.0
 10
5.4215980688
 20
3.1327667824
 30
0.0
 10
5.4221403836
 20
3.1324814496
 30
0.0
 10
5.4224570364
 20
3.1321668396
 30
0.0
 10
5.4225674244
 20
3.1319954823
 30
0.0
  0
SPLINE
  5
305
100
AcDbEntity
  8
0
100
AcDbSpline
 62
7
  6
CONTINUOUS
 70
0
 71
3
 72
10
 73
6
 74
0
 42
0.0000001
 43
0.0000001
 44
0.0000000001
 40
0.0
 40
0.0
 40
0.0
 40
0.0
 40
0.2200397158
 40
0.5832515741
 40
1.0
 40
1.0
 40
1.0
 40
1.0
 10
5.4479073171
 20
3.1232149853
 30
0.0
 10
5.448034408
 20
3.1232603794
 30
0.0
 10
5.448389622
 20
3.1233319895
 30
0.0
 10
5.4490088453
 20
3.1232744521
 30
0.0
 10
5.4494658731
 20
3.1231243062
 30
0.0
 10
5.4497024428
 20
3.1230275282
 30
0.0
  0
SPLINE
  5
306
100
AcDbEntity
  8
0
100
AcDbSpline
 62
7
  6
CONTINUOUS
 70
0
 71
3
 72
10
 73
6
 74
0
 42
0.0000001
 43
0.0000001
 44
0.0000000001
 40
0.0
 40
0.0
 40
0.0
 40
0.0
 40
0.2824193931
 40
0.5423805627
 40
1.0
 40
1.0
 40
1.0
 40
1.0
 10
5.469764808
 20
3.113865353
 30
0.0
 10
5.4699096968
 20
3.113792031
 30
0.0
 10
5.4701819903
 20
3.1136377775
 30
0.0
 10
5.4706444487
 20
3.1132968435
 30
0.0
 10
5.4709226503
 20
3.1129726212
 30
0.0
 10
5.4710367767
 20
3.112735539
 30
0.0
  0
SPLINE
  5
307
100
AcDbEntity
  8
0
100
AcDbSpline
 62
7
  6
CONTINUOUS
 70
0
 71
3
 72
10
 73
6
 74
0
 42
0.0000001
 43
0.0000001
 44
0.0000000001
 40
0.0
 40
0.0
 40
0.0
 40
0.0
 40
0.4576169742
 40
0.7175782649
 40
1.0
 40
1.0
 40
1.0
 40
1.0
 10
5.4944092432
 20
3.0992413863
 30
0.0
 10
5.4946716348
 20
3.0992611063
 30
0.0
 10
5.4950915428
 20
3.0991822973
 30
0.0
 10
5.4956180553
 20
3.0989522585
 30
0.0
 10
5.4958878032
 20
3.0987935649
 30
0.0
 10
5.4960237536
 20
3.0987047438
 30
0.0
  0
SPLINE
  5
308
100
AcDbEntity
  8
0
100
AcDbSpline
 62
7
  6
CONTINUOUS
 70
0
 71
3
 72
10
 73
6
 74
0
 42
0.0000001
 43
0.0000001
 44
0.0000000001
 40
0.0
 40
0.0
 40
0.0
 40
0.0
 40
0.2843305578
 40
0.6648962492
 40
1.0
 40
1.0
 40
1.0
 40
1.0
 10
5.5139896126
 20
3.0859113135
 30
0.0
 10
5.5141274115
 20
3.0858046139
 30
0.0
 10
5.514437225
 20
3.0855386355
 30
0.0
 10
5.5148370419
 20
3.0850672719
 30
0.0
 10
5.5150125988
 20
3.0846525935
 30
0.0
 10
5.5150494988
 20
3.0844505344
 30
0.0
  0
SPLINE
  5
309
100
AcDbEntity
  8
0
100
AcDbSpline
 62
7
  6
CONTINUOUS
 70
0
 71
3
 72
10
 73
6
 74
0
 42
0.0000001
 43
0.0000001
 44
0.0000000001
 40
0.0
 40
0.0
 40
0.0
 40
0.0
 40
0.2201501858
 40
0.5835722963
 40
1.0
 40
1.0
 40
1.0
 40
1.0
 10
5.5353234871
 20
3.0668956786
 30
0.0
 10
5.5354572256
 20
3.0668891729
 30
0.0
 10
5.5358101067
 20
3.06682112
 30
0.0
 10
5.5363577242
 20
3.0665380925
 30
0.0
 10
5.5367228768
 20
3.06623129
 30
0.0
 10
5.5369048606
 20
3.066055138
 30
0.0
  0
LINE
  5
30A
100
AcDbEntity
  8
0
100
AcDbLine
 62
7
  6
CONTINUOUS
 10
5.5521248806
 20
3.0500928405
 30
0.0
 11
5.552811815
 21
3.0489584741
 31
0.0
  0
LINE
  5
30B
100
AcDbEntity
  8
0
100
AcDbLine
 62
7
  6
CONTINUOUS
 10
5.552811815
 20
3.0489584741
 30
0.0
 11
5.5528801587
 21
3.0486348568
 31
0.0
  0
SPLINE
  5
30C
100
AcDbEntity
  8
0
100
AcDbSpline
 62
7
  6
CONTINUOUS
 70
0
 71
3
 72
10
 73
6
 74
0
 42
0.0000001
 43
0.0000001
 44
0.0000000001
 40
0.0
 40
0.0
 40
0.0
 40
0.0
 40
0.4564329072
 40
0.7165608163
 40
1.0
 40
1.0
 40
1.0
 40
1.0
 10
5.5695217093
 20
3.0273710312
 30
0.0
 10
5.5697815357
 20
3.0272983633
 30
0.0
 10
5.5701573075
 20
3.0270689246
 30
0.0
 10
5.5705743707
 20
3.0266507858
 30
0.0
 10
5.5707720599
 20
3.026395954
 30
0.0
 10
5.5708682143
 20
3.0262587528
 30
0.0
  0
LINE
  5
30D
100
AcDbEntity
  8
0
100
AcDbLine
 62
7
  6
CONTINUOUS
 10
5.582792304
 20
3.007704507
 30
0.0
 11
5.5832521444
 21
3.0064606369
 31
0.0
  0
LINE
  5
30E
100
AcDbEntity
  8
0
100
AcDbLine
 62
7
  6
CONTINUOUS
 10
5.5832521444
 20
3.0064606369
 30
0.0
 11
5.5832327088
 21
3.0059512965
 31
0.0
  0
SPLINE
  5
30F
100
AcDbEntity
  8
0
100
AcDbSpline
 62
7
  6
CONTINUOUS
 70
0
 71
3
 72
11
 73
7
 74
0
 42
0.0000001
 43
0.0000001
 44
0.0000000001
 40
0.0
 40
0.0
 40
0.0
 40
0.0
 40
0.2201603744
 40
0.4574184848
 40
0.7168991695
 40
1.0
 40
1.0
 40
1.0
 40
1.0
 10
5.5955555503
 20
2.9821102818
 30
0.0
 10
5.5956745163
 20
2.9820530297
 30
0.0
 10
5.5959057787
 20
2.9818994818
 30
0.0
 10
5.596205192
 20
2.9815876533
 30
0.0
 10
5.596469427
 20
2.9811997939
 30
0.0
 10
5.5966169287
 20
2.9809088866
 30
0.0
 10
5.5966862905
 20
2.9807539331
 30
0.0
  0
LINE
  5
310
100
AcDbEntity
  8
0
100
AcDbLine
 62
7
  6
CONTINUOUS
 10
5.6048834823
 20
2.960278338
 30
0.0
 11
5.6050692462
 21
2.9595761563
 31
0.0
  0
LINE
  5
311
100
AcDbEntity
  8
0
100
AcDbLine
 62
7
  6
CONTINUOUS
 10
5.6050692462
 20
2.9595761563
 30
0.0
 11
5.6050305357
 21
2.9586023383
 31
0.0
  0
SPLINE
  5
312
100
AcDbEntity
  8
0
100
AcDbSpline
 62
7
  6
CONTINUOUS
 70
0
 71
3
 72
11
 73
7
 74
0
 42
0.0000001
 43
0.0000001
 44
0.0000000001
 40
0.0
 40
0.0
 40
0.0
 40
0.0
 40
0.2200348016
 40
0.4571304025
 40
0.7166280972
 40
1.0
 40
1.0
 40
1.0
 40
1.0
 10
5.6125605164
 20
2.9327398653
 30
0.0
 10
5.6126680954
 20
2.9326616282
 30
0.0
 10
5.6128692481
 20
2.9324671707
 30
0.0
 10
5.613107676
 20
2.9321024714
 30
0.0
 10
5.6132961257
 20
2.9316683742
 30
0.0
 10
5.6133868216
 20
2.9313521214
 30
0.0
 10
5.6134259567
 20
2.9311853418
 30
0.0
  0
SPLINE
  5
313
100
AcDbEntity
  8
0
100
AcDbSpline
 62
7
  6
CONTINUOUS
 70
0
 71
3
 72
10
 73
6
 74
0
 42
0.0000001
 43
0.0000001
 44
0.0000000001
 40
0.0
 40
0.0
 40
0.0
 40
0.0
 40
0.284214492
 40
0.6648047631
 40
1.0
 40
1.0
 40
1.0
 40
1.0
 10
5.6175999827
 20
2.9095284386
 30
0.0
 10
5.6176259849
 20
2.9093567615
 30
0.0
 10
5.6176665993
 20
2.9089518718
 30
0.0
 10
5.6176313405
 20
2.9083368869
 30
0.0
 10
5.6174740146
 20
2.9079166199
 30
0.0
 10
5.6173623623
 20
2.9077449548
 30
0.0
  0
SPLINE
  5
314
100
AcDbEntity
  8
0
100
AcDbSpline
 62
7
  6
CONTINUOUS
 70
0
 71
3
 72
10
 73
6
 74
0
 42
0.0000001
 43
0.0000001
 44
0.0000000001
 40
0.0
 40
0.0
 40
0.0
 40
0.0
 40
0.4568656123
 40
0.716934697
 40
1.0
 40
1.0
 40
1.0
 40
1.0
 10
5.6199628265
 20
2.8809944873
 30
0.0
 10
5.620137991
 20
2.880792548
 30
0.0
 10
5.6203252706
 20
2.8803994651
 30
0.0
 10
5.6204475262
 20
2.8798277523
 30
0.0
 10
5.6204755607
 20
2.8795100126
 30
0.0
 10
5.6204821978
 20
2.8793445168
 30
0.0
  0
SPLINE
  5
315
100
AcDbEntity
  8
0
100
AcDbSpline
 62
7
  6
CONTINUOUS
 70
0
 71
3
 72
14
 73
10
 74
0
 42
0.0000001
 43
0.0000001
 44
0.0000000001
 40
0.0
 40
0.0
 40
0.0
 40
0.0
 40
0.2437512476
 40
0.3675203787
 40
0.4924488615
 40
0.6183748322
 40
0.7451477816
 40
0.8724994832
 40
1.0
 40
1.0
 40
1.0
 40
1.0
 10
5.2657233362
 20
3.1404405886
 30
0.0
 10
5.2717146438
 20
3.143534225
 30
0.0
 10
5.2810063309
 20
3.1477254853
 30
0.0
 10
5.2938569387
 20
3.1522625653
 30
0.0
 10
5.3038209908
 20
3.1551346433
 30
0.0
 10
5.3140203035
 20
3.157421893
 30
0.0
 10
5.3244088287
 20
3.1590822358
 30
0.0
 10
5.3349242596
 20
3.1600888329
 30
0.0
 10
5.3419761986
 20
3.1603166961
 30
0.0
 10
5.3455032367
 20
3.1603167796
 30
0.0
  0
SPLINE
  5
316
100
AcDbEntity
  8
0
100
AcDbSpline
 62
7
  6
CONTINUOUS
 70
0
 71
3
 72
14
 73
10
 74
0
 42
0.0000001
 43
0.0000001
 44
0.0000000001
 40
0.0
 40
0.0
 40
0.0
 40
0.0
 40
0.1275037927
 40
0.2548585
 40
0.3816335188
 40
0.5075603958
 40
0.6324885413
 40
0.7562559623
 40
1.0
 40
1.0
 40
1.0
 40
1.0
 10
5.3455032367
 20
3.1603167796
 30
0.0
 10
5.3490329569
 20
3.1603166991
 30
0.0
 10
5.3560902542
 20
3.1600885061
 30
0.0
 10
5.3666135827
 20
3.1590804289
 30
0.0
 10
5.3770097191
 20
3.1574176115
 30
0.0
 10
5.3872162261
 20
3.1551269702
 30
0.0
 10
5.3971869811
 20
3.1522507232
 30
0.0
 10
5.4100456905
 20
3.1477072651
 30
0.0
 10
5.4193427844
 20
3.1435103118
 30
0.0
 10
5.4253373342
 20
3.1404125923
 30
0.0
  0
ENDSEC
  0
SECTION
  2
OBJECTS
  0
DICTIONARY
  5
C
100
AcDbDictionary
280
0
281
1
  3
ACAD_GROUP
350
D
  3
ACAD_MLINESTYLE
350
17
  3
ACAD_LAYOUT
350
1A
  3
ACAD_PLOTSETTINGS
350
19
  3
ACAD_PLOTSTYLENAME
350
E
  0
DICTIONARY
  5
D
102
{ACAD_REACTORS
330
C
102
}
100
AcDbDictionary
280
0
281
1
  0
ACDBDICTIONARYWDFLT
  5
E
102
{ACAD_REACTORS
330
C
102
}
100
AcDbDictionary
281
1
  3
Normal
350
F
100
AcDbDictionaryWithDefault
340
F
  0
DICTIONARY
  5
17
102
{ACAD_REACTORS
330
C
102
}
100
AcDbDictionary
280
0
281
1
  3
Standard
350
18
  0
DICTIONARY
  5
19
102
{ACAD_REACTORS
330
C
102
}
100
AcDbDictionary
281
1
  0
DICTIONARY
  5
1A
102
{ACAD_REACTORS
330
C
102
}
100
AcDbDictionary
281
1
  3
Model
350
317
  3
Layout1
350
318
  0
ACDBPLACEHOLDER
  5
F
102
{ACAD_REACTORS
330
E
102
}
  0
MLINESTYLE
  5
18
102
{ACAD_REACTORS
330
17
102
}
100
AcDbMlineStyle
  2
STANDARD
 70
0
  3

 62
256
 51
90.0
 52
90.0
 71
2
 49
0.5
 62
256
  6
BYLAYER
 49
-0.5
 62
256
  6
BYLAYER
  0
LAYOUT
  5
317
102
{ACAD_REACTORS
330
1A
102
}
100
AcDbPlotSettings
  1

  2
none_device
  4
ANSI_A_(11.00_x_8.50_Inches)
  6

 40
0.0
 41
0.0
 42
0.0
 43
0.0
 44
279.4
 45
215.9
 46
0.0
 47
0.0
 48
0.0
 49
0.0
140
0.0
141
0.0
142
1.0
143
1.0
 70
1024
 72
0
 73
0
 74
0
  7

 75
0
147
1.0
148
0.0
149
0.0
100
AcDbLayout
  1
Model
 70
0
 71
0
 10
0.0
 20
0.0
 11
11.0
 21
8.5
 12
0.0
 22
0.0
 32
0.0
 14
0.0
 24
0.0
 34
0.0
 15
0.0
 25
0.0
 35
0.0
146
0.0
 13
0.0
 23
0.0
 33
0.0
 16
1.0
 26
0.0
 36
0.0
 17
0.0
 27
1.0
 37
0.0
 76
0
330
202
345
0
346
0
  0
LAYOUT
  5
318
102
{ACAD_REACTORS
330
1A
102
}
100
AcDbPlotSettings
  1

  2
none_device
  4
ANSI_A_(11.00_x_8.50_Inches)
  6

 40
0.0
 41
0.0
 42
0.0
 43
0.0
 44
279.4
 45
215.9
 46
0.0
 47
0.0
 48
0.0
 49
0.0
140
0.0
141
0.0
142
1.0
143
1.0
 70
0
 72
0
 73
0
 74
0
  7

 75
0
147
1.0
148
0.0
149
0.0
100
AcDbLayout
  1
Layout1
 70
0
 71
1
 10
0.0
 20
0.0
 11
11.0
 21
8.5
 12
0.0
 22
0.0
 32
0.0
 14
0.0
 24
0.0
 34
0.0
 15
0.0
 25
0.0
 35
0.0
146
0.0
 13
0.0
 23
0.0
 33
0.0
 16
1.0
 26
0.0
 36
0.0
 17
0.0
 27
1.0
 37
0.0
 76
0
330
203
345
0
346
0
  0
ENDSEC
  0
EOF
