999
DXF file: E:\BT Custom\CADOUTPUT\_FRONT.dxf
999
Pro/ENGINEER 2018400 by Parametric Technology Corporation
  0
SECTION
  2
HEADER
  9
$ACADVER
  1
AC1018
  9
$DWGCODEPAGE
  3
ANSI_1252
  9
$EXTMAX
 10
22.0
 20
17.0
 30
0.0
  9
$EXTMIN
 10
0.0
 20
0.0
 30
0.0
  9
$LIMMIN
 10
0.0
 20
0.0
  9
$LIMMAX
 10
22.0
 20
17.0
  9
$VIEWCTR
 10
11.0
 20
8.5
  9
$VIEWSIZE
 40
17.0
  9
$CLAYER
  8
0
  9
$LTSCALE
 40
1.21
  9
$CELTYPE
  6
BYLAYER
  9
$DIMSCALE
 40
1.0
  9
$DIMASZ
 40
0.1
  9
$DIMEXO
 40
0.0625
  9
$DIMDLI
 40
0.836
  9
$DIMEXE
 40
0.125
  9
$DIMCEN
 40
0.198
  9
$DIMLFAC
 40
1.0
  9
$DIMBLK
  1
_FILLED
  9
$DIMALT
 70
1
  9
$DIMALTD
 70
2
  9
$DIMALTTD
 70
2
  9
$DIMALTF
 40
25.4
  9
$DIMTXT
 40
0.08
  9
$DIMTOL
 70
1
  9
$DIMLIM
 70
0
  9
$DIMTFAC
 40
1.0
  9
$DIMTP
 40
0.001
  9
$DIMTM
 40
0.001
  9
$DIMGAP
 40
0.09
  9
$DIMDSEP
 70
46
  9
$AUNITS
 70
0
  9
$PDMODE
 70
3
  9
$PDSIZE
 40
0.06
  9
$HANDSEED
  5
27D
  9
$TILEMODE
 70
1
  9
$MEASUREMENT
 70
0
  9
$INSUNITS
 70
1
  0
ENDSEC
  0
SECTION
  2
CLASSES
  0
CLASS
  1
ACDBDICTIONARYWDFLT
  2
AcDbDictionaryWithDefault
  3
AutoCAD 2000
 90
0
 91
1
280
0
281
0
  0
CLASS
  1
ACDBPLACEHOLDER
  2
AcDbPlaceHolder
  3
AutoCAD 2000
 90
0
 91
1
280
0
281
0
  0
CLASS
  1
LAYOUT
  2
AcDbLayout
  3
AutoCAD 2000
 90
0
 91
0
280
0
281
0
  0
ENDSEC
  0
SECTION
  2
TABLES
  0
TABLE
  2
VPORT
  5
8
100
AcDbSymbolTable
 70
2
  0
VPORT
  5
1F4
100
AcDbSymbolTableRecord
100
AcDbViewportTableRecord
  2
*ACTIVE
 70
0
 10
0.0
 20
0.0
 11
1.0
 21
1.0
 12
11.0
 22
8.5
 13
0.0
 23
0.0
 14
1.0
 24
1.0
 15
0.0
 25
0.0
 16
0.0
 26
0.0
 36
1.0
 17
0.0
 27
0.0
 37
0.0
 40
17.0
 41
1.2941176471
 42
50.0
 43
0.0
 44
0.0
 50
0.0
 51
0.0
 71
0
 72
100
 73
1
 74
1
 75
0
 76
0
 77
0
 78
0
  0
ENDTAB
  0
TABLE
  2
LTYPE
  5
5
100
AcDbSymbolTable
 70
6
  0
LTYPE
  5
14
100
AcDbSymbolTableRecord
100
AcDbLinetypeTableRecord
  2
BYBLOCK
 70
0
  3

 72
65
 73
0
 40
0.0
  0
LTYPE
  5
15
100
AcDbSymbolTableRecord
100
AcDbLinetypeTableRecord
  2
BYLAYER
 70
0
  3

 72
65
 73
0
 40
0.0
  0
LTYPE
  5
16
100
AcDbSymbolTableRecord
100
AcDbLinetypeTableRecord
  2
CONTINUOUS
 70
64
  3
Solid line
 72
65
 73
0
 40
0.0
  0
LTYPE
  5
1F5
100
AcDbSymbolTableRecord
100
AcDbLinetypeTableRecord
  2
CENTER
 70
64
  3
____ _ ____ _ ____ _ ____ _ ____ _ ____ _ ____
 72
65
 73
4
 40
0.6
 49
0.375
 74
0
 49
-0.075
 74
0
 49
0.075
 74
0
 49
-0.075
 74
0
  0
LTYPE
  5
1F6
100
AcDbSymbolTableRecord
100
AcDbLinetypeTableRecord
  2
HIDDEN
 70
64
  3
- - - - - - - - - - - - - - - - - - - -
 72
65
 73
2
 40
0.2
 49
0.1
 74
0
 49
-0.1
 74
0
  0
LTYPE
  5
1F7
100
AcDbSymbolTableRecord
100
AcDbLinetypeTableRecord
  2
PHANTOM
 70
64
  3
_____ _ _ _____ _ _ _____ _ _ _____
 72
65
 73
6
 40
0.8
 49
0.45
 74
0
 49
-0.05
 74
0
 49
0.1
 74
0
 49
-0.05
 74
0
 49
0.1
 74
0
 49
-0.05
 74
0
  0
LTYPE
  5
1F8
100
AcDbSymbolTableRecord
100
AcDbLinetypeTableRecord
  2
DOT
 70
64
  3
. . . . . . . . . . . . . . . . . . . .
 72
65
 73
2
 40
0.2
 49
0.1
 74
0
 49
-0.1
 74
0
  0
LTYPE
  5
1F9
100
AcDbSymbolTableRecord
100
AcDbLinetypeTableRecord
  2
DASHED
 70
64
  3
- - - - - - - - - - - - - - - - - - - -
 72
65
 73
2
 40
0.2
 49
0.1
 74
0
 49
-0.1
 74
0
  0
ENDTAB
  0
TABLE
  2
LAYER
  5
2
100
AcDbSymbolTable
 70
36
  0
LAYER
  5
10
100
AcDbSymbolTableRecord
100
AcDbLayerTableRecord
  2
0
 70
0
 62
7
  6
CONTINUOUS
370
-3
390
F
  0
LAYER
  5
1FA
100
AcDbSymbolTableRecord
100
AcDbLayerTableRecord
  2
DEFAULT_1
 70
0
 62
7
  6
CENTER
370
-3
390
F
  0
LAYER
  5
1FB
100
AcDbSymbolTableRecord
100
AcDbLayerTableRecord
  2
DEFAULT_2
 70
0
 62
8
  6
HIDDEN
370
-3
390
F
  0
LAYER
  5
1FC
100
AcDbSymbolTableRecord
100
AcDbLayerTableRecord
  2
DEFAULT_3
 70
0
 62
7
  6
PHANTOM
370
-3
390
F
  0
LAYER
  5
1FD
100
AcDbSymbolTableRecord
100
AcDbLayerTableRecord
  2
ALL_FEATURES
 70
0
 62
7
  6
CONTINUOUS
370
-3
390
F
  0
LAYER
  5
1FE
100
AcDbSymbolTableRecord
100
AcDbLayerTableRecord
  2
AXES_FEATURES
 70
0
 62
7
  6
CONTINUOUS
370
-3
390
F
  0
LAYER
  5
1FF
100
AcDbSymbolTableRecord
100
AcDbLayerTableRecord
  2
DIMENSIONS
 70
0
 62
7
  6
CONTINUOUS
370
-3
390
F
  0
ENDTAB
  0
TABLE
  2
STYLE
  5
3
100
AcDbSymbolTable
 70
1
  0
STYLE
  5
11
100
AcDbSymbolTableRecord
100
AcDbTextStyleTableRecord
  2
STANDARD
 70
0
 40
0.0
 41
0.8
 50
0.0
 71
0
 42
0.2
  3
txt
  4

  0
STYLE
  5
200
100
AcDbSymbolTableRecord
100
AcDbTextStyleTableRecord
  2
TEXTSTYLE_1
 70
0
 40
0.0
 41
0.8
 50
0.0
 71
0
 42
0.2
  3
gdt
  4

  0
ENDTAB
  0
TABLE
  2
VIEW
  5
6
100
AcDbSymbolTable
 70
0
  0
ENDTAB
  0
TABLE
  2
UCS
  5
7
100
AcDbSymbolTable
 70
0
  0
ENDTAB
  0
TABLE
  2
APPID
  5
9
100
AcDbSymbolTable
 70
1
  0
APPID
  5
201
100
AcDbSymbolTableRecord
100
AcDbRegAppTableRecord
  2
ACAD
 70
0
  0
ENDTAB
  0
TABLE
  2
BLOCK_RECORD
  5
1
100
AcDbSymbolTable
 70
0
  0
BLOCK_RECORD
  5
202
100
AcDbSymbolTableRecord
100
AcDbBlockTableRecord
  2
*Model_Space
  0
BLOCK_RECORD
  5
203
100
AcDbSymbolTableRecord
100
AcDbBlockTableRecord
  2
*Paper_Space
  0
BLOCK_RECORD
  5
204
100
AcDbSymbolTableRecord
100
AcDbBlockTableRecord
  2
_FILLED
  0
ENDTAB
  0
TABLE
  2
DIMSTYLE
  5
A
100
AcDbSymbolTable
 70
1
100
AcDbDimStyleTable
 71
0
  0
DIMSTYLE
105
205
100
AcDbSymbolTableRecord
100
AcDbDimStyleTableRecord
  2
STANDARD
 70
0
  3

  4

 40
1.0
 41
0.1
 42
0.0625
 43
0.38
 44
0.125
 45
0.0
 46
0.0
 47
0.001
 48
0.001
140
0.08
141
0.09
142
0.0
143
25.4
144
1.0
145
0.0
146
1.0
147
0.09
 71
1.0
 72
0.0
 73
1
 74
1
 75
0
 76
0
 77
0
 78
4
 79
1
170
1
171
2
172
0
173
0
174
0
175
0
176
0
177
0
178
0
270
2
179
3
271
3
272
3
273
2
274
2
275
0
280
0
281
0
282
0
283
1
284
4
285
0
286
0
287
3
288
0
340
11
278
46
341
204
342
204
343
204
344
204
  0
ENDTAB
  0
ENDSEC
  0
SECTION
  2
BLOCKS
  0
BLOCK
  5
20
100
AcDbEntity
  8
0
100
AcDbBlockBegin
  2
*Model_Space
 70
0
 10
0.0
 20
0.0
 30
0.0
  3
*Model_Space
  1

  0
ENDBLK
  5
21
100
AcDbEntity
  8
0
100
AcDbBlockEnd
  0
BLOCK
  5
1C
100
AcDbEntity
  8
0
100
AcDbBlockBegin
  2
*Paper_Space
 70
0
 10
0.0
 20
0.0
 30
0.0
  3
*Paper_Space
  1

  0
ENDBLK
  5
1D
100
AcDbEntity
  8
0
100
AcDbBlockEnd
  0
BLOCK
  5
206
100
AcDbEntity
  8
0
100
AcDbBlockBegin
  2
_FILLED
 70
64
 10
0.0
 20
0.0
  3
_FILLED
  1

  0
SOLID
  5
207
100
AcDbEntity
  8
0
  6
BYBLOCK
 62
0
100
AcDbTrace
 10
0.0
 20
0.0
 11
-1.0
 21
0.2
 12
-1.0
 22
-0.2
 13
-1.0
 23
-0.2
  0
ENDBLK
  5
208
100
AcDbEntity
  8
0
  6
BYBLOCK
 62
0
100
AcDbBlockEnd
  0
ENDSEC
  0
SECTION
  2
ENTITIES
  0
LINE
  5
209
100
AcDbEntity
  8
0
100
AcDbLine
 62
7
  6
CONTINUOUS
 10
9.3446318783
 20
8.6521130456
 11
9.3446312267
 21
8.4021695021
  0
LINE
  5
20A
100
AcDbEntity
  8
0
100
AcDbLine
 62
7
  6
CONTINUOUS
 10
9.3616921301
 20
8.4021695021
 11
9.3616921301
 21
8.3401695021
  0
LINE
  5
20B
100
AcDbEntity
  8
0
100
AcDbLine
 62
7
  6
CONTINUOUS
 10
8.9226921301
 20
7.9651695021
 11
11.2826921301
 21
7.9651695021
  0
LINE
  5
20C
100
AcDbEntity
  8
0
100
AcDbLine
 62
7
  6
CONTINUOUS
 10
9.7026921301
 20
10.4451695021
 11
9.7026921301
 21
9.9701695021
  0
LINE
  5
20D
100
AcDbEntity
  8
0
100
AcDbLine
 62
7
  6
CONTINUOUS
 10
9.723660927
 20
8.6521147208
 11
9.7236616784
 21
8.4021695021
  0
LINE
  5
20E
100
AcDbEntity
  8
0
100
AcDbLine
 62
7
  6
CONTINUOUS
 10
9.7901921301
 20
9.9501695021
 11
9.7901921301
 21
9.6571695021
  0
LINE
  5
20F
100
AcDbEntity
  8
0
100
AcDbLine
 62
7
  6
CONTINUOUS
 10
9.5621921301
 20
9.3177859409
 11
9.4880581359
 21
9.2118683137
  0
LINE
  5
210
100
AcDbEntity
  8
0
100
AcDbLine
 62
7
  6
CONTINUOUS
 10
9.1026921301
 20
8.1521695021
 11
11.1026921301
 21
8.1521695021
  0
LINE
  5
211
100
AcDbEntity
  8
0
100
AcDbLine
 62
7
  6
CONTINUOUS
 10
9.8401921301
 20
10.5701695021
 11
9.8401921301
 21
10.5401695021
  0
LINE
  5
212
100
AcDbEntity
  8
0
100
AcDbLine
 62
7
  6
CONTINUOUS
 10
9.9026921301
 20
9.6571695021
 11
9.9026921301
 21
9.6521695021
  0
LINE
  5
213
100
AcDbEntity
  8
0
100
AcDbLine
 62
7
  6
CONTINUOUS
 10
10.5178182927
 20
10.0071833977
 11
10.5287573224
 21
10.0160716402
  0
LINE
  5
214
100
AcDbEntity
  8
0
100
AcDbLine
 62
7
  6
CONTINUOUS
 10
10.5287573224
 20
10.0160716402
 11
10.5408702296
 21
10.0216602216
  0
LINE
  5
215
100
AcDbEntity
  8
0
100
AcDbLine
 62
7
  6
CONTINUOUS
 10
10.9156948039
 20
8.3401695021
 11
9.2896894563
 21
8.3401695021
  0
LINE
  5
216
100
AcDbEntity
  8
0
100
AcDbLine
 62
7
  6
CONTINUOUS
 10
9.3446312267
 20
8.4021695021
 11
10.8607530335
 21
8.4021695021
  0
LINE
  5
217
100
AcDbEntity
  8
0
100
AcDbLine
 62
7
  6
CONTINUOUS
 10
10.3026921301
 20
9.6571695021
 11
10.3026921301
 21
9.6521695021
  0
LINE
  5
218
100
AcDbEntity
  8
0
100
AcDbLine
 62
7
  6
CONTINUOUS
 10
10.5037425734
 20
9.9800266065
 11
10.5090781072
 21
9.9950298909
  0
LINE
  5
219
100
AcDbEntity
  8
0
100
AcDbLine
 62
7
  6
CONTINUOUS
 10
10.5090781072
 20
9.9950298909
 11
10.5178182927
 21
10.0071833977
  0
LINE
  5
21A
100
AcDbEntity
  8
0
100
AcDbLine
 62
7
  6
CONTINUOUS
 10
9.4615286904
 20
8.7686695021
 11
9.3446346693
 21
8.6521122069
  0
LINE
  5
21B
100
AcDbEntity
  8
0
100
AcDbLine
 62
7
  6
CONTINUOUS
 10
10.3651921301
 20
10.5701695021
 11
10.3651921301
 21
10.5401695021
  0
LINE
  5
21C
100
AcDbEntity
  8
0
100
AcDbLine
 62
7
  6
CONTINUOUS
 10
10.4151921301
 20
9.9501695021
 11
10.4151921301
 21
9.6571695021
  0
LINE
  5
21D
100
AcDbEntity
  8
0
100
AcDbLine
 62
9
  6
CONTINUOUS
 10
10.4259822527
 20
10.4240016726
 11
10.4259822527
 21
9.9859615903
  0
LINE
  5
21E
100
AcDbEntity
  8
0
100
AcDbLine
 62
9
  6
CONTINUOUS
 10
10.4723634912
 20
10.0615013332
 11
10.4723634912
 21
10.3495409334
  0
LINE
  5
21F
100
AcDbEntity
  8
0
100
AcDbLine
 62
7
  6
CONTINUOUS
 10
10.5026921478
 20
9.9701695021
 11
10.5037425734
 21
9.9800266065
  0
LINE
  5
220
100
AcDbEntity
  8
0
100
AcDbLine
 62
9
  6
CONTINUOUS
 10
10.7438555698
 20
8.7686695021
 11
9.4615286904
 21
8.7686695021
  0
LINE
  5
221
100
AcDbEntity
  8
0
100
AcDbLine
 62
7
  6
CONTINUOUS
 10
10.7438555698
 20
8.7686695021
 11
10.8607486141
 21
8.6521131808
  0
LINE
  5
222
100
AcDbEntity
  8
0
100
AcDbLine
 62
7
  6
CONTINUOUS
 10
10.481721482
 20
8.6521147209
 11
10.4817225818
 21
8.4021695021
  0
LINE
  5
223
100
AcDbEntity
  8
0
100
AcDbLine
 62
7
  6
CONTINUOUS
 10
10.5026921301
 20
10.4451695021
 11
10.5026921301
 21
10.4429599872
  0
LINE
  5
224
100
AcDbEntity
  8
0
100
AcDbLine
 62
9
  6
CONTINUOUS
 10
9.4841921301
 20
8.9836695021
 11
10.7211921301
 21
8.9836695021
  0
LINE
  5
225
100
AcDbEntity
  8
0
100
AcDbLine
 62
7
  6
CONTINUOUS
 10
10.6431921301
 20
9.3177859409
 11
10.7173261243
 21
9.2118683137
  0
LINE
  5
226
100
AcDbEntity
  8
0
100
AcDbLine
 62
7
  6
CONTINUOUS
 10
10.8436921301
 20
8.4021695021
 11
10.8436921301
 21
8.3401695021
  0
LINE
  5
227
100
AcDbEntity
  8
0
100
AcDbLine
 62
7
  6
CONTINUOUS
 10
10.8607521979
 20
8.6521142608
 11
10.8607530335
 21
8.4021695021
  0
LINE
  5
228
100
AcDbEntity
  8
0
100
AcDbLine
 62
9
  6
CONTINUOUS
 10
9.4880581359
 20
9.2118683137
 11
10.7173261243
 21
9.2118683137
  0
LINE
  5
229
100
AcDbEntity
  8
0
100
AcDbLine
 62
9
  6
CONTINUOUS
 10
10.6431921301
 20
9.3177859409
 11
9.5621921301
 21
9.3177859409
  0
LINE
  5
22A
100
AcDbEntity
  8
0
100
AcDbLine
 62
9
  6
CONTINUOUS
 10
10.5324318577
 20
9.6237687448
 11
9.6729524025
 21
9.6237687448
  0
LINE
  5
22B
100
AcDbEntity
  8
0
100
AcDbLine
 62
7
  6
CONTINUOUS
 10
10.5015410186
 20
9.6521695021
 11
9.7038432416
 21
9.6521695021
  0
LINE
  5
22C
100
AcDbEntity
  8
0
100
AcDbLine
 62
7
  6
CONTINUOUS
 10
9.7901921301
 20
9.6571695021
 11
10.4151921301
 21
9.6571695021
  0
LINE
  5
22D
100
AcDbEntity
  8
0
100
AcDbLine
 62
7
  6
CONTINUOUS
 10
10.5408702296
 20
10.0216602216
 11
10.5532891031
 21
10.0241176656
  0
LINE
  5
22E
100
AcDbEntity
  8
0
100
AcDbLine
 62
7
  6
CONTINUOUS
 10
10.5532891031
 20
10.0241176656
 11
10.557880036
 21
10.0242932751
  0
LINE
  5
22F
100
AcDbEntity
  8
0
100
AcDbLine
 62
9
  6
CONTINUOUS
 10
10.4151921301
 20
9.9501695021
 11
9.7902377955
 21
9.9501695021
  0
LINE
  5
230
100
AcDbEntity
  8
0
100
AcDbLine
 62
7
  6
CONTINUOUS
 10
9.7026921301
 20
9.9701695021
 11
10.5026922391
 21
9.9701695021
  0
LINE
  5
231
100
AcDbEntity
  8
0
100
AcDbLine
 62
9
  6
CONTINUOUS
 10
12.911289531
 20
10.0698417424
 11
12.9526921301
 21
10.0698417424
  0
LWPOLYLINE
  5
232
100
AcDbEntity
  8
0
100
AcDbPolyline
 62
7
  6
CONTINUOUS
 90
4
 70
0
 10
10.5578803598
 20
10.0242933452
 10
11.3900308338
 20
10.0197763072
 10
12.1932018514
 20
10.0147862321
 10
12.9126774678
 20
10.0125916245
  0
LWPOLYLINE
  5
233
100
AcDbEntity
  8
0
100
AcDbPolyline
 62
7
  6
CONTINUOUS
 90
4
 70
0
 10
12.9116277197
 20
10.4614132993
 10
12.192853938
 20
10.4403540754
 10
11.3905295829
 20
10.4143131952
 10
10.5593306141
 20
10.3879843984
  0
LINE
  5
234
100
AcDbEntity
  8
0
100
AcDbLine
 62
9
  6
CONTINUOUS
 10
12.911289531
 20
10.4041734433
 11
12.9526921301
 21
10.4041734433
  0
LINE
  5
235
100
AcDbEntity
  8
0
100
AcDbLine
 62
7
  6
CONTINUOUS
 10
10.5026921301
 20
10.4451695021
 11
9.7026921301
 21
10.4451695021
  0
LINE
  5
236
100
AcDbEntity
  8
0
100
AcDbLine
 62
7
  6
CONTINUOUS
 10
10.4151921301
 20
10.5201695021
 11
9.7901921301
 21
10.5201695021
  0
LINE
  5
237
100
AcDbEntity
  8
0
100
AcDbLine
 62
9
  6
CONTINUOUS
 10
9.8402518631
 20
10.5401695021
 11
10.3651921301
 21
10.5401695021
  0
LINE
  5
238
100
AcDbEntity
  8
0
100
AcDbLine
 62
7
  6
CONTINUOUS
 10
10.3651921301
 20
10.5701695021
 11
9.8401921301
 21
10.5701695021
  0
LINE
  5
239
100
AcDbEntity
  8
0
100
AcDbLine
 62
9
  6
CONTINUOUS
 10
12.9126774672
 20
10.0125868557
 11
12.9125240714
 21
10.0301972488
  0
LINE
  5
23A
100
AcDbEntity
  8
0
100
AcDbLine
 62
9
  6
CONTINUOUS
 10
12.9112895769
 20
10.4041668747
 11
12.9112894851
 21
10.0698481002
  0
LINE
  5
23B
100
AcDbEntity
  8
0
100
AcDbLine
 62
7
  6
CONTINUOUS
 10
12.9526921301
 20
10.0525912881
 11
12.9526921301
 21
10.4214279492
  0
LINE
  5
23C
100
AcDbEntity
  8
0
100
AcDbLine
 62
9
  6
CONTINUOUS
 10
12.9114840761
 20
10.4438000246
 11
12.9116276719
 21
10.4614180772
  0
ARC
  5
23D
100
AcDbEntity
  8
0
100
AcDbCircle
 62
9
  6
CONTINUOUS
 10
10.0500155385
 20
7.5406784783
 40
2.5350102127
100
AcDbArc
 50
78.5397525916
 51
79.3229445361
  0
ARC
  5
23E
100
AcDbEntity
  8
0
100
AcDbCircle
 62
9
  6
CONTINUOUS
 10
10.052344961
 20
8.0814271309
 40
1.9408391385
100
AcDbArc
 50
76.694844224
 51
78.9005121748
  0
ARC
  5
23F
100
AcDbEntity
  8
0
100
AcDbCircle
 62
7
  6
CONTINUOUS
 10
9.050153228
 20
9.6761728307
 40
0.625
100
AcDbArc
 50
325.0110095299
 51
355.1903004544
  0
ARC
  5
240
100
AcDbEntity
  8
0
100
AcDbCircle
 62
7
  6
CONTINUOUS
 10
9.6551672512
 20
9.0949050989
 40
0.2039751211
100
AcDbArc
 50
145.0110095297
 51
213.0478355063
  0
ARC
  5
241
100
AcDbEntity
  8
0
100
AcDbCircle
 62
7
  6
CONTINUOUS
 10
10.550217009
 20
9.0949050989
 40
0.2039751211
100
AcDbArc
 50
326.9521644937
 51
34.9889904703
  0
ARC
  5
242
100
AcDbEntity
  8
0
100
AcDbCircle
 62
7
  6
CONTINUOUS
 10
9.1098282412
 20
7.9651695021
 40
0.1871361111
100
AcDbArc
 50
92.1854050713
 51
180.0
  0
ARC
  5
243
100
AcDbEntity
  8
0
100
AcDbCircle
 62
7
  6
CONTINUOUS
 10
9.2896894563
 20
8.1531695021
 40
0.187
100
AcDbArc
 50
90.0
 51
180.3063960032
  0
ARC
  5
244
100
AcDbEntity
  8
0
100
AcDbCircle
 62
7
  6
CONTINUOUS
 10
10.9156948039
 20
8.1531695021
 40
0.187
100
AcDbArc
 50
359.6936039968
 51
90.0
  0
ARC
  5
245
100
AcDbEntity
  8
0
100
AcDbCircle
 62
7
  6
CONTINUOUS
 10
10.8649666637
 20
8.8901304776
 40
0.1715245336
100
AcDbArc
 50
146.9521644936
 51
225.0826423158
  0
ARC
  5
246
100
AcDbEntity
  8
0
100
AcDbCircle
 62
7
  6
CONTINUOUS
 10
9.3404175965
 20
8.8901304776
 40
0.1715245336
100
AcDbArc
 50
314.9173576842
 51
33.0478355064
  0
ARC
  5
247
100
AcDbEntity
  8
0
100
AcDbCircle
 62
7
  6
CONTINUOUS
 10
10.5015410186
 20
9.6211695021
 40
0.031
100
AcDbArc
 50
4.8096995456
 51
90.0
  0
ARC
  5
248
100
AcDbEntity
  8
0
100
AcDbCircle
 62
7
  6
CONTINUOUS
 10
9.7038432416
 20
9.6211695021
 40
0.031
100
AcDbArc
 50
90.0
 51
175.1903004544
  0
ARC
  5
249
100
AcDbEntity
  8
0
100
AcDbCircle
 62
7
  6
CONTINUOUS
 10
9.7701921301
 20
9.9501695021
 40
0.02
100
AcDbArc
 50
0.0
 51
90.0
  0
ARC
  5
24A
100
AcDbEntity
  8
0
100
AcDbCircle
 62
7
  6
CONTINUOUS
 10
10.4351921301
 20
9.9501695021
 40
0.02
100
AcDbArc
 50
90.0
 51
180.0
  0
ARC
  5
24B
100
AcDbEntity
  8
0
100
AcDbCircle
 62
9
  6
CONTINUOUS
 10
9.9844124951
 20
12.3762337359
 40
2.0015473258
100
AcDbArc
 50
282.7451045011
 51
284.7115496852
  0
ARC
  5
24C
100
AcDbEntity
  8
0
100
AcDbCircle
 62
9
  6
CONTINUOUS
 10
10.1141911838
 20
11.8851027838
 40
1.4935613013
100
AcDbArc
 50
284.6808617522
 51
284.8822530888
  0
ARC
  5
24D
100
AcDbEntity
  8
0
100
AcDbCircle
 62
7
  6
CONTINUOUS
 10
9.7151921301
 20
10.5201695021
 40
0.075
100
AcDbArc
 50
270.0
 51
360.0
  0
ARC
  5
24E
100
AcDbEntity
  8
0
100
AcDbCircle
 62
7
  6
CONTINUOUS
 10
10.4901921301
 20
10.5201695021
 40
0.075
100
AcDbArc
 50
180.0
 51
270.0
  0
ARC
  5
24F
100
AcDbEntity
  8
0
100
AcDbCircle
 62
7
  6
CONTINUOUS
 10
10.5581328504
 20
9.9685412957
 40
0.0558590095
100
AcDbArc
 50
123.8196913505
 51
129.2533717788
  0
ARC
  5
250
100
AcDbEntity
  8
0
100
AcDbCircle
 62
7
  6
CONTINUOUS
 10
10.5583710313
 20
9.968831668
 40
0.0558111582
100
AcDbArc
 50
140.4188076052
 51
156.827666443
  0
ARC
  5
251
100
AcDbEntity
  8
0
100
AcDbCircle
 62
7
  6
CONTINUOUS
 10
10.5577559411
 20
9.9688448716
 40
0.0554506042
100
AcDbArc
 50
94.0047529588
 51
107.2909151356
  0
ARC
  5
252
100
AcDbEntity
  8
0
100
AcDbCircle
 62
7
  6
CONTINUOUS
 10
10.5580910127
 20
9.9692332174
 40
0.0554067805
100
AcDbArc
 50
164.7820984151
 51
179.0317478419
  0
ARC
  5
253
100
AcDbEntity
  8
0
100
AcDbCircle
 62
7
  6
CONTINUOUS
 10
10.5577183112
 20
10.4429872659
 40
0.0550276505
100
AcDbArc
 50
180.0286899177
 51
271.6790344247
  0
ARC
  5
254
100
AcDbEntity
  8
0
100
AcDbCircle
 62
7
  6
CONTINUOUS
 10
10.5576926739
 20
9.9699049811
 40
0.0543886658
100
AcDbArc
 50
89.8022860675
 51
94.0162613374
  0
ARC
  5
255
100
AcDbEntity
  8
0
100
AcDbCircle
 62
7
  6
CONTINUOUS
 10
10.5566334571
 20
9.9696565816
 40
0.0538892118
100
AcDbArc
 50
156.9070162802
 51
164.809661125
  0
ARC
  5
256
100
AcDbEntity
  8
0
100
AcDbCircle
 62
7
  6
CONTINUOUS
 10
10.5565933827
 20
9.9703995868
 40
0.0534459346
100
AcDbArc
 50
129.2359407708
 51
140.4598439607
  0
ARC
  5
257
100
AcDbEntity
  8
0
100
AcDbCircle
 62
7
  6
CONTINUOUS
 10
10.3851921301
 20
10.5401695021
 40
0.02
100
AcDbArc
 50
180.0
 51
270.0
  0
ARC
  5
258
100
AcDbEntity
  8
0
100
AcDbCircle
 62
7
  6
CONTINUOUS
 10
9.8201921301
 20
10.5401695021
 40
0.02
100
AcDbArc
 50
270.0
 51
360.0
  0
ARC
  5
259
100
AcDbEntity
  8
0
100
AcDbCircle
 62
7
  6
CONTINUOUS
 10
11.1552310322
 20
9.6761728307
 40
0.625
100
AcDbArc
 50
184.8096995456
 51
214.9889904701
  0
ARC
  5
25A
100
AcDbEntity
  8
0
100
AcDbCircle
 62
7
  6
CONTINUOUS
 10
11.095556019
 20
7.9651695021
 40
0.1871361111
100
AcDbArc
 50
0.0
 51
87.8145949287
  0
ARC
  5
25B
100
AcDbEntity
  8
0
100
AcDbCircle
 62
7
  6
CONTINUOUS
 10
12.9126916648
 20
10.0525868754
 40
0.0400000223
100
AcDbArc
 50
269.9796633434
 51
360.0
  0
ARC
  5
25C
100
AcDbEntity
  8
0
100
AcDbCircle
 62
7
  6
CONTINUOUS
 10
12.9126916773
 20
10.42143221
 40
0.040000021
100
AcDbArc
 50
0.0
 51
91.5242543957
  0
ARC
  5
25D
100
AcDbEntity
  8
0
100
AcDbCircle
 62
9
  6
CONTINUOUS
 10
12.9131739213
 20
10.4041426868
 40
0.0395182195
100
AcDbArc
 50
0.0422152792
 51
18.2189465456
  0
ARC
  5
25E
100
AcDbEntity
  8
0
100
AcDbCircle
 62
9
  6
CONTINUOUS
 10
12.9131769998
 20
10.0698716865
 40
0.0395155657
100
AcDbArc
 50
341.9536446763
 51
359.9589536512
  0
SPLINE
  5
25F
100
AcDbEntity
  8
0
100
AcDbSpline
 62
7
  6
CONTINUOUS
 70
0
 71
3
 72
9
 73
5
 74
0
 42
0.0000001
 43
0.0000001
 44
0.0000000001
 40
0.0
 40
0.0
 40
0.0
 40
0.0
 40
0.4938095163
 40
1.0
 40
1.0
 40
1.0
 40
1.0
 10
10.5412747194
 20
10.0217895487
 30
0.0
 10
10.5387871605
 20
10.021013038
 30
0.0
 10
10.5338593342
 20
10.0190675295
 30
0.0
 10
10.5292619387
 20
10.0164355389
 30
0.0
 10
10.5270427773
 20
10.0149485828
 30
0.0
  0
SPLINE
  5
260
100
AcDbEntity
  8
0
100
AcDbSpline
 62
7
  6
CONTINUOUS
 70
0
 71
3
 72
25
 73
21
 74
0
 42
0.0000001
 43
0.0000001
 44
0.0000000001
 40
0.0
 40
0.0
 40
0.0
 40
0.0
 40
0.0699587106
 40
0.1378539061
 40
0.2035047436
 40
0.2667878963
 40
0.3277275803
 40
0.3865424316
 40
0.4153062751
 40
0.4437422513
 40
0.4999991292
 40
0.5562560188
 40
0.584692006
 40
0.6134558665
 40
0.6722707701
 40
0.7332104385
 40
0.796493509
 40
0.8621446486
 40
0.9300407194
 40
1.0
 40
1.0
 40
1.0
 40
1.0
 10
9.723660927
 20
8.6521147208
 30
0.0
 10
9.7163820674
 20
8.6593726091
 30
0.0
 10
9.701730082
 20
8.673370588
 30
0.0
 10
9.6790292726
 20
8.6928573393
 30
0.0
 10
9.6558961835
 20
8.7102536581
 30
0.0
 10
9.6323184857
 20
8.7252335816
 30
0.0
 10
9.6082963012
 20
8.7374295244
 30
0.0
 10
9.5877817163
 20
8.7450488058
 30
0.0
 10
9.5712745709
 20
8.7493518285
 30
0.0
 10
9.5548776969
 20
8.7524209062
 30
0.0
 10
9.534146236
 20
8.7540123565
 30
0.0
 10
9.5134147757
 20
8.7524208679
 30
0.0
 10
9.4970179035
 20
8.7493517472
 30
0.0
 10
9.480510764
 20
8.7450486511
 30
0.0
 10
9.4599962136
 20
8.7374292614
 30
0.0
 10
9.4359740203
 20
8.7252333716
 30
0.0
 10
9.4123961783
 20
8.7102536107
 30
0.0
 10
9.3892631213
 20
8.6928569527
 30
0.0
 10
9.3665626914
 20
8.6733693595
 30
0.0
 10
9.3519107953
 20
8.6593709949
 30
0.0
 10
9.3446318783
 20
8.6521130456
 30
0.0
  0
SPLINE
  5
261
100
AcDbEntity
  8
0
100
AcDbSpline
 62
9
  6
CONTINUOUS
 70
0
 71
3
 72
13
 73
9
 74
0
 42
0.0000001
 43
0.0000001
 44
0.0000000001
 40
0.0
 40
0.0
 40
0.0
 40
0.0
 40
0.2284045511
 40
0.4716630431
 40
0.5987703142
 40
0.7295260014
 40
0.8637306949
 40
1.0
 40
1.0
 40
1.0
 40
1.0
 10
10.4259821731
 20
9.985962129
 30
0.0
 10
10.43036109
 20
9.9897346539
 30
0.0
 10
10.439641339
 20
9.9972535959
 30
0.0
 10
10.4519974528
 20
10.006042594
 30
0.0
 10
10.4626834498
 20
10.0128750268
 30
0.0
 10
10.471262824
 20
10.0178651009
 30
0.0
 10
10.4802863252
 20
10.0225299159
 30
0.0
 10
10.4865610322
 20
10.0252818955
 30
0.0
 10
10.4897716797
 20
10.026540008
 30
0.0
  0
SPLINE
  5
262
100
AcDbEntity
  8
0
100
AcDbSpline
 62
9
  6
CONTINUOUS
 70
0
 71
3
 72
9
 73
5
 74
0
 42
0.0000001
 43
0.0000001
 44
0.0000000001
 40
0.0
 40
0.0
 40
0.0
 40
0.0
 40
0.4988917051
 40
1.0
 40
1.0
 40
1.0
 40
1.0
 10
10.4897712446
 20
10.0265398635
 30
0.0
 10
10.494496717
 20
10.0283907581
 30
0.0
 10
10.5043757317
 20
10.0311206509
 30
0.0
 10
10.5145881024
 20
10.0319011915
 30
0.0
 10
10.5196846716
 20
10.031799901
 30
0.0
  0
SPLINE
  5
263
100
AcDbEntity
  8
0
100
AcDbSpline
 62
9
  6
CONTINUOUS
 70
0
 71
3
 72
17
 73
13
 74
0
 42
0.0000001
 43
0.0000001
 44
0.0000000001
 40
0.0
 40
0.0
 40
0.0
 40
0.0
 40
0.1159978954
 40
0.2388542898
 40
0.302572179
 40
0.3673914932
 40
0.4985836758
 40
0.630016725
 40
0.6951176855
 40
0.7592050729
 40
0.8829866652
 40
1.0
 40
1.0
 40
1.0
 40
1.0
 10
10.5536914459
 20
10.0251477324
 30
0.0
 10
10.550368131
 20
10.0251467793
 30
0.0
 10
10.5435117606
 20
10.0245022008
 30
0.0
 10
10.5351266165
 20
10.0220831782
 30
0.0
 10
10.5285783592
 20
10.019056467
 30
0.0
 10
10.5221586626
 20
10.0152744467
 30
0.0
 10
10.514816639
 20
10.0093191053
 30
0.0
 10
10.5088969502
 20
10.0019387087
 30
0.0
 10
10.505129415
 20
9.9954811454
 30
0.0
 10
10.5021052302
 20
9.9888821704
 30
0.0
 10
10.4996795063
 20
9.9804314073
 30
0.0
 10
10.4990170471
 20
9.9735221036
 30
0.0
 10
10.4990042514
 20
9.9701697209
 30
0.0
  0
SPLINE
  5
264
100
AcDbEntity
  8
0
100
AcDbSpline
 62
9
  6
CONTINUOUS
 70
0
 71
3
 72
13
 73
9
 74
0
 42
0.0000001
 43
0.0000001
 44
0.0000000001
 40
0.0
 40
0.0
 40
0.0
 40
0.0
 40
0.1297146929
 40
0.2585197773
 40
0.3859420334
 40
0.5118757439
 40
0.7591011289
 40
1.0
 40
1.0
 40
1.0
 40
1.0
 10
10.4723634913
 20
10.0615013332
 30
0.0
 10
10.4693514266
 20
10.0590610517
 30
0.0
 10
10.4637171914
 20
10.0537352157
 30
0.0
 10
10.4562509714
 20
10.0449244152
 30
0.0
 10
10.4496266782
 20
10.0356066169
 30
0.0
 10
10.441812146
 20
10.0228395152
 30
0.0
 10
10.4336016607
 20
10.0063889602
 30
0.0
 10
10.4282945531
 20
9.9927788501
 30
0.0
 10
10.4259822527
 20
9.9859610132
 30
0.0
  0
LINE
  5
265
100
AcDbEntity
  8
0
100
AcDbLine
 62
9
  6
CONTINUOUS
 10
10.5578798041
 20
10.0242934661
 11
10.5536916511
 21
10.0251476675
  0
LINE
  5
266
100
AcDbEntity
  8
0
100
AcDbLine
 62
9
  6
CONTINUOUS
 10
10.5026917244
 20
10.4429596942
 11
10.4977876909
 21
10.4416419841
  0
SPLINE
  5
267
100
AcDbEntity
  8
0
100
AcDbSpline
 62
7
  6
CONTINUOUS
 70
0
 71
3
 72
25
 73
21
 74
0
 42
0.0000001
 43
0.0000001
 44
0.0000000001
 40
0.0
 40
0.0
 40
0.0
 40
0.0
 40
0.0699589583
 40
0.1378544917
 40
0.2035055121
 40
0.2667887327
 40
0.3277284837
 40
0.3865434149
 40
0.4153072972
 40
0.4437433105
 40
0.5000002543
 40
0.5562571977
 40
0.5846932103
 40
0.6134570918
 40
0.6722720213
 40
0.733211782
 40
0.7964950152
 40
0.8621459329
 40
0.9300412092
 40
1.0
 40
1.0
 40
1.0
 40
1.0
 10
10.8607521979
 20
8.6521142608
 30
0.0
 10
10.8534733302
 20
8.659372161
 30
0.0
 10
10.838821386
 20
8.6733702397
 30
0.0
 10
10.8161207098
 20
8.6928572214
 30
0.0
 10
10.7929876606
 20
8.7102536406
 30
0.0
 10
10.7694099541
 20
8.7252335276
 30
0.0
 10
10.745387791
 20
8.7374294492
 30
0.0
 10
10.724873235
 20
8.7450487483
 30
0.0
 10
10.7083661092
 20
8.7493517911
 30
0.0
 10
10.6919692538
 20
8.752420885
 30
0.0
 10
10.671237816
 20
8.7540123572
 30
0.0
 10
10.6505063786
 20
8.7524208839
 30
0.0
 10
10.634109523
 20
8.749351793
 30
0.0
 10
10.6176023965
 20
8.745048755
 30
0.0
 10
10.5970878347
 20
8.7374294676
 30
0.0
 10
10.5730656768
 20
8.7252335249
 30
0.0
 10
10.5494880054
 20
8.7102536077
 30
0.0
 10
10.5263549406
 20
8.692857302
 30
0.0
 10
10.5036541557
 20
8.6733705673
 30
0.0
 10
10.4890021855
 20
8.6593726017
 30
0.0
 10
10.4817233333
 20
8.6521147209
 30
0.0
  0
LINE
  5
268
100
AcDbEntity
  8
0
100
AcDbLine
 62
9
  6
CONTINUOUS
 10
10.5210849668
 20
10.379466351
 11
10.5593306141
 21
10.3879843984
  0
SPLINE
  5
269
100
AcDbEntity
  8
0
100
AcDbSpline
 62
9
  6
CONTINUOUS
 70
0
 71
3
 72
9
 73
5
 74
0
 42
0.0000001
 43
0.0000001
 44
0.0000000001
 40
0.0
 40
0.0
 40
0.0
 40
0.0
 40
0.5000174496
 40
1.0
 40
1.0
 40
1.0
 40
1.0
 10
12.9114840484
 20
10.4437996886
 30
0.0
 10
12.5130589983
 20
10.4335049521
 30
0.0
 10
11.716256759
 20
10.412143179
 30
0.0
 10
10.9194728472
 20
10.3901170332
 30
0.0
 10
10.5210849807
 20
10.3794663607
 30
0.0
  0
SPLINE
  5
26A
100
AcDbEntity
  8
0
100
AcDbSpline
 62
9
  6
CONTINUOUS
 70
0
 71
3
 72
13
 73
9
 74
0
 42
0.0000001
 43
0.0000001
 44
0.0000000001
 40
0.0
 40
0.0
 40
0.0
 40
0.0
 40
0.12982363
 40
0.2587300975
 40
0.3862304691
 40
0.512207266
 40
0.7593800326
 40
1.0
 40
1.0
 40
1.0
 40
1.0
 10
10.4723634913
 20
10.3495409334
 30
0.0
 10
10.4693681847
 20
10.3519431583
 30
0.0
 10
10.463757107
 20
10.3571846812
 30
0.0
 10
10.4563046663
 20
10.3658611417
 30
0.0
 10
10.4496821913
 20
10.3750426756
 30
0.0
 10
10.4418615055
 20
10.3876262187
 30
0.0
 10
10.4336319794
 20
10.4038447689
 30
0.0
 10
10.4283040923
 20
10.4172740574
 30
0.0
 10
10.4259822527
 20
10.4240010996
 30
0.0
  0
SPLINE
  5
26B
100
AcDbEntity
  8
0
100
AcDbSpline
 62
9
  6
CONTINUOUS
 70
0
 71
3
 72
9
 73
5
 74
0
 42
0.0000001
 43
0.0000001
 44
0.0000000001
 40
0.0
 40
0.0
 40
0.0
 40
0.0
 40
0.5012254547
 40
1.0
 40
1.0
 40
1.0
 40
1.0
 10
10.5210849371
 20
10.3794668551
 30
0.0
 10
10.5157315435
 20
10.3792199882
 30
0.0
 10
10.5049756216
 20
10.3798054081
 30
0.0
 10
10.494548634
 20
10.3825479998
 30
0.0
 10
10.4895710252
 20
10.3844618948
 30
0.0
  0
SPLINE
  5
26C
100
AcDbEntity
  8
0
100
AcDbSpline
 62
9
  6
CONTINUOUS
 70
0
 71
3
 72
13
 73
9
 74
0
 42
0.0000001
 43
0.0000001
 44
0.0000000001
 40
0.0
 40
0.0
 40
0.0
 40
0.0
 40
0.1365473049
 40
0.2710140654
 40
0.4019697846
 40
0.5291889938
 40
0.7723266872
 40
1.0
 40
1.0
 40
1.0
 40
1.0
 10
10.4895712948
 20
10.3844615163
 30
0.0
 10
10.4863774237
 20
10.3856900389
 30
0.0
 10
10.480131389
 20
10.3883749288
 30
0.0
 10
10.471137732
 20
10.392922857
 30
0.0
 10
10.4625801771
 20
10.397787132
 30
0.0
 10
10.4519220222
 20
10.4044430569
 30
0.0
 10
10.4396033649
 20
10.4129979435
 30
0.0
 10
10.4303447951
 20
10.4203253353
 30
0.0
 10
10.4259813535
 20
10.4240016636
 30
0.0
  0
SPLINE
  5
26D
100
AcDbEntity
  8
0
100
AcDbSpline
 62
9
  6
CONTINUOUS
 70
0
 71
3
 72
14
 73
10
 74
0
 42
0.0000001
 43
0.0000001
 44
0.0000000001
 40
0.0
 40
0.0
 40
0.0
 40
0.0
 40
0.3269028091
 40
0.4854975482
 40
0.6317814917
 40
0.759474181
 40
0.8646647391
 40
0.9447523406
 40
1.0
 40
1.0
 40
1.0
 40
1.0
 10
10.4723639861
 20
10.3495407073
 30
0.0
 10
10.4741483086
 20
10.3533903743
 30
0.0
 10
10.4768261262
 20
10.3590948718
 30
0.0
 10
10.4803744528
 20
10.3664877609
 30
0.0
 10
10.4828365559
 20
10.3715338222
 30
0.0
 10
10.4850313939
 20
10.3759387922
 30
0.0
 10
10.486880047
 20
10.3795562236
 30
0.0
 10
10.4883437476
 20
10.3823137641
 30
0.0
 10
10.4892022426
 20
10.3838469078
 30
0.0
 10
10.4895713382
 20
10.3844617195
 30
0.0
  0
SPLINE
  5
26E
100
AcDbEntity
  8
0
100
AcDbSpline
 62
9
  6
CONTINUOUS
 70
0
 71
3
 72
9
 73
5
 74
0
 42
0.0000001
 43
0.0000001
 44
0.0000000001
 40
0.0
 40
0.0
 40
0.0
 40
0.0
 40
0.5000167802
 40
1.0
 40
1.0
 40
1.0
 40
1.0
 10
10.5208658556
 20
10.3396212392
 30
0.0
 10
10.5125625622
 20
10.3393990172
 30
0.0
 10
10.4958521709
 20
10.3408343931
 30
0.0
 10
10.4798976729
 20
10.3460450916
 30
0.0
 10
10.4723634912
 20
10.3495409334
 30
0.0
  0
SPLINE
  5
26F
100
AcDbEntity
  8
0
100
AcDbSpline
 62
7
  6
CONTINUOUS
 70
0
 71
3
 72
19
 73
15
 74
0
 42
0.0000001
 43
0.0000001
 44
0.0000000001
 40
0.0
 40
0.0
 40
0.0
 40
0.0
 40
0.1249812982
 40
0.1874945098
 40
0.2500014795
 40
0.3749635368
 40
0.4374820251
 40
0.5
 40
0.5625179749
 40
0.6250364632
 40
0.7499985205
 40
0.8125054902
 40
0.8750187017
 40
1.0
 40
1.0
 40
1.0
 40
1.0
 10
10.481721482
 20
8.6521147209
 30
0.0
 10
10.4522070885
 20
8.6668294158
 30
0.0
 10
10.4071247193
 20
8.6873801538
 30
0.0
 10
10.3453325267
 20
8.7105522317
 30
0.0
 10
10.2824253246
 20
8.7304654787
 30
0.0
 10
10.2178016512
 20
8.7447736963
 30
0.0
 10
10.1521947749
 20
8.752123349
 30
0.0
 10
10.1026921302
 20
8.7540039949
 30
0.0
 10
10.0531894855
 20
8.752123349
 30
0.0
 10
9.9875826092
 20
8.7447736963
 30
0.0
 10
9.9229589359
 20
8.7304654782
 30
0.0
 10
9.8600517336
 20
8.710552232
 30
0.0
 10
9.7982595409
 20
8.6873801545
 30
0.0
 10
9.753177172
 20
8.6668294157
 30
0.0
 10
9.7236627784
 20
8.6521147208
 30
0.0
  0
SPLINE
  5
270
100
AcDbEntity
  8
0
100
AcDbSpline
 62
9
  6
CONTINUOUS
 70
0
 71
3
 72
18
 73
14
 74
0
 42
0.0000001
 43
0.0000001
 44
0.0000000001
 40
0.0
 40
0.0
 40
0.0
 40
0.0
 40
0.0148450307
 40
0.0370499383
 40
0.0669466681
 40
0.1048437072
 40
0.1509047178
 40
0.2047411911
 40
0.3336250628
 40
0.4863892431
 40
0.6544355786
 40
0.8284795177
 40
1.0
 40
1.0
 40
1.0
 40
1.0
 10
12.9125249934
 20
10.030197469
 30
0.0
 10
12.9124752829
 20
10.0303874511
 30
0.0
 10
12.9123894413
 20
10.0308709761
 30
0.0
 10
12.9122774862
 20
10.0317493006
 30
0.0
 10
12.9121650005
 20
10.0329348161
 30
0.0
 10
12.912052825
 20
10.0344367678
 30
0.0
 10
12.9119438121
 20
10.0362563956
 30
0.0
 10
12.9117945887
 20
10.0392791852
 30
0.0
 10
12.9116326386
 20
10.043714373
 30
0.0
 10
12.9114829784
 20
10.0496613588
 30
0.0
 10
12.9113725805
 20
10.0562066958
 30
0.0
 10
12.9113073761
 20
10.0630007472
 30
0.0
 10
12.9112914758
 20
10.0675720612
 30
0.0
 10
12.9112904108
 20
10.0698410253
 30
0.0
  0
SPLINE
  5
271
100
AcDbEntity
  8
0
100
AcDbSpline
 62
9
  6
CONTINUOUS
 70
0
 71
3
 72
13
 73
9
 74
0
 42
0.0000001
 43
0.0000001
 44
0.0000000001
 40
0.0
 40
0.0
 40
0.0
 40
0.0
 40
0.250407404
 40
0.500395215
 40
0.6255395715
 40
0.750515112
 40
0.875290567
 40
1.0
 40
1.0
 40
1.0
 40
1.0
 10
12.9125240714
 20
10.0301972488
 30
0.0
 10
12.9167123044
 20
10.0301796026
 30
0.0
 10
12.925142545
 20
10.0314648382
 30
0.0
 10
12.9346536478
 20
10.0362428299
 30
0.0
 10
12.9410632169
 20
10.0416629991
 30
0.0
 10
12.9451806885
 20
10.046428277
 30
0.0
 10
12.9484864577
 20
10.0517771852
 30
0.0
 10
12.9501018196
 20
10.0556472598
 30
0.0
 10
12.9507486444
 20
10.0576303037
 30
0.0
  0
SPLINE
  5
272
100
AcDbEntity
  8
0
100
AcDbSpline
 62
9
  6
CONTINUOUS
 70
0
 71
3
 72
9
 73
5
 74
0
 42
0.0000001
 43
0.0000001
 44
0.0000000001
 40
0.0
 40
0.0
 40
0.0
 40
0.0
 40
0.4999824967
 40
1.0
 40
1.0
 40
1.0
 40
1.0
 10
10.5196847676
 20
10.031800231
 30
0.0
 10
10.9184774101
 20
10.0316053267
 30
0.0
 10
11.7160899862
 20
10.0304868112
 30
0.0
 10
12.5137034584
 20
10.0300352713
 30
0.0
 10
12.9125240372
 20
10.0301976047
 30
0.0
  0
LINE
  5
273
100
AcDbEntity
  8
0
100
AcDbLine
 62
9
  6
CONTINUOUS
 10
10.5184198957
 20
10.0716626948
 11
12.9112894851
 21
10.0698481002
  0
SPLINE
  5
274
100
AcDbEntity
  8
0
100
AcDbSpline
 62
9
  6
CONTINUOUS
 70
0
 71
3
 72
18
 73
14
 74
0
 42
0.0000001
 43
0.0000001
 44
0.0000000001
 40
0.0
 40
0.0
 40
0.0
 40
0.0
 40
0.1715694372
 40
0.3456317774
 40
0.5136717048
 40
0.6664161484
 40
0.7952786315
 40
0.8491061167
 40
0.8951603142
 40
0.933053264
 40
0.9629483101
 40
0.9851534161
 40
1.0
 40
1.0
 40
1.0
 40
1.0
 10
12.9112912588
 20
10.4041734899
 30
0.0
 10
12.9112329
 20
10.4064402954
 30
0.0
 10
12.9111290616
 20
10.4110072073
 30
0.0
 10
12.9110162451
 20
10.4177952869
 30
0.0
 10
12.910955071
 20
10.4243352384
 30
0.0
 10
12.9109487699
 20
10.4302780885
 30
0.0
 10
12.9109943246
 20
10.4347113166
 30
0.0
 10
12.9110641605
 20
10.4377337484
 30
0.0
 10
12.9111253576
 20
10.4395536965
 30
0.0
 10
12.9111980344
 20
10.4410565449
 30
0.0
 10
12.9112793126
 20
10.442243453
 30
0.0
 10
12.911368111
 20
10.4431236152
 30
0.0
 10
12.9114411758
 20
10.4436088084
 30
0.0
 10
12.9114858445
 20
10.4437998771
 30
0.0
  0
SPLINE
  5
275
100
AcDbEntity
  8
0
100
AcDbSpline
 62
9
  6
CONTINUOUS
 70
0
 71
3
 72
13
 73
9
 74
0
 42
0.0000001
 43
0.0000001
 44
0.0000000001
 40
0.0
 40
0.0
 40
0.0
 40
0.0
 40
0.2503849032
 40
0.5003720733
 40
0.6255294092
 40
0.7505143264
 40
0.8752929089
 40
1.0
 40
1.0
 40
1.0
 40
1.0
 10
12.9114840811
 20
10.443799862
 30
0.0
 10
12.9157462885
 20
10.4439275901
 30
0.0
 10
12.9243632114
 20
10.4428157225
 30
0.0
 10
12.9341358721
 20
10.4381156765
 30
0.0
 10
12.9407344253
 20
10.432681244
 30
0.0
 10
12.9449772648
 20
10.4278713309
 30
0.0
 10
12.9483836106
 20
10.4224489365
 30
0.0
 10
12.9500463542
 20
10.4185151205
 30
0.0
 10
12.9507110417
 20
10.4164980201
 30
0.0
  0
LINE
  5
276
100
AcDbEntity
  8
0
100
AcDbLine
 62
9
  6
CONTINUOUS
 10
12.9112895769
 20
10.4041668747
 11
10.5208658556
 21
10.3396212392
  0
SPLINE
  5
277
100
AcDbEntity
  8
0
100
AcDbSpline
 62
9
  6
CONTINUOUS
 70
0
 71
3
 72
20
 73
16
 74
0
 42
0.0000001
 43
0.0000001
 44
0.0000000001
 40
0.0
 40
0.0
 40
0.0
 40
0.0
 40
0.1743031627
 40
0.3518292227
 40
0.5234068045
 40
0.6787490057
 40
0.7471546256
 40
0.8082785489
 40
0.8615387311
 40
0.9063549016
 40
0.942309179
 40
0.9696247856
 40
0.9886994059
 40
0.9952863591
 40
1.0
 40
1.0
 40
1.0
 40
1.0
 10
10.5208658649
 20
10.3396212394
 30
0.0
 10
10.5208039007
 20
10.3419373402
 30
0.0
 10
10.5206931772
 20
10.3466127612
 30
0.0
 10
10.5205720383
 20
10.3535691627
 30
0.0
 10
10.5205059473
 20
10.3602742577
 30
0.0
 10
10.5204993139
 20
10.3655292409
 30
0.0
 10
10.5205316827
 20
10.3693157998
 30
0.0
 10
10.5205708882
 20
10.3717452435
 30
0.0
 10
10.5206245117
 20
10.3738607912
 30
0.0
 10
10.520691223
 20
10.3756411618
 30
0.0
 10
10.5207696821
 20
10.3770759761
 30
0.0
 10
10.5208585175
 20
10.3781668323
 30
0.0
 10
10.5209430553
 20
10.3788667726
 30
0.0
 10
10.5210215293
 20
10.3792628524
 30
0.0
 10
10.5210621796
 20
10.3794079932
 30
0.0
 10
10.5210849632
 20
10.3794663602
 30
0.0
  0
SPLINE
  5
278
100
AcDbEntity
  8
0
100
AcDbSpline
 62
9
  6
CONTINUOUS
 70
0
 71
3
 72
9
 73
5
 74
0
 42
0.0000001
 43
0.0000001
 44
0.0000000001
 40
0.0
 40
0.0
 40
0.0
 40
0.0
 40
0.5000069514
 40
1.0
 40
1.0
 40
1.0
 40
1.0
 10
10.5184198957
 20
10.0716626948
 30
0.0
 10
10.5105117442
 20
10.0716676262
 30
0.0
 10
10.494648148
 20
10.0699652328
 30
0.0
 10
10.4795238059
 20
10.0648577153
 30
0.0
 10
10.4723634912
 20
10.0615013332
 30
0.0
  0
SPLINE
  5
279
100
AcDbEntity
  8
0
100
AcDbSpline
 62
9
  6
CONTINUOUS
 70
0
 71
3
 72
14
 73
10
 74
0
 42
0.0000001
 43
0.0000001
 44
0.0000000001
 40
0.0
 40
0.0
 40
0.0
 40
0.0
 40
0.054104615
 40
0.1334388301
 40
0.2383203895
 40
0.3661085997
 40
0.5128115648
 40
0.671998048
 40
1.0
 40
1.0
 40
1.0
 40
1.0
 10
10.489771372
 20
10.0265400436
 30
0.0
 10
10.4894039371
 20
10.0271411609
 30
0.0
 10
10.4885462207
 20
10.0286529718
 30
0.0
 10
10.4870780049
 20
10.0313869248
 30
0.0
 10
10.4852133739
 20
10.0349967309
 30
0.0
 10
10.4829917881
 20
10.0394090292
 30
0.0
 10
10.4804948455
 20
10.0444742029
 30
0.0
 10
10.4768934279
 20
10.0519013213
 30
0.0
 10
10.4741749865
 20
10.0576334526
 30
0.0
 10
10.4723636945
 20
10.0615014276
 30
0.0
  0
SPLINE
  5
27A
100
AcDbEntity
  8
0
100
AcDbSpline
 62
9
  6
CONTINUOUS
 70
0
 71
3
 72
20
 73
16
 74
0
 42
0.0000001
 43
0.0000001
 44
0.0000000001
 40
0.0
 40
0.0
 40
0.0
 40
0.0
 40
0.0047122521
 40
0.0112980895
 40
0.0303716906
 40
0.0576884736
 40
0.0936467924
 40
0.1384702739
 40
0.191740399
 40
0.252875998
 40
0.3212941272
 40
0.4766590079
 40
0.648244351
 40
0.8257503807
 40
1.0
 40
1.0
 40
1.0
 40
1.0
 10
10.5196847589
 20
10.031800231
 30
0.0
 10
10.5196604286
 20
10.0318580131
 30
0.0
 10
10.5196159446
 20
10.0320021367
 30
0.0
 10
10.5195270242
 20
10.0323963371
 30
0.0
 10
10.5194240596
 20
10.0330944511
 30
0.0
 10
10.5193065282
 20
10.0341836626
 30
0.0
 10
10.5191903488
 20
10.0356174156
 30
0.0
 10
10.5190768529
 20
10.0373973502
 30
0.0
 10
10.5189676554
 20
10.0395131015
 30
0.0
 10
10.5188646487
 20
10.0419433786
 30
0.0
 10
10.5187328682
 20
10.0457319068
 30
0.0
 10
10.5186015956
 20
10.0509906827
 30
0.0
 10
10.5184917888
 20
10.0577015391
 30
0.0
 10
10.5184305032
 20
10.0646642783
 30
0.0
 10
10.5184186514
 20
10.0693443372
 30
0.0
 10
10.5184199039
 20
10.0716626948
 30
0.0
  0
ENDSEC
  0
SECTION
  2
OBJECTS
  0
DICTIONARY
  5
C
100
AcDbDictionary
280
0
281
1
  3
ACAD_GROUP
350
D
  3
ACAD_MLINESTYLE
350
17
  3
ACAD_LAYOUT
350
1A
  3
ACAD_PLOTSETTINGS
350
19
  3
ACAD_PLOTSTYLENAME
350
E
  0
DICTIONARY
  5
D
102
{ACAD_REACTORS
330
C
102
}
100
AcDbDictionary
280
0
281
1
  0
ACDBDICTIONARYWDFLT
  5
E
102
{ACAD_REACTORS
330
C
102
}
100
AcDbDictionary
281
1
  3
Normal
350
F
100
AcDbDictionaryWithDefault
340
F
  0
DICTIONARY
  5
17
102
{ACAD_REACTORS
330
C
102
}
100
AcDbDictionary
280
0
281
1
  3
Standard
350
18
  0
DICTIONARY
  5
19
102
{ACAD_REACTORS
330
C
102
}
100
AcDbDictionary
281
1
  0
DICTIONARY
  5
1A
102
{ACAD_REACTORS
330
C
102
}
100
AcDbDictionary
281
1
  3
Model
350
27B
  3
Layout1
350
27C
  0
ACDBPLACEHOLDER
  5
F
102
{ACAD_REACTORS
330
E
102
}
  0
MLINESTYLE
  5
18
102
{ACAD_REACTORS
330
17
102
}
100
AcDbMlineStyle
  2
STANDARD
 70
0
  3

 62
256
 51
90.0
 52
90.0
 71
2
 49
0.5
 62
256
  6
BYLAYER
 49
-0.5
 62
256
  6
BYLAYER
  0
LAYOUT
  5
27B
102
{ACAD_REACTORS
330
1A
102
}
100
AcDbPlotSettings
  1

  2
none_device
  4
ANSI_C_(22.00_x_17.00_Inches)
  6

 40
0.0
 41
0.0
 42
0.0
 43
0.0
 44
558.8
 45
431.8
 46
0.0
 47
0.0
 48
0.0
 49
0.0
140
0.0
141
0.0
142
1.0
143
1.0
 70
1024
 72
0
 73
0
 74
0
  7

 75
0
147
1.0
148
0.0
149
0.0
100
AcDbLayout
  1
Model
 70
0
 71
0
 10
0.0
 20
0.0
 11
22.0
 21
17.0
 12
0.0
 22
0.0
 32
0.0
 14
0.0
 24
0.0
 34
0.0
 15
0.0
 25
0.0
 35
0.0
146
0.0
 13
0.0
 23
0.0
 33
0.0
 16
1.0
 26
0.0
 36
0.0
 17
0.0
 27
1.0
 37
0.0
 76
0
330
202
345
0
346
0
  0
LAYOUT
  5
27C
102
{ACAD_REACTORS
330
1A
102
}
100
AcDbPlotSettings
  1

  2
none_device
  4
ANSI_C_(22.00_x_17.00_Inches)
  6

 40
0.0
 41
0.0
 42
0.0
 43
0.0
 44
558.8
 45
431.8
 46
0.0
 47
0.0
 48
0.0
 49
0.0
140
0.0
141
0.0
142
1.0
143
1.0
 70
0
 72
0
 73
0
 74
0
  7

 75
0
147
1.0
148
0.0
149
0.0
100
AcDbLayout
  1
Layout1
 70
0
 71
1
 10
0.0
 20
0.0
 11
22.0
 21
17.0
 12
0.0
 22
0.0
 32
0.0
 14
0.0
 24
0.0
 34
0.0
 15
0.0
 25
0.0
 35
0.0
146
0.0
 13
0.0
 23
0.0
 33
0.0
 16
1.0
 26
0.0
 36
0.0
 17
0.0
 27
1.0
 37
0.0
 76
0
330
203
345
0
346
0
  0
ENDSEC
  0
EOF
