999
DXF file: E:\BT Custom\CADOUTPUT\_TOP.dxf
999
Pro/ENGINEER 2018400 by Parametric Technology Corporation
  0
SECTION
  2
HEADER
  9
$ACADVER
  1
AC1018
  9
$DWGCODEPAGE
  3
ANSI_1252
  9
$EXTMAX
 10
22.0
 20
17.0
 30
0.0
  9
$EXTMIN
 10
0.0
 20
0.0
 30
0.0
  9
$LIMMIN
 10
0.0
 20
0.0
  9
$LIMMAX
 10
22.0
 20
17.0
  9
$VIEWCTR
 10
11.0
 20
8.5
  9
$VIEWSIZE
 40
17.0
  9
$CLAYER
  8
0
  9
$LTSCALE
 40
1.21
  9
$CELTYPE
  6
BYLAYER
  9
$DIMSCALE
 40
1.0
  9
$DIMASZ
 40
0.1
  9
$DIMEXO
 40
0.0625
  9
$DIMDLI
 40
0.836
  9
$DIMEXE
 40
0.125
  9
$DIMCEN
 40
0.198
  9
$DIMLFAC
 40
1.0
  9
$DIMBLK
  1
_FILLED
  9
$DIMALT
 70
1
  9
$DIMALTD
 70
2
  9
$DIMALTTD
 70
2
  9
$DIMALTF
 40
25.4
  9
$DIMTXT
 40
0.08
  9
$DIMTOL
 70
1
  9
$DIMLIM
 70
0
  9
$DIMTFAC
 40
1.0
  9
$DIMTP
 40
0.001
  9
$DIMTM
 40
0.001
  9
$DIMGAP
 40
0.09
  9
$DIMDSEP
 70
46
  9
$AUNITS
 70
0
  9
$PDMODE
 70
3
  9
$PDSIZE
 40
0.06
  9
$HANDSEED
  5
23C
  9
$TILEMODE
 70
1
  9
$MEASUREMENT
 70
0
  9
$INSUNITS
 70
1
  0
ENDSEC
  0
SECTION
  2
CLASSES
  0
CLASS
  1
ACDBDICTIONARYWDFLT
  2
AcDbDictionaryWithDefault
  3
AutoCAD 2000
 90
0
 91
1
280
0
281
0
  0
CLASS
  1
ACDBPLACEHOLDER
  2
AcDbPlaceHolder
  3
AutoCAD 2000
 90
0
 91
1
280
0
281
0
  0
CLASS
  1
LAYOUT
  2
AcDbLayout
  3
AutoCAD 2000
 90
0
 91
0
280
0
281
0
  0
ENDSEC
  0
SECTION
  2
TABLES
  0
TABLE
  2
VPORT
  5
8
100
AcDbSymbolTable
 70
2
  0
VPORT
  5
1F4
100
AcDbSymbolTableRecord
100
AcDbViewportTableRecord
  2
*ACTIVE
 70
0
 10
0.0
 20
0.0
 11
1.0
 21
1.0
 12
11.0
 22
8.5
 13
0.0
 23
0.0
 14
1.0
 24
1.0
 15
0.0
 25
0.0
 16
0.0
 26
0.0
 36
1.0
 17
0.0
 27
0.0
 37
0.0
 40
17.0
 41
1.2941176471
 42
50.0
 43
0.0
 44
0.0
 50
0.0
 51
0.0
 71
0
 72
100
 73
1
 74
1
 75
0
 76
0
 77
0
 78
0
  0
ENDTAB
  0
TABLE
  2
LTYPE
  5
5
100
AcDbSymbolTable
 70
6
  0
LTYPE
  5
14
100
AcDbSymbolTableRecord
100
AcDbLinetypeTableRecord
  2
BYBLOCK
 70
0
  3

 72
65
 73
0
 40
0.0
  0
LTYPE
  5
15
100
AcDbSymbolTableRecord
100
AcDbLinetypeTableRecord
  2
BYLAYER
 70
0
  3

 72
65
 73
0
 40
0.0
  0
LTYPE
  5
16
100
AcDbSymbolTableRecord
100
AcDbLinetypeTableRecord
  2
CONTINUOUS
 70
64
  3
Solid line
 72
65
 73
0
 40
0.0
  0
LTYPE
  5
1F5
100
AcDbSymbolTableRecord
100
AcDbLinetypeTableRecord
  2
CENTER
 70
64
  3
____ _ ____ _ ____ _ ____ _ ____ _ ____ _ ____
 72
65
 73
4
 40
0.6
 49
0.375
 74
0
 49
-0.075
 74
0
 49
0.075
 74
0
 49
-0.075
 74
0
  0
LTYPE
  5
1F6
100
AcDbSymbolTableRecord
100
AcDbLinetypeTableRecord
  2
HIDDEN
 70
64
  3
- - - - - - - - - - - - - - - - - - - -
 72
65
 73
2
 40
0.2
 49
0.1
 74
0
 49
-0.1
 74
0
  0
LTYPE
  5
1F7
100
AcDbSymbolTableRecord
100
AcDbLinetypeTableRecord
  2
PHANTOM
 70
64
  3
_____ _ _ _____ _ _ _____ _ _ _____
 72
65
 73
6
 40
0.8
 49
0.45
 74
0
 49
-0.05
 74
0
 49
0.1
 74
0
 49
-0.05
 74
0
 49
0.1
 74
0
 49
-0.05
 74
0
  0
LTYPE
  5
1F8
100
AcDbSymbolTableRecord
100
AcDbLinetypeTableRecord
  2
DOT
 70
64
  3
. . . . . . . . . . . . . . . . . . . .
 72
65
 73
2
 40
0.2
 49
0.1
 74
0
 49
-0.1
 74
0
  0
LTYPE
  5
1F9
100
AcDbSymbolTableRecord
100
AcDbLinetypeTableRecord
  2
DASHED
 70
64
  3
- - - - - - - - - - - - - - - - - - - -
 72
65
 73
2
 40
0.2
 49
0.1
 74
0
 49
-0.1
 74
0
  0
ENDTAB
  0
TABLE
  2
LAYER
  5
2
100
AcDbSymbolTable
 70
36
  0
LAYER
  5
10
100
AcDbSymbolTableRecord
100
AcDbLayerTableRecord
  2
0
 70
0
 62
7
  6
CONTINUOUS
370
-3
390
F
  0
LAYER
  5
1FA
100
AcDbSymbolTableRecord
100
AcDbLayerTableRecord
  2
DEFAULT_1
 70
0
 62
7
  6
CENTER
370
-3
390
F
  0
LAYER
  5
1FB
100
AcDbSymbolTableRecord
100
AcDbLayerTableRecord
  2
DEFAULT_2
 70
0
 62
8
  6
HIDDEN
370
-3
390
F
  0
LAYER
  5
1FC
100
AcDbSymbolTableRecord
100
AcDbLayerTableRecord
  2
DEFAULT_3
 70
0
 62
7
  6
PHANTOM
370
-3
390
F
  0
LAYER
  5
1FD
100
AcDbSymbolTableRecord
100
AcDbLayerTableRecord
  2
ALL_FEATURES
 70
0
 62
7
  6
CONTINUOUS
370
-3
390
F
  0
LAYER
  5
1FE
100
AcDbSymbolTableRecord
100
AcDbLayerTableRecord
  2
AXES_FEATURES
 70
0
 62
7
  6
CONTINUOUS
370
-3
390
F
  0
LAYER
  5
1FF
100
AcDbSymbolTableRecord
100
AcDbLayerTableRecord
  2
DIMENSIONS
 70
0
 62
7
  6
CONTINUOUS
370
-3
390
F
  0
ENDTAB
  0
TABLE
  2
STYLE
  5
3
100
AcDbSymbolTable
 70
1
  0
STYLE
  5
11
100
AcDbSymbolTableRecord
100
AcDbTextStyleTableRecord
  2
STANDARD
 70
0
 40
0.0
 41
0.8
 50
0.0
 71
0
 42
0.2
  3
txt
  4

  0
STYLE
  5
200
100
AcDbSymbolTableRecord
100
AcDbTextStyleTableRecord
  2
TEXTSTYLE_1
 70
0
 40
0.0
 41
0.8
 50
0.0
 71
0
 42
0.2
  3
gdt
  4

  0
ENDTAB
  0
TABLE
  2
VIEW
  5
6
100
AcDbSymbolTable
 70
0
  0
ENDTAB
  0
TABLE
  2
UCS
  5
7
100
AcDbSymbolTable
 70
0
  0
ENDTAB
  0
TABLE
  2
APPID
  5
9
100
AcDbSymbolTable
 70
1
  0
APPID
  5
201
100
AcDbSymbolTableRecord
100
AcDbRegAppTableRecord
  2
ACAD
 70
0
  0
ENDTAB
  0
TABLE
  2
BLOCK_RECORD
  5
1
100
AcDbSymbolTable
 70
0
  0
BLOCK_RECORD
  5
202
100
AcDbSymbolTableRecord
100
AcDbBlockTableRecord
  2
*Model_Space
  0
BLOCK_RECORD
  5
203
100
AcDbSymbolTableRecord
100
AcDbBlockTableRecord
  2
*Paper_Space
  0
BLOCK_RECORD
  5
204
100
AcDbSymbolTableRecord
100
AcDbBlockTableRecord
  2
_FILLED
  0
ENDTAB
  0
TABLE
  2
DIMSTYLE
  5
A
100
AcDbSymbolTable
 70
1
100
AcDbDimStyleTable
 71
0
  0
DIMSTYLE
105
205
100
AcDbSymbolTableRecord
100
AcDbDimStyleTableRecord
  2
STANDARD
 70
0
  3

  4

 40
1.0
 41
0.1
 42
0.0625
 43
0.38
 44
0.125
 45
0.0
 46
0.0
 47
0.001
 48
0.001
140
0.08
141
0.09
142
0.0
143
25.4
144
1.0
145
0.0
146
1.0
147
0.09
 71
1.0
 72
0.0
 73
1
 74
1
 75
0
 76
0
 77
0
 78
4
 79
1
170
1
171
2
172
0
173
0
174
0
175
0
176
0
177
0
178
0
270
2
179
3
271
3
272
3
273
2
274
2
275
0
280
0
281
0
282
0
283
1
284
4
285
0
286
0
287
3
288
0
340
11
278
46
341
204
342
204
343
204
344
204
  0
ENDTAB
  0
ENDSEC
  0
SECTION
  2
BLOCKS
  0
BLOCK
  5
20
100
AcDbEntity
  8
0
100
AcDbBlockBegin
  2
*Model_Space
 70
0
 10
0.0
 20
0.0
 30
0.0
  3
*Model_Space
  1

  0
ENDBLK
  5
21
100
AcDbEntity
  8
0
100
AcDbBlockEnd
  0
BLOCK
  5
1C
100
AcDbEntity
  8
0
100
AcDbBlockBegin
  2
*Paper_Space
 70
0
 10
0.0
 20
0.0
 30
0.0
  3
*Paper_Space
  1

  0
ENDBLK
  5
1D
100
AcDbEntity
  8
0
100
AcDbBlockEnd
  0
BLOCK
  5
206
100
AcDbEntity
  8
0
100
AcDbBlockBegin
  2
_FILLED
 70
64
 10
0.0
 20
0.0
  3
_FILLED
  1

  0
SOLID
  5
207
100
AcDbEntity
  8
0
  6
BYBLOCK
 62
0
100
AcDbTrace
 10
0.0
 20
0.0
 11
-1.0
 21
0.2
 12
-1.0
 22
-0.2
 13
-1.0
 23
-0.2
  0
ENDBLK
  5
208
100
AcDbEntity
  8
0
  6
BYBLOCK
 62
0
100
AcDbBlockEnd
  0
ENDSEC
  0
SECTION
  2
ENTITIES
  0
LINE
  5
209
100
AcDbEntity
  8
0
100
AcDbLine
 62
7
  6
CONTINUOUS
 10
9.4542578738
 20
7.482332989
 11
9.8332869224
 21
8.1388305588
  0
LINE
  5
20A
100
AcDbEntity
  8
0
100
AcDbLine
 62
7
  6
CONTINUOUS
 10
9.8332869225
 20
6.8258331618
 11
9.4542578738
 21
7.4823307318
  0
LINE
  5
20B
100
AcDbEntity
  8
0
100
AcDbLine
 62
7
  6
CONTINUOUS
 10
10.5913474775
 20
6.8258318604
 11
9.833288774
 21
6.8258318604
  0
LINE
  5
20C
100
AcDbEntity
  8
0
100
AcDbLine
 62
7
  6
CONTINUOUS
 10
13.0209155724
 20
7.1837845816
 11
10.5819894868
 21
7.2693609355
  0
LINE
  5
20D
100
AcDbEntity
  8
0
100
AcDbLine
 62
7
  6
CONTINUOUS
 10
10.8421499035
 20
7.2602324998
 11
10.5913493289
 21
6.8258331621
  0
LINE
  5
20E
100
AcDbEntity
  8
0
100
AcDbLine
 62
9
  6
CONTINUOUS
 10
10.6689566116
 20
7.4823318587
 11
10.6123177549
 21
7.4823318538
  0
LINE
  5
20F
100
AcDbEntity
  8
0
100
AcDbLine
 62
7
  6
CONTINUOUS
 10
10.5913492571
 20
8.1388306831
 11
10.8421499035
 21
7.704431221
  0
LINE
  5
210
100
AcDbEntity
  8
0
100
AcDbLine
 62
7
  6
CONTINUOUS
 10
13.0209154807
 20
7.780879136
 11
10.5819894868
 21
7.6953027854
  0
LINE
  5
211
100
AcDbEntity
  8
0
100
AcDbLine
 62
7
  6
CONTINUOUS
 10
9.8332887737
 20
8.1388318604
 11
10.5913472177
 21
8.1388318604
  0
LINE
  5
212
100
AcDbEntity
  8
0
100
AcDbLine
 62
9
  6
CONTINUOUS
 10
13.0211100717
 20
7.218441358
 11
13.0211100654
 21
7.7462223821
  0
LINE
  5
213
100
AcDbEntity
  8
0
100
AcDbLine
 62
7
  6
CONTINUOUS
 10
13.0623181256
 20
7.2237599986
 11
13.0623181256
 21
7.7409037223
  0
ARC
  5
214
100
AcDbEntity
  8
0
100
AcDbCircle
 62
9
  6
CONTINUOUS
 10
10.2346869351
 20
7.4821252928
 40
0.4342737417
100
AcDbArc
 50
0.0272536919
 51
24.2284967367
  0
ARC
  5
215
100
AcDbEntity
  8
0
100
AcDbCircle
 62
7
  6
CONTINUOUS
 10
10.5800608491
 20
7.2143947608
 40
0.055
100
AcDbArc
 50
87.990446187
 51
143.9232694451
  0
ARC
  5
216
100
AcDbEntity
  8
0
100
AcDbCircle
 62
7
  6
CONTINUOUS
 10
10.2123181256
 20
7.4823318604
 40
1.18
100
AcDbArc
 50
11.7875833819
 51
348.2128066687
  0
ARC
  5
217
100
AcDbEntity
  8
0
100
AcDbCircle
 62
7
  6
CONTINUOUS
 10
10.2123181256
 20
7.4823318604
 40
1.0000026738
100
AcDbArc
 50
13.5752673692
 51
346.4247326308
  0
ARC
  5
218
100
AcDbEntity
  8
0
100
AcDbCircle
 62
9
  6
CONTINUOUS
 10
10.2123181256
 20
7.4823318604
 40
0.8130026738
100
AcDbArc
 50
16.2854382043
 51
343.7185038792
  0
ARC
  5
219
100
AcDbEntity
  8
0
100
AcDbCircle
 62
7
  6
CONTINUOUS
 10
10.2123181256
 20
7.4823318604
 40
0.741
100
AcDbArc
 50
62.3704986062
 51
117.6295013938
  0
ARC
  5
21A
100
AcDbEntity
  8
0
100
AcDbCircle
 62
7
  6
CONTINUOUS
 10
10.2123181256
 20
7.4823318604
 40
0.741
100
AcDbArc
 50
302.3704986062
 51
342.2953821909
  0
ARC
  5
21B
100
AcDbEntity
  8
0
100
AcDbCircle
 62
7
  6
CONTINUOUS
 10
10.2123181256
 20
7.4823318604
 40
0.741
100
AcDbArc
 50
122.3704986062
 51
177.6295013938
  0
ARC
  5
21C
100
AcDbEntity
  8
0
100
AcDbCircle
 62
7
  6
CONTINUOUS
 10
10.2123181256
 20
7.4823318604
 40
0.741
100
AcDbArc
 50
242.3704986062
 51
297.6295013938
  0
ARC
  5
21D
100
AcDbEntity
  8
0
100
AcDbCircle
 62
7
  6
CONTINUOUS
 10
10.2123181256
 20
7.4823318604
 40
0.741
100
AcDbArc
 50
182.3704986062
 51
237.6295013938
  0
ARC
  5
21E
100
AcDbEntity
  8
0
100
AcDbCircle
 62
7
  6
CONTINUOUS
 10
10.2123181256
 20
7.4823318604
 40
0.741
100
AcDbArc
 50
17.7046178091
 51
57.6295013938
  0
ARC
  5
21F
100
AcDbEntity
  8
0
100
AcDbCircle
 62
7
  6
CONTINUOUS
 10
10.2123181256
 20
7.4823318604
 40
0.6515
100
AcDbArc
 50
19.878521394
 51
340.121478606
  0
ARC
  5
220
100
AcDbEntity
  8
0
100
AcDbCircle
 62
9
  6
CONTINUOUS
 10
10.2123181256
 20
7.4823318604
 40
0.6146339942
100
AcDbArc
 50
21.0181837255
 51
338.9818162745
  0
ARC
  5
221
100
AcDbEntity
  8
0
100
AcDbCircle
 62
9
  6
CONTINUOUS
 10
10.2123181256
 20
7.4823318604
 40
0.5405
100
AcDbArc
 50
23.7911019561
 51
336.2088980439
  0
ARC
  5
222
100
AcDbEntity
  8
0
100
AcDbCircle
 62
9
  6
CONTINUOUS
 10
10.2123181256
 20
7.4823318604
 40
0.4297397276
100
AcDbArc
 50
29.9353725382
 51
330.0605512219
  0
CIRCLE
  5
223
100
AcDbEntity
  8
0
100
AcDbCircle
 62
7
  6
CONTINUOUS
 10
10.2123181256
 20
7.4823318604
 40
0.4
  0
CIRCLE
  5
224
100
AcDbEntity
  8
0
100
AcDbCircle
 62
9
  6
CONTINUOUS
 10
10.2123181256
 20
7.4823318604
 40
0.3875
  0
CIRCLE
  5
225
100
AcDbEntity
  8
0
100
AcDbCircle
 62
7
  6
CONTINUOUS
 10
10.2123181256
 20
7.4823318604
 40
0.3125
  0
CIRCLE
  5
226
100
AcDbEntity
  8
0
100
AcDbCircle
 62
9
  6
CONTINUOUS
 10
10.2123181256
 20
7.4823318604
 40
0.2825
  0
CIRCLE
  5
227
100
AcDbEntity
  8
0
100
AcDbCircle
 62
7
  6
CONTINUOUS
 10
10.2123181256
 20
7.4823318604
 40
0.2625
  0
ARC
  5
228
100
AcDbEntity
  8
0
100
AcDbCircle
 62
7
  6
CONTINUOUS
 10
10.5800608491
 20
7.75026896
 40
0.055
100
AcDbArc
 50
216.0763715987
 51
272.009553813
  0
ARC
  5
229
100
AcDbEntity
  8
0
100
AcDbCircle
 62
7
  6
CONTINUOUS
 10
13.0223181256
 20
7.2237599846
 40
0.04
100
AcDbArc
 50
267.9905128562
 51
360.0
  0
ARC
  5
22A
100
AcDbEntity
  8
0
100
AcDbCircle
 62
7
  6
CONTINUOUS
 10
13.0223181256
 20
7.7409037362
 40
0.04
100
AcDbArc
 50
0.0
 51
92.0094879445
  0
SPLINE
  5
22B
100
AcDbEntity
  8
0
100
AcDbSpline
 62
9
  6
CONTINUOUS
 70
0
 71
3
 72
24
 73
20
 74
0
 42
0.0000001
 43
0.0000001
 44
0.0000000001
 40
0.0
 40
0.0
 40
0.0
 40
0.0
 40
0.1888642924
 40
0.3768280774
 40
0.4674954885
 40
0.5542732528
 40
0.6358630058
 40
0.7109667363
 40
0.7784160419
 40
0.8375611004
 40
0.8878829812
 40
0.9288647794
 40
0.9601526837
 40
0.9722429751
 40
0.9820418428
 40
0.9896119679
 40
0.995025647
 40
0.9983879084
 40
1.0
 40
1.0
 40
1.0
 40
1.0
 10
13.0211111525
 20
7.7462223938
 30
0.0
 10
13.02104215
 20
7.7484057983
 30
0.0
 10
13.0209139934
 20
7.7527625027
 30
0.0
 10
13.0207803912
 20
7.758168156
 30
0.0
 10
13.0206950274
 20
7.7623937949
 30
0.0
 10
13.0206443262
 20
7.7653894935
 30
0.0
 10
13.0206071303
 20
7.7682053604
 30
0.0
 10
13.0205843608
 20
7.7707978124
 30
0.0
 10
13.020576994
 20
7.7731307562
 30
0.0
 10
13.0205845242
 20
7.7751770472
 30
0.0
 10
13.0206061623
 20
7.7769171407
 30
0.0
 10
13.0206409723
 20
7.7783346141
 30
0.0
 10
13.0206830886
 20
7.7793097671
 30
0.0
 10
13.0207254923
 20
7.7799231349
 30
0.0
 10
13.0207577483
 20
7.7802629778
 30
0.0
 10
13.0207901228
 20
7.7805230282
 30
0.0
 10
13.0208284245
 20
7.7807121064
 30
0.0
 10
13.0208579737
 20
7.7808214479
 30
0.0
 10
13.0208979193
 20
7.7808785044
 30
0.0
 10
13.0209165536
 20
7.7808791716
 30
0.0
  0
SPLINE
  5
22C
100
AcDbEntity
  8
0
100
AcDbSpline
 62
9
  6
CONTINUOUS
 70
0
 71
3
 72
12
 73
8
 74
0
 42
0.0000001
 43
0.0000001
 44
0.0000000001
 40
0.0
 40
0.0
 40
0.0
 40
0.0
 40
0.2495317856
 40
0.3745048314
 40
0.4995311402
 40
0.7497170383
 40
1.0
 40
1.0
 40
1.0
 40
1.0
 10
10.6307109624
 20
7.3043213858
 30
0.0
 10
10.6369514951
 20
7.3182379774
 30
0.0
 10
10.6452545533
 20
7.3396272938
 30
0.0
 10
10.6540343769
 20
7.3688805645
 30
0.0
 10
10.6612585594
 20
7.3986005841
 30
0.0
 10
10.667324935
 20
7.4364218273
 30
0.0
 10
10.6689571446
 20
7.467034201
 30
0.0
 10
10.6689566096
 20
7.4823318604
 30
0.0
  0
SPLINE
  5
22D
100
AcDbEntity
  8
0
100
AcDbSpline
 62
9
  6
CONTINUOUS
 70
0
 71
3
 72
9
 73
5
 74
0
 42
0.0000001
 43
0.0000001
 44
0.0000000001
 40
0.0
 40
0.0
 40
0.0
 40
0.0
 40
0.500015616
 40
1.0
 40
1.0
 40
1.0
 40
1.0
 10
13.021110044
 20
7.2184403255
 30
0.0
 10
12.6226795236
 20
7.2322380974
 30
0.0
 10
11.8258781829
 20
7.2608325503
 30
0.0
 10
11.029101768
 20
7.290102757
 30
0.0
 10
10.6307109762
 20
7.304321782
 30
0.0
  0
SPLINE
  5
22E
100
AcDbEntity
  8
0
100
AcDbSpline
 62
9
  6
CONTINUOUS
 70
0
 71
3
 72
9
 73
5
 74
0
 42
0.0000001
 43
0.0000001
 44
0.0000000001
 40
0.0
 40
0.0
 40
0.0
 40
0.0
 40
0.4999843841
 40
1.0
 40
1.0
 40
1.0
 40
1.0
 10
10.6307109577
 20
7.6603419406
 30
0.0
 10
11.0291017538
 20
7.6745609118
 30
0.0
 10
11.8258781704
 20
7.7038311961
 30
0.0
 10
12.6226795161
 20
7.7324256323
 30
0.0
 10
13.0211100388
 20
7.7462234014
 30
0.0
  0
SPLINE
  5
22F
100
AcDbEntity
  8
0
100
AcDbSpline
 62
9
  6
CONTINUOUS
 70
0
 71
3
 72
24
 73
20
 74
0
 42
0.0000001
 43
0.0000001
 44
0.0000000001
 40
0.0
 40
0.0
 40
0.0
 40
0.0
 40
0.1873029698
 40
0.3751137305
 40
0.4660728345
 40
0.5532810266
 40
0.6353510138
 40
0.7108958716
 40
0.7786741796
 40
0.8380246591
 40
0.8884318325
 40
0.929382278
 40
0.9605371993
 40
0.9725403199
 40
0.9822495276
 40
0.9897360657
 40
0.9950809719
 40
0.9983985327
 40
1.0
 40
1.0
 40
1.0
 40
1.0
 10
10.6307109486
 20
7.6603419403
 30
0.0
 10
10.6306357353
 20
7.6626326139
 30
0.0
 10
10.6304958632
 20
7.6672205304
 30
0.0
 10
10.6303502556
 20
7.6729217425
 30
0.0
 10
10.6302570196
 20
7.6773990216
 30
0.0
 10
10.6302015439
 20
7.6805829044
 30
0.0
 10
10.630160841
 20
7.6835783814
 30
0.0
 10
10.6301359371
 20
7.6863362735
 30
0.0
 10
10.6301279268
 20
7.6888162708
 30
0.0
 10
10.6301361615
 20
7.6909886596
 30
0.0
 10
10.6301596645
 20
7.6928326997
 30
0.0
 10
10.6301972985
 20
7.6943312866
 30
0.0
 10
10.6302426845
 20
7.6953597947
 30
0.0
 10
10.6302882581
 20
7.6960048557
 30
0.0
 10
10.6303228028
 20
7.6963611029
 30
0.0
 10
10.6303574253
 20
7.6966332865
 30
0.0
 10
10.6303982399
 20
7.6968305631
 30
0.0
 10
10.6304298055
 20
7.6969450325
 30
0.0
 10
10.6304722661
 20
7.6970039303
 30
0.0
 10
10.6304918503
 20
7.6970046154
 30
0.0
  0
SPLINE
  5
230
100
AcDbEntity
  8
0
100
AcDbSpline
 62
9
  6
CONTINUOUS
 70
0
 71
3
 72
17
 73
13
 74
0
 42
0.0000001
 43
0.0000001
 44
0.0000000001
 40
0.0
 40
0.0
 40
0.0
 40
0.0
 40
0.1602628452
 40
0.318985661
 40
0.4706837948
 40
0.6098452006
 40
0.7321258879
 40
0.7864800526
 40
0.8362702719
 40
0.9234295152
 40
0.9626197522
 40
1.0
 40
1.0
 40
1.0
 40
1.0
 10
10.599197454
 20
7.6667633381
 30
0.0
 10
10.5989070864
 20
7.6686415261
 30
0.0
 10
10.5982050333
 20
7.6723620533
 30
0.0
 10
10.5967692896
 20
7.6777620569
 30
0.0
 10
10.5949394154
 20
7.6827787489
 30
0.0
 10
10.5927755484
 20
7.68718686
 30
0.0
 10
10.5906478451
 20
7.6902926623
 30
0.0
 10
10.5888166228
 20
7.6922640422
 30
0.0
 10
10.5870939743
 20
7.693743686
 30
0.0
 10
10.5852378549
 20
7.6947868867
 30
0.0
 10
10.5833458136
 20
7.6952617528
 30
0.0
 10
10.5824331095
 20
7.6953180728
 30
0.0
 10
10.581990104
 20
7.6953024959
 30
0.0
  0
LINE
  5
231
100
AcDbEntity
  8
0
100
AcDbLine
 62
9
  6
CONTINUOUS
 10
10.5991970532
 20
7.6667629985
 11
10.6307108562
 21
7.6603420668
  0
SPLINE
  5
232
100
AcDbEntity
  8
0
100
AcDbSpline
 62
9
  6
CONTINUOUS
 70
0
 71
3
 72
14
 73
10
 74
0
 42
0.0000001
 43
0.0000001
 44
0.0000000001
 40
0.0
 40
0.0
 40
0.0
 40
0.0
 40
0.2572105748
 40
0.384777217
 40
0.5112598041
 40
0.6364192377
 40
0.7597824286
 40
0.8811139265
 40
1.0
 40
1.0
 40
1.0
 40
1.0
 10
10.5356073494
 20
7.7178821017
 30
0.0
 10
10.5398067907
 20
7.7121190138
 30
0.0
 10
10.5464825559
 20
7.7037677915
 30
0.0
 10
10.5562348453
 20
7.6934727262
 30
0.0
 10
10.5639338754
 20
7.6863028052
 30
0.0
 10
10.5720247169
 20
7.6797569572
 30
0.0
 10
10.5805744464
 20
7.6740622491
 30
0.0
 10
10.5895843475
 20
7.6694823073
 30
0.0
 10
10.5959703575
 20
7.6674361487
 30
0.0
 10
10.5991973166
 20
7.666765291
 30
0.0
  0
LINE
  5
233
100
AcDbEntity
  8
0
100
AcDbLine
 62
9
  6
CONTINUOUS
 10
10.6307109327
 20
7.3043214185
 11
10.5991970208
 21
7.2979004966
  0
SPLINE
  5
234
100
AcDbEntity
  8
0
100
AcDbSpline
 62
9
  6
CONTINUOUS
 70
0
 71
3
 72
14
 73
10
 74
0
 42
0.0000001
 43
0.0000001
 44
0.0000000001
 40
0.0
 40
0.0
 40
0.0
 40
0.0
 40
0.1188826976
 40
0.240221017
 40
0.3635853355
 40
0.4887436012
 40
0.6152279963
 40
0.7427971875
 40
1.0
 40
1.0
 40
1.0
 40
1.0
 10
10.5991972903
 20
7.2978985001
 30
0.0
 10
10.5959704362
 20
7.2972275923
 30
0.0
 10
10.5895843949
 20
7.2951812732
 30
0.0
 10
10.5805742469
 20
7.2906015414
 30
0.0
 10
10.5720243549
 20
7.2849067033
 30
0.0
 10
10.5639336224
 20
7.2783606401
 30
0.0
 10
10.5562345725
 20
7.2711906112
 30
0.0
 10
10.5464822887
 20
7.2608956709
 30
0.0
 10
10.539806523
 20
7.2525446139
 30
0.0
 10
10.535607349
 20
7.2467815948
 30
0.0
  0
SPLINE
  5
235
100
AcDbEntity
  8
0
100
AcDbSpline
 62
9
  6
CONTINUOUS
 70
0
 71
3
 72
17
 73
13
 74
0
 42
0.0000001
 43
0.0000001
 44
0.0000000001
 40
0.0
 40
0.0
 40
0.0
 40
0.0
 40
0.0373804733
 40
0.0765709822
 40
0.1637308028
 40
0.2135212647
 40
0.2678756168
 40
0.3901564758
 40
0.5293177549
 40
0.6810155121
 40
0.8397377807
 40
1.0
 40
1.0
 40
1.0
 40
1.0
 10
10.5819899817
 20
7.269361177
 30
0.0
 10
10.5824329903
 20
7.2693456067
 30
0.0
 10
10.5833457
 20
7.2694019399
 30
0.0
 10
10.5852377491
 20
7.2698768309
 30
0.0
 10
10.5870938726
 20
7.2709200511
 30
0.0
 10
10.588816525
 20
7.2723997107
 30
0.0
 10
10.5906477474
 20
7.2743711022
 30
0.0
 10
10.5927754491
 20
7.2774769111
 30
0.0
 10
10.5949393129
 20
7.2818850225
 30
0.0
 10
10.5967691818
 20
7.2869017064
 30
0.0
 10
10.5982049194
 20
7.2923016959
 30
0.0
 10
10.5989069683
 20
7.296022212
 30
0.0
 10
10.5991973338
 20
7.297900394
 30
0.0
  0
SPLINE
  5
236
100
AcDbEntity
  8
0
100
AcDbSpline
 62
9
  6
CONTINUOUS
 70
0
 71
3
 72
24
 73
20
 74
0
 42
0.0000001
 43
0.0000001
 44
0.0000000001
 40
0.0
 40
0.0
 40
0.0
 40
0.0
 40
0.0016014645
 40
0.0049190214
 40
0.0102639237
 40
0.0177504581
 40
0.0274596622
 40
0.0394627796
 40
0.0706176952
 40
0.1115681367
 40
0.1619753077
 40
0.2213257864
 40
0.2891040952
 40
0.3646489554
 40
0.4467189463
 40
0.5339271428
 40
0.6248862518
 40
0.8126970224
 40
1.0
 40
1.0
 40
1.0
 40
1.0
 10
10.6304918604
 20
7.2676591042
 30
0.0
 10
10.6304722763
 20
7.2676597892
 30
0.0
 10
10.6304298156
 20
7.2677186869
 30
0.0
 10
10.63039825
 20
7.2678331562
 30
0.0
 10
10.6303574354
 20
7.2680304326
 30
0.0
 10
10.6303228129
 20
7.2683026161
 30
0.0
 10
10.6302882682
 20
7.2686588632
 30
0.0
 10
10.6302426946
 20
7.2693039242
 30
0.0
 10
10.6301973085
 20
7.2703324322
 30
0.0
 10
10.6301596746
 20
7.2718310191
 30
0.0
 10
10.6301361715
 20
7.2736750592
 30
0.0
 10
10.6301279369
 20
7.2758474482
 30
0.0
 10
10.6301359472
 20
7.2783274458
 30
0.0
 10
10.6301608511
 20
7.2810853382
 30
0.0
 10
10.630201554
 20
7.2840808157
 30
0.0
 10
10.6302570297
 20
7.2872646989
 30
0.0
 10
10.6303502657
 20
7.2917419786
 30
0.0
 10
10.6304958734
 20
7.2974431916
 30
0.0
 10
10.6306357455
 20
7.3020311086
 30
0.0
 10
10.6307109588
 20
7.3043217826
 30
0.0
  0
SPLINE
  5
237
100
AcDbEntity
  8
0
100
AcDbSpline
 62
9
  6
CONTINUOUS
 70
0
 71
3
 72
22
 73
18
 74
0
 42
0.0000001
 43
0.0000001
 44
0.0000000001
 40
0.0
 40
0.0
 40
0.0
 40
0.0
 40
0.1886826746
 40
0.371470024
 40
0.5406058185
 40
0.6180435355
 40
0.6897418987
 40
0.7550405072
 40
0.8132976777
 40
0.863992138
 40
0.9067726973
 40
0.9413695606
 40
0.9677521823
 40
0.9780360161
 40
0.9865817266
 40
0.9937135483
 40
1.0
 40
1.0
 40
1.0
 40
1.0
 10
13.0211100766
 20
7.2184413798
 30
0.0
 10
13.0237653592
 20
7.2184311249
 30
0.0
 10
13.0289935284
 20
7.2184810907
 30
0.0
 10
13.0365971101
 20
7.218763196
 30
0.0
 10
13.0426268803
 20
7.2191713826
 30
0.0
 10
13.0470860416
 20
7.2195949101
 30
0.0
 10
13.0500839983
 20
7.2199418419
 30
0.0
 10
13.0528053273
 20
7.2203245023
 30
0.0
 10
13.0552225053
 20
7.2207406657
 30
0.0
 10
13.0573112722
 20
7.2211868038
 30
0.0
 10
13.0590532798
 20
7.221655031
 30
0.0
 10
13.060431903
 20
7.2221390397
 30
0.0
 10
13.0613390617
 20
7.2225797864
 30
0.0
 10
13.0618559703
 20
7.2229539153
 30
0.0
 10
13.0621152187
 20
7.2232144761
 30
0.0
 10
13.0622786125
 20
7.2234815315
 30
0.0
 10
13.0623181532
 20
7.2236715304
 30
0.0
 10
13.0623181256
 20
7.2237599986
 30
0.0
  0
SPLINE
  5
238
100
AcDbEntity
  8
0
100
AcDbSpline
 62
9
  6
CONTINUOUS
 70
0
 71
3
 72
22
 73
18
 74
0
 42
0.0000001
 43
0.0000001
 44
0.0000000001
 40
0.0
 40
0.0
 40
0.0
 40
0.0
 40
0.1886832546
 40
0.3714686218
 40
0.5405997744
 40
0.6180357012
 40
0.6897334435
 40
0.7550317015
 40
0.813288161
 40
0.8639838232
 40
0.9067663
 40
0.9413638124
 40
0.967747685
 40
0.978032587
 40
0.9865794333
 40
0.9937123729
 40
1.0
 40
1.0
 40
1.0
 40
1.0
 10
13.0211100654
 20
7.7462223821
 30
0.0
 10
13.0237653876
 20
7.746232246
 30
0.0
 10
13.0289935855
 20
7.7461823562
 30
0.0
 10
13.036597192
 20
7.7459007356
 30
0.0
 10
13.0426269047
 20
7.7454924013
 30
0.0
 10
13.0470860126
 20
7.745068834
 30
0.0
 10
13.050083964
 20
7.7447218996
 30
0.0
 10
13.0528053022
 20
7.7443392497
 30
0.0
 10
13.0552225054
 20
7.7439230581
 30
0.0
 10
13.057311336
 20
7.743476946
 30
0.0
 10
13.0590534347
 20
7.7430087758
 30
0.0
 10
13.0604321397
 20
7.7425247835
 30
0.0
 10
13.0613393501
 20
7.7420840216
 30
0.0
 10
13.0618563116
 20
7.7417098706
 30
0.0
 10
13.0621156013
 20
7.7414492785
 30
0.0
 10
13.0622790252
 20
7.7411821793
 30
0.0
 10
13.0623185682
 20
7.7409921436
 30
0.0
 10
13.0623185365
 20
7.7409036578
 30
0.0
  0
SPLINE
  5
239
100
AcDbEntity
  8
0
100
AcDbSpline
 62
9
  6
CONTINUOUS
 70
0
 71
3
 72
24
 73
20
 74
0
 42
0.0000001
 43
0.0000001
 44
0.0000000001
 40
0.0
 40
0.0
 40
0.0
 40
0.0
 40
0.0016116834
 40
0.0049733687
 40
0.0103864679
 40
0.0179560321
 40
0.0277543652
 40
0.0398441521
 40
0.0711311496
 40
0.1121122383
 40
0.1624336494
 40
0.2215784668
 40
0.2890277478
 40
0.36413168
 40
0.4457218525
 40
0.5325002149
 40
0.6231683635
 40
0.8111338814
 40
1.0
 40
1.0
 40
1.0
 40
1.0
 10
13.0209172544
 20
7.1837845243
 30
0.0
 10
13.0208986245
 20
7.1837851815
 30
0.0
 10
13.0208586659
 20
7.183842221
 30
0.0
 10
13.0208291255
 20
7.1839515458
 30
0.0
 10
13.0207908181
 20
7.184140603
 30
0.0
 10
13.0207584451
 20
7.1844006344
 30
0.0
 10
13.0207261872
 20
7.1847404588
 30
0.0
 10
13.0206837823
 20
7.1853538046
 30
0.0
 10
13.020641664
 20
7.1863289338
 30
0.0
 10
13.0206068522
 20
7.1877463843
 30
0.0
 10
13.0205852125
 20
7.1894864629
 30
0.0
 10
13.0205776808
 20
7.1915327473
 30
0.0
 10
13.0205850465
 20
7.1938656924
 30
0.0
 10
13.0206078152
 20
7.1964581537
 30
0.0
 10
13.0206450106
 20
7.1992740372
 30
0.0
 10
13.0206957117
 20
7.2022697588
 30
0.0
 10
13.0207810757
 20
7.206495437
 30
0.0
 10
13.0209146789
 20
7.2119011449
 30
0.0
 10
13.0210428368
 20
7.2162578944
 30
0.0
 10
13.02111184
 20
7.218441322
 30
0.0
  0
ENDSEC
  0
SECTION
  2
OBJECTS
  0
DICTIONARY
  5
C
100
AcDbDictionary
280
0
281
1
  3
ACAD_GROUP
350
D
  3
ACAD_MLINESTYLE
350
17
  3
ACAD_LAYOUT
350
1A
  3
ACAD_PLOTSETTINGS
350
19
  3
ACAD_PLOTSTYLENAME
350
E
  0
DICTIONARY
  5
D
102
{ACAD_REACTORS
330
C
102
}
100
AcDbDictionary
280
0
281
1
  0
ACDBDICTIONARYWDFLT
  5
E
102
{ACAD_REACTORS
330
C
102
}
100
AcDbDictionary
281
1
  3
Normal
350
F
100
AcDbDictionaryWithDefault
340
F
  0
DICTIONARY
  5
17
102
{ACAD_REACTORS
330
C
102
}
100
AcDbDictionary
280
0
281
1
  3
Standard
350
18
  0
DICTIONARY
  5
19
102
{ACAD_REACTORS
330
C
102
}
100
AcDbDictionary
281
1
  0
DICTIONARY
  5
1A
102
{ACAD_REACTORS
330
C
102
}
100
AcDbDictionary
281
1
  3
Model
350
23A
  3
Layout1
350
23B
  0
ACDBPLACEHOLDER
  5
F
102
{ACAD_REACTORS
330
E
102
}
  0
MLINESTYLE
  5
18
102
{ACAD_REACTORS
330
17
102
}
100
AcDbMlineStyle
  2
STANDARD
 70
0
  3

 62
256
 51
90.0
 52
90.0
 71
2
 49
0.5
 62
256
  6
BYLAYER
 49
-0.5
 62
256
  6
BYLAYER
  0
LAYOUT
  5
23A
102
{ACAD_REACTORS
330
1A
102
}
100
AcDbPlotSettings
  1

  2
none_device
  4
ANSI_C_(22.00_x_17.00_Inches)
  6

 40
0.0
 41
0.0
 42
0.0
 43
0.0
 44
558.8
 45
431.8
 46
0.0
 47
0.0
 48
0.0
 49
0.0
140
0.0
141
0.0
142
1.0
143
1.0
 70
1024
 72
0
 73
0
 74
0
  7

 75
0
147
1.0
148
0.0
149
0.0
100
AcDbLayout
  1
Model
 70
0
 71
0
 10
0.0
 20
0.0
 11
22.0
 21
17.0
 12
0.0
 22
0.0
 32
0.0
 14
0.0
 24
0.0
 34
0.0
 15
0.0
 25
0.0
 35
0.0
146
0.0
 13
0.0
 23
0.0
 33
0.0
 16
1.0
 26
0.0
 36
0.0
 17
0.0
 27
1.0
 37
0.0
 76
0
330
202
345
0
346
0
  0
LAYOUT
  5
23B
102
{ACAD_REACTORS
330
1A
102
}
100
AcDbPlotSettings
  1

  2
none_device
  4
ANSI_C_(22.00_x_17.00_Inches)
  6

 40
0.0
 41
0.0
 42
0.0
 43
0.0
 44
558.8
 45
431.8
 46
0.0
 47
0.0
 48
0.0
 49
0.0
140
0.0
141
0.0
142
1.0
143
1.0
 70
0
 72
0
 73
0
 74
0
  7

 75
0
147
1.0
148
0.0
149
0.0
100
AcDbLayout
  1
Layout1
 70
0
 71
1
 10
0.0
 20
0.0
 11
22.0
 21
17.0
 12
0.0
 22
0.0
 32
0.0
 14
0.0
 24
0.0
 34
0.0
 15
0.0
 25
0.0
 35
0.0
146
0.0
 13
0.0
 23
0.0
 33
0.0
 16
1.0
 26
0.0
 36
0.0
 17
0.0
 27
1.0
 37
0.0
 76
0
330
203
345
0
346
0
  0
ENDSEC
  0
EOF
