999
DXF file: 3-383_right.dxf
999
Pro/ENGINEER 2018400 by Parametric Technology Corporation
  0
SECTION
  2
HEADER
  9
$ACADVER
  1
AC1027
  9
$DWGCODEPAGE
  3
ANSI_1252
  9
$EXTMAX
 10
11.0
 20
8.5
 30
0.0
  9
$EXTMIN
 10
0.0
 20
0.0
 30
0.0
  9
$LIMMIN
 10
0.0
 20
0.0
  9
$LIMMAX
 10
11.0
 20
8.5
  9
$VIEWCTR
 10
5.5
 20
4.25
  9
$VIEWSIZE
 40
8.5
  9
$CLAYER
  8
0
  9
$LTSCALE
 40
0.605
  9
$CELTYPE
  6
BYLAYER
  9
$DIMSCALE
 40
1.0
  9
$DIMASZ
 40
0.1
  9
$DIMEXO
 40
0.0625
  9
$DIMDLI
 40
0.418
  9
$DIMEXE
 40
0.125
  9
$DIMCEN
 40
0.099
  9
$DIMLFAC
 40
1.0
  9
$DIMBLK
  1
_FILLED
  9
$DIMALT
 70
1
  9
$DIMALTD
 70
2
  9
$DIMALTTD
 70
2
  9
$DIMALTF
 40
25.4
  9
$DIMTXT
 40
0.08
  9
$DIMTOL
 70
1
  9
$DIMLIM
 70
0
  9
$DIMTFAC
 40
1.0
  9
$DIMTP
 40
0.001
  9
$DIMTM
 40
0.001
  9
$DIMGAP
 40
0.09
  9
$DIMDSEP
 70
46
  9
$AUNITS
 70
0
  9
$PDMODE
 70
3
  9
$PDSIZE
 40
0.3125
  9
$HANDSEED
  5
287
  9
$TILEMODE
 70
1
  9
$MEASUREMENT
 70
0
  9
$INSUNITS
 70
1
  0
ENDSEC
  0
SECTION
  2
CLASSES
  0
CLASS
  1
ACDBDICTIONARYWDFLT
  2
AcDbDictionaryWithDefault
  3
AutoCAD 2000
 90
0
 91
1
280
0
281
0
  0
CLASS
  1
ACDBPLACEHOLDER
  2
AcDbPlaceHolder
  3
AutoCAD 2000
 90
0
 91
1
280
0
281
0
  0
CLASS
  1
LAYOUT
  2
AcDbLayout
  3
AutoCAD 2000
 90
0
 91
0
280
0
281
0
  0
ENDSEC
  0
SECTION
  2
TABLES
  0
TABLE
  2
VPORT
  5
8
100
AcDbSymbolTable
 70
2
  0
VPORT
  5
1F4
100
AcDbSymbolTableRecord
100
AcDbViewportTableRecord
  2
*ACTIVE
 70
0
 10
0.0
 20
0.0
 11
1.0
 21
1.0
 12
5.5
 22
4.25
 13
0.0
 23
0.0
 14
1.0
 24
1.0
 15
0.0
 25
0.0
 16
0.0
 26
0.0
 36
1.0
 17
0.0
 27
0.0
 37
0.0
 40
8.5
 41
1.2941176471
 42
50.0
 43
0.0
 44
0.0
 50
0.0
 51
0.0
 71
0
 72
100
 73
1
 74
1
 75
0
 76
0
 77
0
 78
0
  0
ENDTAB
  0
TABLE
  2
LTYPE
  5
5
100
AcDbSymbolTable
 70
6
  0
LTYPE
  5
14
100
AcDbSymbolTableRecord
100
AcDbLinetypeTableRecord
  2
BYBLOCK
 70
0
  3

 72
65
 73
0
 40
0.0
  0
LTYPE
  5
15
100
AcDbSymbolTableRecord
100
AcDbLinetypeTableRecord
  2
BYLAYER
 70
0
  3

 72
65
 73
0
 40
0.0
  0
LTYPE
  5
16
100
AcDbSymbolTableRecord
100
AcDbLinetypeTableRecord
  2
CONTINUOUS
 70
64
  3
Solid line
 72
65
 73
0
 40
0.0
  0
LTYPE
  5
1F5
100
AcDbSymbolTableRecord
100
AcDbLinetypeTableRecord
  2
CENTER
 70
64
  3
____ _ ____ _ ____ _ ____ _ ____ _ ____ _ ____
 72
65
 73
4
 40
0.6
 49
0.375
 74
0
 49
-0.075
 74
0
 49
0.075
 74
0
 49
-0.075
 74
0
  0
LTYPE
  5
1F6
100
AcDbSymbolTableRecord
100
AcDbLinetypeTableRecord
  2
HIDDEN
 70
64
  3
- - - - - - - - - - - - - - - - - - - -
 72
65
 73
2
 40
0.2
 49
0.1
 74
0
 49
-0.1
 74
0
  0
LTYPE
  5
1F7
100
AcDbSymbolTableRecord
100
AcDbLinetypeTableRecord
  2
PHANTOM
 70
64
  3
_____ _ _ _____ _ _ _____ _ _ _____
 72
65
 73
6
 40
0.8
 49
0.45
 74
0
 49
-0.05
 74
0
 49
0.1
 74
0
 49
-0.05
 74
0
 49
0.1
 74
0
 49
-0.05
 74
0
  0
LTYPE
  5
1F8
100
AcDbSymbolTableRecord
100
AcDbLinetypeTableRecord
  2
DOT
 70
64
  3
. . . . . . . . . . . . . . . . . . . .
 72
65
 73
2
 40
0.2
 49
0.1
 74
0
 49
-0.1
 74
0
  0
LTYPE
  5
1F9
100
AcDbSymbolTableRecord
100
AcDbLinetypeTableRecord
  2
DASHED
 70
64
  3
- - - - - - - - - - - - - - - - - - - -
 72
65
 73
2
 40
0.2
 49
0.1
 74
0
 49
-0.1
 74
0
  0
ENDTAB
  0
TABLE
  2
LAYER
  5
2
100
AcDbSymbolTable
 70
36
  0
LAYER
  5
10
100
AcDbSymbolTableRecord
100
AcDbLayerTableRecord
  2
0
 70
0
 62
7
  6
CONTINUOUS
370
-3
390
F
  0
LAYER
  5
1FA
100
AcDbSymbolTableRecord
100
AcDbLayerTableRecord
  2
DEFAULT_1
 70
0
 62
7
  6
CENTER
370
-3
390
F
  0
LAYER
  5
1FB
100
AcDbSymbolTableRecord
100
AcDbLayerTableRecord
  2
DEFAULT_2
 70
0
 62
8
  6
HIDDEN
370
-3
390
F
  0
LAYER
  5
1FC
100
AcDbSymbolTableRecord
100
AcDbLayerTableRecord
  2
DEFAULT_3
 70
0
 62
7
  6
PHANTOM
370
-3
390
F
  0
LAYER
  5
1FD
100
AcDbSymbolTableRecord
100
AcDbLayerTableRecord
  2
ALL_FEATURES
 70
0
 62
7
  6
CONTINUOUS
370
-3
390
F
  0
LAYER
  5
1FE
100
AcDbSymbolTableRecord
100
AcDbLayerTableRecord
  2
AXES_FEATURES
 70
0
 62
7
  6
CONTINUOUS
370
-3
390
F
  0
LAYER
  5
1FF
100
AcDbSymbolTableRecord
100
AcDbLayerTableRecord
  2
CHAMFER_FEATURES
 70
0
 62
7
  6
CONTINUOUS
370
-3
390
F
  0
LAYER
  5
200
100
AcDbSymbolTableRecord
100
AcDbLayerTableRecord
  2
COORDINATE_SYSTEMS
 70
0
 62
7
  6
CONTINUOUS
370
-3
390
F
  0
LAYER
  5
201
100
AcDbSymbolTableRecord
100
AcDbLayerTableRecord
  2
CUT_FEATURES
 70
0
 62
7
  6
CONTINUOUS
370
-3
390
F
  0
LAYER
  5
202
100
AcDbSymbolTableRecord
100
AcDbLayerTableRecord
  2
CYAN
 70
0
 62
7
  6
CONTINUOUS
370
-3
390
F
  0
LAYER
  5
203
100
AcDbSymbolTableRecord
100
AcDbLayerTableRecord
  2
DATUM_CURVES
 70
0
 62
7
  6
CONTINUOUS
370
-3
390
F
  0
LAYER
  5
204
100
AcDbSymbolTableRecord
100
AcDbLayerTableRecord
  2
DATUM_PLANES
 70
0
 62
7
  6
CONTINUOUS
370
-3
390
F
  0
LAYER
  5
205
100
AcDbSymbolTableRecord
100
AcDbLayerTableRecord
  2
DATUM_POINTS
 70
0
 62
7
  6
CONTINUOUS
370
-3
390
F
  0
LAYER
  5
206
100
AcDbSymbolTableRecord
100
AcDbLayerTableRecord
  2
DEFAULT_COORDINATE_SYSTEM
 70
0
 62
7
  6
CONTINUOUS
370
-3
390
F
  0
LAYER
  5
207
100
AcDbSymbolTableRecord
100
AcDbLayerTableRecord
  2
DEFAULT_DATUM_AXES
 70
0
 62
7
  6
CONTINUOUS
370
-3
390
F
  0
LAYER
  5
208
100
AcDbSymbolTableRecord
100
AcDbLayerTableRecord
  2
DEFAULT_DATUM_CURVES
 70
0
 62
7
  6
CONTINUOUS
370
-3
390
F
  0
LAYER
  5
209
100
AcDbSymbolTableRecord
100
AcDbLayerTableRecord
  2
DEFAULT_DATUM_PLANES
 70
0
 62
7
  6
CONTINUOUS
370
-3
390
F
  0
LAYER
  5
20A
100
AcDbSymbolTableRecord
100
AcDbLayerTableRecord
  2
DEFAULT_SURFACES
 70
0
 62
7
  6
CONTINUOUS
370
-3
390
F
  0
LAYER
  5
20B
100
AcDbSymbolTableRecord
100
AcDbLayerTableRecord
  2
DIMENSIONS
 70
0
 62
7
  6
CONTINUOUS
370
-3
390
F
  0
LAYER
  5
20C
100
AcDbSymbolTableRecord
100
AcDbLayerTableRecord
  2
HOLE_FEATURES
 70
0
 62
7
  6
CONTINUOUS
370
-3
390
F
  0
LAYER
  5
20D
100
AcDbSymbolTableRecord
100
AcDbLayerTableRecord
  2
PLATED_SURFACE_AREA
 70
0
 62
7
  6
CONTINUOUS
370
-3
390
F
  0
LAYER
  5
20E
100
AcDbSymbolTableRecord
100
AcDbLayerTableRecord
  2
POINTS
 70
0
 62
7
  6
CONTINUOUS
370
-3
390
F
  0
LAYER
  5
20F
100
AcDbSymbolTableRecord
100
AcDbLayerTableRecord
  2
PROTRUSION_FEATURES
 70
0
 62
7
  6
CONTINUOUS
370
-3
390
F
  0
LAYER
  5
210
100
AcDbSymbolTableRecord
100
AcDbLayerTableRecord
  2
QUILTS
 70
0
 62
7
  6
CONTINUOUS
370
-3
390
F
  0
LAYER
  5
211
100
AcDbSymbolTableRecord
100
AcDbLayerTableRecord
  2
SURFACE_FEATURES
 70
0
 62
7
  6
CONTINUOUS
370
-3
390
F
  0
LAYER
  5
212
100
AcDbSymbolTableRecord
100
AcDbLayerTableRecord
  2
SURFACE_FINISH_SYMBOLS
 70
0
 62
7
  6
CONTINUOUS
370
-3
390
F
  0
LAYER
  5
213
100
AcDbSymbolTableRecord
100
AcDbLayerTableRecord
  2
WETTED_SURFACE_AREA
 70
0
 62
7
  6
CONTINUOUS
370
-3
390
F
  0
LAYER
  5
214
100
AcDbSymbolTableRecord
100
AcDbLayerTableRecord
  2
WHITE
 70
0
 62
7
  6
CONTINUOUS
370
-3
390
F
  0
ENDTAB
  0
TABLE
  2
STYLE
  5
3
100
AcDbSymbolTable
 70
1
  0
STYLE
  5
11
100
AcDbSymbolTableRecord
100
AcDbTextStyleTableRecord
  2
STANDARD
 70
0
 40
0.0
 41
0.8
 50
0.0
 71
0
 42
0.2
  3
txt
  4

  0
STYLE
  5
215
100
AcDbSymbolTableRecord
100
AcDbTextStyleTableRecord
  2
TEXTSTYLE_1
 70
0
 40
0.0
 41
0.8
 50
0.0
 71
0
 42
0.2
  3
gdt
  4

  0
ENDTAB
  0
TABLE
  2
VIEW
  5
6
100
AcDbSymbolTable
 70
0
  0
ENDTAB
  0
TABLE
  2
UCS
  5
7
100
AcDbSymbolTable
 70
0
  0
ENDTAB
  0
TABLE
  2
APPID
  5
9
100
AcDbSymbolTable
 70
1
  0
APPID
  5
216
100
AcDbSymbolTableRecord
100
AcDbRegAppTableRecord
  2
ACAD
 70
0
  0
ENDTAB
  0
TABLE
  2
BLOCK_RECORD
  5
1
100
AcDbSymbolTable
 70
0
  0
BLOCK_RECORD
  5
217
100
AcDbSymbolTableRecord
100
AcDbBlockTableRecord
  2
*Model_Space
  0
BLOCK_RECORD
  5
218
100
AcDbSymbolTableRecord
100
AcDbBlockTableRecord
  2
*Paper_Space
  0
BLOCK_RECORD
  5
219
100
AcDbSymbolTableRecord
100
AcDbBlockTableRecord
  2
_FILLED
  0
ENDTAB
  0
TABLE
  2
DIMSTYLE
  5
A
100
AcDbSymbolTable
 70
1
100
AcDbDimStyleTable
 71
0
  0
DIMSTYLE
105
21A
100
AcDbSymbolTableRecord
100
AcDbDimStyleTableRecord
  2
STANDARD
 70
0
  3

  4

 40
1.0
 41
0.1
 42
0.0625
 43
0.38
 44
0.125
 45
0.0
 46
0.0
 47
0.001
 48
0.001
140
0.08
141
0.09
142
0.0
143
25.4
144
1.0
145
0.0
146
1.0
147
0.09
 71
1.0
 72
0.0
 73
1
 74
1
 75
0
 76
0
 77
0
 78
4
 79
1
170
1
171
2
172
0
173
0
174
0
175
0
176
0
177
0
178
0
270
2
179
3
271
3
272
3
273
2
274
2
275
0
280
0
281
0
282
0
283
1
284
4
285
0
286
0
287
3
288
0
340
11
278
46
341
219
342
219
343
219
344
219
  0
ENDTAB
  0
ENDSEC
  0
SECTION
  2
BLOCKS
  0
BLOCK
  5
20
100
AcDbEntity
  8
0
100
AcDbBlockBegin
  2
*Model_Space
 70
0
 10
0.0
 20
0.0
 30
0.0
  3
*Model_Space
  1

  0
ENDBLK
  5
21
100
AcDbEntity
  8
0
100
AcDbBlockEnd
  0
BLOCK
  5
1C
100
AcDbEntity
  8
0
100
AcDbBlockBegin
  2
*Paper_Space
 70
0
 10
0.0
 20
0.0
 30
0.0
  3
*Paper_Space
  1

  0
ENDBLK
  5
1D
100
AcDbEntity
  8
0
100
AcDbBlockEnd
  0
BLOCK
  5
21B
100
AcDbEntity
  8
0
100
AcDbBlockBegin
  2
_FILLED
 70
64
 10
0.0
 20
0.0
  3
_FILLED
  1

  0
SOLID
  5
21C
100
AcDbEntity
  8
0
  6
BYBLOCK
 62
0
100
AcDbTrace
 10
0.0
 20
0.0
 11
-1.0
 21
0.2
 12
-1.0
 22
-0.2
 13
-1.0
 23
-0.2
  0
ENDBLK
  5
21D
100
AcDbEntity
  8
0
  6
BYBLOCK
 62
0
100
AcDbBlockEnd
  0
ENDSEC
  0
SECTION
  2
ENTITIES
  0
MTEXT
  5
21E
100
AcDbEntity
  8
0
100
AcDbMText
 62
2
  6
CONTINUOUS
  7
STANDARD
 71
3
 72
1
 10
5.9878865603
 20
2.9103712235
 30
0.0
 11
1.0
 21
0.0
 31
0.0
 73
2
 44
0.9
  1
SCALE  .500
 40
0.08
 41
0.704
  0
LINE
  5
21F
100
AcDbEntity
  8
0
100
AcDbLine
 62
7
  6
CONTINUOUS
 10
0.0
 20
0.0
 11
0.0
 21
8.5
  0
LINE
  5
220
100
AcDbEntity
  8
0
100
AcDbLine
 62
7
  6
CONTINUOUS
 10
0.0
 20
0.0
 11
11.0
 21
0.0
  0
LINE
  5
221
100
AcDbEntity
  8
0
100
AcDbLine
 62
7
  6
CONTINUOUS
 10
0.0
 20
8.5
 11
11.0
 21
8.5
  0
LINE
  5
222
100
AcDbEntity
  8
0
100
AcDbLine
 62
7
  6
CONTINUOUS
 10
11.0
 20
0.0
 11
11.0
 21
8.5
  0
LINE
  5
223
100
AcDbEntity
  8
ALL_FEATURES
100
AcDbLine
 62
7
  6
CONTINUOUS
 10
3.0288642267
 20
4.398405054
 11
2.7944189575
 21
4.0232141945
  0
LINE
  5
224
100
AcDbEntity
  8
ALL_FEATURES
100
AcDbLine
 62
7
  6
CONTINUOUS
 10
3.2698638634
 20
3.9046724657
 11
2.7944189575
 21
4.0232141945
  0
LINE
  5
225
100
AcDbEntity
  8
ALL_FEATURES
100
AcDbLine
 62
7
  6
CONTINUOUS
 10
3.4314706125
 20
4.1442643242
 11
3.2698638634
 21
3.9046724657
  0
LINE
  5
226
100
AcDbEntity
  8
0
100
AcDbLine
 62
7
  6
CONTINUOUS
 10
6.2092456387
 20
4.4486582797
 11
6.2017456387
 21
4.4486582797
  0
LINE
  5
227
100
AcDbEntity
  8
0
100
AcDbLine
 62
7
  6
CONTINUOUS
 10
5.6904956387
 20
4.4486582797
 11
5.6792456387
 21
4.4486582797
  0
LINE
  5
228
100
AcDbEntity
  8
ALL_FEATURES
100
AcDbLine
 62
7
  6
CONTINUOUS
 10
5.6442456387
 20
4.4986582797
 11
4.5632456387
 21
4.4986582797
  0
LINE
  5
229
100
AcDbEntity
  8
ALL_FEATURES
100
AcDbLine
 62
7
  6
CONTINUOUS
 10
5.6442456387
 20
4.7986582797
 11
5.0972456387
 21
4.7986582797
  0
LINE
  5
22A
100
AcDbEntity
  8
ALL_FEATURES
100
AcDbLine
 62
7
  6
CONTINUOUS
 10
5.6442456387
 20
5.0986582797
 11
4.6592456387
 21
5.0986582797
  0
LINE
  5
22B
100
AcDbEntity
  8
0
100
AcDbLine
 62
7
  6
CONTINUOUS
 10
6.5517550128
 20
5.44361567
 11
6.4804252241
 21
5.3916582797
  0
LINE
  5
22C
100
AcDbEntity
  8
0
100
AcDbLine
 62
7
  6
CONTINUOUS
 10
6.2092456387
 20
5.1486582797
 11
6.2017456387
 21
5.1486582797
  0
LINE
  5
22D
100
AcDbEntity
  8
0
100
AcDbLine
 62
7
  6
CONTINUOUS
 10
5.6904956387
 20
5.1486582797
 11
5.6792456387
 21
5.1486582797
  0
LINE
  5
22E
100
AcDbEntity
  8
0
100
AcDbLine
 62
7
  6
CONTINUOUS
 10
6.5517550128
 20
4.1537008894
 11
6.4804252241
 21
4.2056582797
  0
LINE
  5
22F
100
AcDbEntity
  8
0
100
AcDbLine
 62
7
  6
CONTINUOUS
 10
5.6442456387
 20
4.4836582797
 11
5.6442456387
 21
5.1136582797
  0
LINE
  5
230
100
AcDbEntity
  8
0
100
AcDbLine
 62
7
  6
CONTINUOUS
 10
5.6792456387
 20
4.4486582797
 11
5.6792456387
 21
5.1486582797
  0
LINE
  5
231
100
AcDbEntity
  8
0
100
AcDbLine
 62
7
  6
CONTINUOUS
 10
5.6904956387
 20
4.4486582797
 11
5.6904956387
 21
5.1486582797
  0
LINE
  5
232
100
AcDbEntity
  8
0
100
AcDbLine
 62
7
  6
CONTINUOUS
 10
5.723049018
 20
4.47080225
 11
5.723049018
 21
5.1265143093
  0
LINE
  5
233
100
AcDbEntity
  8
0
100
AcDbLine
 62
7
  6
CONTINUOUS
 10
5.7425594991
 20
4.4863377442
 11
5.7425594991
 21
5.1109788151
  0
LINE
  5
234
100
AcDbEntity
  8
0
100
AcDbLine
 62
7
  6
CONTINUOUS
 10
6.1496817784
 20
5.1109788151
 11
6.1496817784
 21
4.4863377442
  0
LINE
  5
235
100
AcDbEntity
  8
0
100
AcDbLine
 62
7
  6
CONTINUOUS
 10
6.1691922595
 20
5.1265143093
 11
6.1691922595
 21
4.47080225
  0
LINE
  5
236
100
AcDbEntity
  8
0
100
AcDbLine
 62
7
  6
CONTINUOUS
 10
6.2017456387
 20
4.4486582797
 11
6.2017456387
 21
5.1486582797
  0
LINE
  5
237
100
AcDbEntity
  8
0
100
AcDbLine
 62
7
  6
CONTINUOUS
 10
6.2092456387
 20
4.4486582797
 11
6.2092456387
 21
5.1486582797
  0
LINE
  5
238
100
AcDbEntity
  8
0
100
AcDbLine
 62
7
  6
CONTINUOUS
 10
6.2442456387
 20
4.4678519229
 11
6.2442456387
 21
5.1294646365
  0
LINE
  5
239
100
AcDbEntity
  8
0
100
AcDbLine
 62
7
  6
CONTINUOUS
 10
6.2573092715
 20
4.4341517037
 11
6.2573092715
 21
5.1631648557
  0
LINE
  5
23A
100
AcDbEntity
  8
0
100
AcDbLine
 62
7
  6
CONTINUOUS
 10
6.4662456387
 20
5.3673067676
 11
6.4662456387
 21
4.2300097917
  0
LINE
  5
23B
100
AcDbEntity
  8
0
100
AcDbLine
 62
7
  6
CONTINUOUS
 10
6.4804252241
 20
5.3916582797
 11
6.4804252241
 21
4.2056582797
  0
LINE
  5
23C
100
AcDbEntity
  8
0
100
AcDbLine
 62
7
  6
CONTINUOUS
 10
6.5517550128
 20
4.1537008894
 11
6.5517550128
 21
5.44361567
  0
LINE
  5
23D
100
AcDbEntity
  8
0
100
AcDbLine
 62
7
  6
CONTINUOUS
 10
6.560539945
 20
4.1510492336
 11
6.560539945
 21
5.4462673257
  0
LINE
  5
23E
100
AcDbEntity
  8
0
100
AcDbLine
 62
7
  6
CONTINUOUS
 10
6.5741844719
 20
5.4433274577
 11
6.5741844719
 21
4.1539891016
  0
LINE
  5
23F
100
AcDbEntity
  8
0
100
AcDbLine
 62
7
  6
CONTINUOUS
 10
6.5888234897
 20
5.4437042448
 11
6.5888234897
 21
4.1536123145
  0
LINE
  5
240
100
AcDbEntity
  8
0
100
AcDbLine
 62
7
  6
CONTINUOUS
 10
6.6517783826
 20
5.4740949704
 11
6.6517783826
 21
4.1232215889
  0
LINE
  5
241
100
AcDbEntity
  8
0
100
AcDbLine
 62
7
  6
CONTINUOUS
 10
6.6789526954
 20
4.1084973968
 11
6.6789526954
 21
5.4888191625
  0
LINE
  5
242
100
AcDbEntity
  8
0
100
AcDbLine
 62
7
  6
CONTINUOUS
 10
6.7067456387
 20
4.1244939965
 11
6.7067456387
 21
5.4728225628
  0
ARC
  5
243
100
AcDbEntity
  8
ALL_FEATURES
100
AcDbCircle
 62
7
  6
CONTINUOUS
 10
4.6601948167
 20
2.3451487006
 40
2.7536090908
100
AcDbArc
 50
97.930128624
 51
112.3374523783
  0
ARC
  5
244
100
AcDbEntity
  8
ALL_FEATURES
100
AcDbCircle
 62
7
  6
CONTINUOUS
 10
4.6593212931
 20
2.3475654947
 40
2.751092786
100
AcDbArc
 50
90.0015756204
 51
97.9190543927
  0
ARC
  5
245
100
AcDbEntity
  8
ALL_FEATURES
100
AcDbCircle
 62
7
  6
CONTINUOUS
 10
4.5634920846
 20
1.8577948919
 40
2.6408633993
100
AcDbArc
 50
90.0053468523
 51
101.9008315835
  0
ARC
  5
246
100
AcDbEntity
  8
ALL_FEATURES
100
AcDbCircle
 62
7
  6
CONTINUOUS
 10
4.5632456387
 20
1.8601582797
 40
2.6385
100
AcDbArc
 50
101.9061784358
 51
108.9079827008
  0
ARC
  5
247
100
AcDbEntity
  8
ALL_FEATURES
100
AcDbCircle
 62
7
  6
CONTINUOUS
 10
4.4205211774
 20
3.2877862805
 40
1.5441210656
100
AcDbArc
 50
139.5888094204
 51
142.1403893844
  0
ARC
  5
248
100
AcDbEntity
  8
ALL_FEATURES
100
AcDbCircle
 62
7
  6
CONTINUOUS
 10
4.0906677986
 20
3.734517226
 40
1.2522693786
100
AcDbArc
 50
131.0269231405
 51
147.9845059448
  0
ARC
  5
249
100
AcDbEntity
  8
ALL_FEATURES
100
AcDbCircle
 62
7
  6
CONTINUOUS
 10
4.0889248355
 20
3.7360051819
 40
1.25
100
AcDbArc
 50
112.3469579043
 51
131.0114221702
  0
ARC
  5
24A
100
AcDbEntity
  8
ALL_FEATURES
100
AcDbCircle
 62
7
  6
CONTINUOUS
 10
3.8859302103
 20
3.8377202226
 40
0.548181368
100
AcDbArc
 50
139.5895461527
 51
145.9993733145
  0
ARC
  5
24B
100
AcDbEntity
  8
0
100
AcDbCircle
 62
7
  6
CONTINUOUS
 10
5.7313996109
 20
2.2970430881
 40
2.045
100
AcDbArc
 50
63.2522759502
 51
65.2109756159
  0
ARC
  5
24C
100
AcDbEntity
  8
0
100
AcDbCircle
 62
7
  6
CONTINUOUS
 10
7.3654002891
 20
4.1521582797
 40
1.5
100
AcDbArc
 50
126.8295458268
 51
137.6231174488
  0
ARC
  5
24D
100
AcDbEntity
  8
0
100
AcDbCircle
 62
7
  6
CONTINUOUS
 10
5.9461206387
 20
3.1416582797
 40
1.36
100
AcDbArc
 50
81.3917734115
 51
98.6082265885
  0
ARC
  5
24E
100
AcDbEntity
  8
0
100
AcDbCircle
 62
7
  6
CONTINUOUS
 10
6.4177456387
 20
3.6588632415
 40
0.52
100
AcDbArc
 50
59.8463072946
 51
63.2522759502
  0
ARC
  5
24F
100
AcDbEntity
  8
0
100
AcDbCircle
 62
7
  6
CONTINUOUS
 10
6.2942456387
 20
4.4678519229
 40
0.05
100
AcDbArc
 50
180.0
 51
222.3768825512
  0
ARC
  5
250
100
AcDbEntity
  8
0
100
AcDbCircle
 62
7
  6
CONTINUOUS
 10
6.5587456387
 20
4.1925104259
 40
0.0415
100
AcDbArc
 50
272.4780297489
 51
291.8402547393
  0
ARC
  5
251
100
AcDbEntity
  8
0
100
AcDbCircle
 62
7
  6
CONTINUOUS
 10
5.6904956387
 20
4.4836582797
 40
0.035
100
AcDbArc
 50
270.0
 51
338.4498704562
  0
ARC
  5
252
100
AcDbEntity
  8
0
100
AcDbCircle
 62
7
  6
CONTINUOUS
 10
5.6792456387
 20
4.4836582797
 40
0.035
100
AcDbArc
 50
180.0
 51
270.0
  0
ARC
  5
253
100
AcDbEntity
  8
0
100
AcDbCircle
 62
7
  6
CONTINUOUS
 10
6.2017456387
 20
4.4836582797
 40
0.035
100
AcDbArc
 50
201.5501295438
 51
270.0
  0
ARC
  5
254
100
AcDbEntity
  8
0
100
AcDbCircle
 62
7
  6
CONTINUOUS
 10
6.2092456387
 20
4.4836582797
 40
0.035
100
AcDbArc
 50
270.0
 51
360.0
  0
ARC
  5
255
100
AcDbEntity
  8
0
100
AcDbCircle
 62
7
  6
CONTINUOUS
 10
6.4942456387
 20
4.2300097917
 40
0.028
100
AcDbArc
 50
180.0
 51
240.4234315939
  0
ARC
  5
256
100
AcDbEntity
  8
0
100
AcDbCircle
 62
7
  6
CONTINUOUS
 10
5.7463014318
 20
4.4616193717
 40
0.025
100
AcDbArc
 50
98.6082265886
 51
158.4498704565
  0
ARC
  5
257
100
AcDbEntity
  8
0
100
AcDbCircle
 62
7
  6
CONTINUOUS
 10
6.1459398457
 20
4.4616193717
 40
0.025
100
AcDbArc
 50
21.5501295436
 51
81.3917734114
  0
ARC
  5
258
100
AcDbEntity
  8
0
100
AcDbCircle
 62
7
  6
CONTINUOUS
 10
6.5810668434
 20
4.1368169449
 40
0.0185
100
AcDbArc
 50
65.2109756156
 51
111.8402547395
  0
ARC
  5
259
100
AcDbEntity
  8
0
100
AcDbCircle
 62
7
  6
CONTINUOUS
 10
6.6882456387
 20
4.1244939965
 40
0.0185
100
AcDbArc
 50
239.8463072946
 51
360.0
  0
ARC
  5
25A
100
AcDbEntity
  8
0
100
AcDbCircle
 62
7
  6
CONTINUOUS
 10
6.5599389605
 20
4.1649362354
 40
0.0139
100
AcDbArc
 50
233.9299999994
 51
272.478029749
  0
ARC
  5
25B
100
AcDbEntity
  8
0
100
AcDbCircle
 62
7
  6
CONTINUOUS
 10
5.7313996109
 20
7.3002734712
 40
2.045
100
AcDbArc
 50
294.7890243841
 51
296.7477240498
  0
ARC
  5
25C
100
AcDbEntity
  8
0
100
AcDbCircle
 62
7
  6
CONTINUOUS
 10
7.3654002891
 20
5.4451582797
 40
1.5
100
AcDbArc
 50
222.3768825512
 51
233.1704541732
  0
ARC
  5
25D
100
AcDbEntity
  8
0
100
AcDbCircle
 62
7
  6
CONTINUOUS
 10
5.9461206387
 20
6.4556582797
 40
1.36
100
AcDbArc
 50
261.3917734115
 51
278.6082265885
  0
ARC
  5
25E
100
AcDbEntity
  8
0
100
AcDbCircle
 62
7
  6
CONTINUOUS
 10
6.4177456387
 20
5.9384533178
 40
0.52
100
AcDbArc
 50
296.7477240498
 51
300.1536927054
  0
ARC
  5
25F
100
AcDbEntity
  8
0
100
AcDbCircle
 62
7
  6
CONTINUOUS
 10
6.2942456387
 20
5.1294646365
 40
0.05
100
AcDbArc
 50
137.6231174488
 51
180.0
  0
ARC
  5
260
100
AcDbEntity
  8
0
100
AcDbCircle
 62
7
  6
CONTINUOUS
 10
6.5587456387
 20
5.4048061334
 40
0.0415
100
AcDbArc
 50
68.1597452607
 51
87.5219702511
  0
ARC
  5
261
100
AcDbEntity
  8
0
100
AcDbCircle
 62
7
  6
CONTINUOUS
 10
5.6904956387
 20
5.1136582797
 40
0.035
100
AcDbArc
 50
21.5501295438
 51
90.0
  0
ARC
  5
262
100
AcDbEntity
  8
0
100
AcDbCircle
 62
7
  6
CONTINUOUS
 10
5.6792456387
 20
5.1136582797
 40
0.035
100
AcDbArc
 50
90.0
 51
180.0
  0
ARC
  5
263
100
AcDbEntity
  8
0
100
AcDbCircle
 62
7
  6
CONTINUOUS
 10
6.2017456387
 20
5.1136582797
 40
0.035
100
AcDbArc
 50
90.0
 51
158.4498704562
  0
ARC
  5
264
100
AcDbEntity
  8
0
100
AcDbCircle
 62
7
  6
CONTINUOUS
 10
6.2092456387
 20
5.1136582797
 40
0.035
100
AcDbArc
 50
0.0
 51
90.0
  0
ARC
  5
265
100
AcDbEntity
  8
0
100
AcDbCircle
 62
7
  6
CONTINUOUS
 10
6.4942456387
 20
5.3673067676
 40
0.028
100
AcDbArc
 50
119.5765684061
 51
180.0
  0
ARC
  5
266
100
AcDbEntity
  8
0
100
AcDbCircle
 62
7
  6
CONTINUOUS
 10
5.7463014318
 20
5.1356971876
 40
0.025
100
AcDbArc
 50
201.5501295435
 51
261.3917734114
  0
ARC
  5
267
100
AcDbEntity
  8
0
100
AcDbCircle
 62
7
  6
CONTINUOUS
 10
6.1459398457
 20
5.1356971876
 40
0.025
100
AcDbArc
 50
278.6082265886
 51
338.4498704564
  0
ARC
  5
268
100
AcDbEntity
  8
0
100
AcDbCircle
 62
7
  6
CONTINUOUS
 10
6.5810668434
 20
5.4604996144
 40
0.0185
100
AcDbArc
 50
248.1597452605
 51
294.7890243844
  0
ARC
  5
269
100
AcDbEntity
  8
0
100
AcDbCircle
 62
7
  6
CONTINUOUS
 10
6.6882456387
 20
5.4728225628
 40
0.0185
100
AcDbArc
 50
0.0
 51
120.1536927054
  0
ARC
  5
26A
100
AcDbEntity
  8
0
100
AcDbCircle
 62
7
  6
CONTINUOUS
 10
6.5599389605
 20
5.4323803239
 40
0.0139
100
AcDbArc
 50
87.521970251
 51
126.0700000006
  0
SPLINE
  5
26B
100
AcDbEntity
  8
ALL_FEATURES
100
AcDbSpline
 62
7
  6
CONTINUOUS
 70
0
 71
3
 72
11
 73
7
 74
0
 42
0.0000001
 43
0.0000001
 44
0.0000000001
 40
0.0
 40
0.0
 40
0.0
 40
0.0
 40
0.2499894575
 40
0.5
 40
0.7500105425
 40
1.0
 40
1.0
 40
1.0
 40
1.0
 10
3.7082417511
 20
4.3562854002
 30
0.0
 10
3.6851252422
 20
4.3483672518
 30
0.0
 10
3.6399182904
 20
4.3293411555
 30
0.0
 10
3.5765544658
 20
4.2920651674
 30
0.0
 10
3.5186468635
 20
4.2467751781
 30
0.0
 10
3.4843743488
 20
4.2116887766
 30
0.0
 10
3.4685339296
 20
4.1930836381
 30
0.0
  0
LINE
  5
26C
100
AcDbEntity
  8
ALL_FEATURES
100
AcDbLine
 62
7
  6
CONTINUOUS
 10
5.0337455877
 20
5.0986582797
 11
5.0472889758
 21
5.0228423272
  0
SPLINE
  5
26D
100
AcDbEntity
  8
ALL_FEATURES
100
AcDbSpline
 62
7
  6
CONTINUOUS
 70
0
 71
3
 72
18
 73
14
 74
0
 42
0.0000001
 43
0.0000001
 44
0.0000000001
 40
0.0
 40
0.0
 40
0.0
 40
0.0
 40
0.0976453912
 40
0.205166344
 40
0.3214258215
 40
0.4453360599
 40
0.5758634442
 40
0.7120262717
 40
0.7819962683
 40
0.8531855803
 40
0.8892493154
 40
0.9256822957
 40
1.0
 40
1.0
 40
1.0
 40
1.0
 10
5.0472889758
 20
5.0228423272
 30
0.0
 10
5.048600521
 20
5.0154760236
 30
0.0
 10
5.0513716239
 20
5.0000011334
 30
0.0
 10
5.0558001671
 20
4.9757729731
 30
0.0
 10
5.0607328317
 20
4.9495913372
 30
0.0
 10
5.0662211868
 20
4.9217211869
 30
0.0
 10
5.0723351541
 20
4.8924215319
 30
0.0
 10
5.0780125657
 20
4.8672550326
 30
0.0
 10
5.0830840071
 20
4.8466183132
 30
0.0
 10
5.0865476653
 20
4.8334867266
 30
0.0
 10
5.0895207177
 20
4.8228853518
 30
0.0
 10
5.0927084052
 20
4.8120965651
 30
0.0
 10
5.0953408614
 20
4.8040249225
 30
0.0
 10
5.0972456387
 20
4.7986582797
 30
0.0
  0
SPLINE
  5
26E
100
AcDbEntity
  8
ALL_FEATURES
100
AcDbSpline
 62
7
  6
CONTINUOUS
 70
0
 71
3
 72
18
 73
14
 74
0
 42
0.0000001
 43
0.0000001
 44
0.0000000001
 40
0.0
 40
0.0
 40
0.0
 40
0.0
 40
0.0743149731
 40
0.1107468411
 40
0.1468096021
 40
0.2179973367
 40
0.2879661796
 40
0.4241277668
 40
0.5546551049
 40
0.678566313
 40
0.7948276424
 40
0.9023512446
 40
1.0
 40
1.0
 40
1.0
 40
1.0
 10
5.0972456387
 20
4.7986582797
 30
0.0
 10
5.0991503902
 20
4.7932917096
 30
0.0
 10
5.1017829314
 20
4.7852202028
 30
0.0
 10
5.1049709844
 20
4.7744316377
 30
0.0
 10
5.1079445693
 20
4.7638304394
 30
0.0
 10
5.1114091781
 20
4.7506990744
 30
0.0
 10
5.116482702
 20
4.7300626755
 30
0.0
 10
5.1221636478
 20
4.7048965626
 30
0.0
 10
5.1282831387
 20
4.6755973824
 30
0.0
 10
5.133777998
 20
4.6477276299
 30
0.0
 10
5.1387178606
 20
4.6215462985
 30
0.0
 10
5.1431540147
 20
4.5973183387
 30
0.0
 10
5.1459305488
 20
4.5818435844
 30
0.0
 10
5.1472448222
 20
4.574477329
 30
0.0
  0
LINE
  5
26F
100
AcDbEntity
  8
ALL_FEATURES
100
AcDbLine
 62
7
  6
CONTINUOUS
 10
5.1472448222
 20
4.574477329
 11
5.160823088
 21
4.4986582797
  0
SPLINE
  5
270
100
AcDbEntity
  8
ALL_FEATURES
100
AcDbSpline
 62
7
  6
CONTINUOUS
 70
0
 71
3
 72
10
 73
6
 74
0
 42
0.0000001
 43
0.0000001
 44
0.0000000001
 40
0.0
 40
0.0
 40
0.0
 40
0.0
 40
0.246845858
 40
0.4961792253
 40
1.0
 40
1.0
 40
1.0
 40
1.0
 10
5.0972456387
 20
4.7986582797
 30
0.0
 10
5.0691203156
 20
4.7986582797
 30
0.0
 10
5.0125862026
 20
4.7989340405
 30
0.0
 10
4.8986535889
 20
4.8001112874
 30
0.0
 10
4.8128458242
 20
4.8011726907
 30
0.0
 10
4.7554420569
 20
4.8015067156
 30
0.0
  0
SPLINE
  5
271
100
AcDbEntity
  8
ALL_FEATURES
100
AcDbSpline
 62
7
  6
CONTINUOUS
 70
0
 71
3
 72
26
 73
22
 74
0
 42
0.0000001
 43
0.0000001
 44
0.0000000001
 40
0.0
 40
0.0
 40
0.0
 40
0.0
 40
0.0537825201
 40
0.1054387192
 40
0.1557248887
 40
0.204885827
 40
0.2530217442
 40
0.3001657261
 40
0.3914559284
 40
0.4784619933
 40
0.5607108088
 40
0.6376769002
 40
0.7087497894
 40
0.7733162077
 40
0.8308398562
 40
0.8808002603
 40
0.9226630848
 40
0.9559162664
 40
0.9801483975
 40
0.9949723215
 40
1.0
 40
1.0
 40
1.0
 40
1.0
 10
4.7554420569
 20
4.8015067156
 30
0.0
 10
4.7582713322
 20
4.7964705254
 30
0.0
 10
4.7635246843
 20
4.7864304338
 30
0.0
 10
4.7705869787
 20
4.771265755
 30
0.0
 10
4.7770482942
 20
4.7563766756
 30
0.0
 10
4.7830435411
 20
4.7417019867
 30
0.0
 10
4.7886716738
 20
4.7272446362
 30
0.0
 10
4.7956862205
 20
4.7084734432
 30
0.0
 10
4.8038071049
 20
4.6856610445
 30
0.0
 10
4.8128203604
 20
4.6591678732
 30
0.0
 10
4.8210750477
 20
4.6340435214
 30
0.0
 10
4.8286434994
 20
4.6104957852
 30
0.0
 10
4.8355362517
 20
4.5887260276
 30
0.0
 10
4.8417632829
 20
4.5689359462
 30
0.0
 10
4.847298576
 20
4.5513053973
 30
0.0
 10
4.8521180905
 20
4.5360059649
 30
0.0
 10
4.8561862525
 20
4.5232028979
 30
0.0
 10
4.8594735018
 20
4.5130513241
 30
0.0
 10
4.8619075842
 20
4.5056762245
 30
0.0
 10
4.863412898
 20
4.5011870454
 30
0.0
 10
4.8641013243
 20
4.4991690825
 30
0.0
 10
4.864276478
 20
4.4986582797
 30
0.0
  0
SPLINE
  5
272
100
AcDbEntity
  8
ALL_FEATURES
100
AcDbSpline
 62
7
  6
CONTINUOUS
 70
0
 71
3
 72
24
 73
20
 74
0
 42
0.0000001
 43
0.0000001
 44
0.0000000001
 40
0.0
 40
0.0
 40
0.0
 40
0.0
 40
0.0191877407
 40
0.0750984256
 40
0.1160229363
 40
0.1650332689
 40
0.2216576275
 40
0.2854385891
 40
0.3559029673
 40
0.4324972917
 40
0.5146729703
 40
0.6019704437
 40
0.6939901598
 40
0.7416892009
 40
0.79052293
 40
0.8405391707
 40
0.8918563036
 40
0.9447435778
 40
1.0
 40
1.0
 40
1.0
 40
1.0
 10
4.6592456387
 20
5.0986582797
 30
0.0
 10
4.6597483727
 20
5.0967201581
 30
0.0
 10
4.6617072673
 20
5.0891323369
 30
0.0
 10
4.664689515
 20
5.0773982214
 30
0.0
 10
4.6684080307
 20
5.0626403628
 30
0.0
 10
4.6721662751
 20
5.0478157093
 30
0.0
 10
4.6765659252
 20
5.0306931721
 30
0.0
 10
4.6816200122
 20
5.0114275271
 30
0.0
 10
4.6873399829
 20
4.9901825125
 30
0.0
 10
4.6937722496
 20
4.9671422841
 30
0.0
 10
4.7009640129
 20
4.9424917299
 30
0.0
 10
4.7090254436
 20
4.9164212843
 30
0.0
 10
4.7164741989
 20
4.8939309019
 30
0.0
 10
4.7230368342
 20
4.8753812214
 30
0.0
 10
4.7283795259
 20
4.8610514281
 30
0.0
 10
4.7341450501
 20
4.8464791282
 30
0.0
 10
4.7404370736
 20
4.8316650683
 30
0.0
 10
4.7473954183
 20
4.8165460367
 30
0.0
 10
4.7526178951
 20
4.8065338035
 30
0.0
 10
4.7554420569
 20
4.8015067156
 30
0.0
  0
SPLINE
  5
273
100
AcDbEntity
  8
ALL_FEATURES
100
AcDbSpline
 62
7
  6
CONTINUOUS
 70
0
 71
3
 72
26
 73
22
 74
0
 42
0.0000001
 43
0.0000001
 44
0.0000000001
 40
0.0
 40
0.0
 40
0.0
 40
0.0
 40
0.0554833479
 40
0.1078864269
 40
0.1584176751
 40
0.2075070018
 40
0.2553639681
 40
0.3020956374
 40
0.3923769748
 40
0.4783374848
 40
0.5596413442
 40
0.635862102
 40
0.7064395349
 40
0.7707872399
 40
0.8283497416
 40
0.8785739243
 40
0.9208843105
 40
0.9547104953
 40
0.9795210438
 40
0.9947925608
 40
1.0
 40
1.0
 40
1.0
 40
1.0
 10
4.4042411829
 20
4.7950405105
 30
0.0
 10
4.4081115903
 20
4.7901596029
 30
0.0
 10
4.4153440226
 20
4.7804327986
 30
0.0
 10
4.4252221437
 20
4.7656376023
 30
0.0
 10
4.4342825398
 20
4.7511708594
 30
0.0
 10
4.44273389
 20
4.7369311038
 30
0.0
 10
4.4507112143
 20
4.7229098658
 30
0.0
 10
4.4607041204
 20
4.7047173885
 30
0.0
 10
4.4723840756
 20
4.6825736349
 30
0.0
 10
4.4854962295
 20
4.6568016324
 30
0.0
 10
4.4976339853
 20
4.6323071231
 30
0.0
 10
4.5088699332
 20
4.6092940215
 30
0.0
 10
4.5191971406
 20
4.5879559342
 30
0.0
 10
4.5286020513
 20
4.5684987468
 30
0.0
 10
4.5370261586
 20
4.5511055105
 30
0.0
 10
4.5444107003
 20
4.5359579238
 30
0.0
 10
4.5506818295
 20
4.5232323476
 30
0.0
 10
4.5557692412
 20
4.5131046426
 30
0.0
 10
4.559550412
 20
4.5057183257
 30
0.0
 10
4.5618963716
 20
4.5012070385
 30
0.0
 10
4.5629712441
 20
4.4991745413
 30
0.0
 10
4.5632456387
 20
4.4986582797
 30
0.0
  0
SPLINE
  5
274
100
AcDbEntity
  8
ALL_FEATURES
100
AcDbSpline
 62
7
  6
CONTINUOUS
 70
0
 71
3
 72
10
 73
6
 74
0
 42
0.0000001
 43
0.0000001
 44
0.0000000001
 40
0.0
 40
0.0
 40
0.0
 40
0.0
 40
0.5006340585
 40
0.7507235469
 40
1.0
 40
1.0
 40
1.0
 40
1.0
 10
4.7554420569
 20
4.8015067156
 30
0.0
 10
4.6968175828
 20
4.8018478437
 30
0.0
 10
4.6088962878
 20
4.8017760542
 30
0.0
 10
4.4918201358
 20
4.7990764602
 30
0.0
 10
4.4333896729
 20
4.7966130766
 30
0.0
 10
4.4042411829
 20
4.7950405105
 30
0.0
  0
SPLINE
  5
275
100
AcDbEntity
  8
ALL_FEATURES
100
AcDbSpline
 62
7
  6
CONTINUOUS
 70
0
 71
3
 72
28
 73
24
 74
0
 42
0.0000001
 43
0.0000001
 44
0.0000000001
 40
0.0
 40
0.0
 40
0.0
 40
0.0
 40
0.0321096116
 40
0.062460935
 40
0.0913916324
 40
0.1192307507
 40
0.1725835623
 40
0.223407327
 40
0.2721914417
 40
0.3192393338
 40
0.4089121696
 40
0.4932257745
 40
0.5723085611
 40
0.6460985921
 40
0.714272577
 40
0.7764255684
 40
0.8320973323
 40
0.8808024767
 40
0.922011378
 40
0.9551671662
 40
0.9796454715
 40
0.9948040972
 40
1.0
 40
1.0
 40
1.0
 40
1.0
 10
3.7961689594
 20
4.6836676879
 30
0.0
 10
3.7990220751
 20
4.6815933271
 30
0.0
 10
3.8045187044
 20
4.6774841419
 30
0.0
 10
3.8124006216
 20
4.671263293
 30
0.0
 10
3.8197709829
 20
4.6651561978
 30
0.0
 10
3.8289294913
 20
4.6572509949
 30
0.0
 10
3.8396931966
 20
4.647527687
 30
0.0
 10
3.8518556116
 20
4.6359301701
 30
0.0
 10
3.8632695237
 20
4.6245577061
 30
0.0
 10
3.8774330434
 20
4.6099035812
 30
0.0
 10
3.893912819
 20
4.5920654283
 30
0.0
 10
3.9123280014
 20
4.5712351231
 30
0.0
 10
3.9292502863
 20
4.5514199418
 30
0.0
 10
3.9448086524
 20
4.5327744183
 30
0.0
 10
3.9590304266
 20
4.5154372013
 30
0.0
 10
3.9719149351
 20
4.499577916
 30
0.0
 10
3.9834088456
 20
4.4853446998
 30
0.0
 10
3.9934496721
 20
4.4728955192
 30
0.0
 10
4.0019538968
 20
4.4623848081
 30
0.0
 10
4.0088306588
 20
4.4539810662
 30
0.0
 10
4.0139292538
 20
4.4478203365
 30
0.0
 10
4.0170868408
 20
4.4440403935
 30
0.0
 10
4.0185287709
 20
4.4423312945
 30
0.0
 10
4.0188974932
 20
4.4418955526
 30
0.0
  0
SPLINE
  5
276
100
AcDbEntity
  8
ALL_FEATURES
100
AcDbSpline
 62
7
  6
CONTINUOUS
 70
0
 71
3
 72
27
 73
23
 74
0
 42
0.0000001
 43
0.0000001
 44
0.0000000001
 40
0.0
 40
0.0
 40
0.0
 40
0.0
 40
0.0182093145
 40
0.0405680917
 40
0.0714048574
 40
0.1104349592
 40
0.157310033
 40
0.2116734286
 40
0.2731939969
 40
0.341540402
 40
0.4163450541
 40
0.4972765093
 40
0.5841568378
 40
0.6769279511
 40
0.7255937624
 40
0.7759079227
 40
0.8280360676
 40
0.882260771
 40
0.9102884317
 40
0.9391165286
 40
0.9689484723
 40
1.0
 40
1.0
 40
1.0
 40
1.0
 10
4.2802923893
 20
5.0724230336
 30
0.0
 10
4.2808553835
 20
5.0706576805
 30
0.0
 10
4.2821113959
 20
5.0667252457
 30
0.0
 10
4.2843270317
 20
5.0598052401
 30
0.0
 10
4.2871930835
 20
5.0508688471
 30
0.0
 10
4.2908310469
 20
5.0395600979
 30
0.0
 10
4.2952740317
 20
5.0259955796
 30
0.0
 10
4.3005501055
 20
5.0102960827
 30
0.0
 10
4.3067041311
 20
4.9925875407
 30
0.0
 10
4.3137804628
 20
4.9729987382
 30
0.0
 10
4.32186806
 20
4.9516777114
 30
0.0
 10
4.3310615631
 20
4.9287628977
 30
0.0
 10
4.3415394797
 20
4.9044011075
 30
0.0
 10
4.3513438719
 20
4.8833326413
 30
0.0
 10
4.3600701852
 20
4.8658789526
 30
0.0
 10
4.3672573484
 20
4.8522837484
 30
0.0
 10
4.3750729465
 20
4.838386386
 30
0.0
 10
4.3821493488
 20
4.8266820972
 30
0.0
 10
4.3882531478
 20
4.8171676323
 30
0.0
 10
4.3931899212
 20
4.8098559785
 30
0.0
 10
4.3985095724
 20
4.8024356186
 30
0.0
 10
4.4022779313
 20
4.7975163352
 30
0.0
 10
4.4042411829
 20
4.7950405105
 30
0.0
  0
SPLINE
  5
277
100
AcDbEntity
  8
ALL_FEATURES
100
AcDbSpline
 62
7
  6
CONTINUOUS
 70
0
 71
3
 72
27
 73
23
 74
0
 42
0.0000001
 43
0.0000001
 44
0.0000000001
 40
0.0
 40
0.0
 40
0.0
 40
0.0
 40
0.0759315521
 40
0.1101593088
 40
0.1425669119
 40
0.2034037054
 40
0.2598639826
 40
0.3127775122
 40
0.3626967551
 40
0.4551316497
 40
0.5391352313
 40
0.6156231887
 40
0.6852201973
 40
0.7481377499
 40
0.8044484832
 40
0.8540913077
 40
0.8969535177
 40
0.9328503069
 40
0.9615369748
 40
0.9825976664
 40
0.9955724077
 40
1.0
 40
1.0
 40
1.0
 40
1.0
 10
3.4838041512
 20
4.5135701684
 30
0.0
 10
3.4900026534
 20
4.510429321
 30
0.0
 10
3.4989191092
 20
4.5057194998
 30
0.0
 10
3.5102933887
 20
4.4993274866
 30
0.0
 10
3.5203804457
 20
4.4934671883
 30
0.0
 10
3.5321148589
 20
4.4863941753
 30
0.0
 10
3.5452909901
 20
4.4780844472
 30
0.0
 10
3.5574876415
 20
4.4700990106
 30
0.0
 10
3.5722892071
 20
4.460085882
 30
0.0
 10
3.5892321156
 20
4.4481642717
 30
0.0
 10
3.607908117
 20
4.4344890072
 30
0.0
 10
3.6247038703
 20
4.4217885609
 30
0.0
 10
3.6398386671
 20
4.4100932566
 30
0.0
 10
3.6534298153
 20
4.3994212667
 30
0.0
 10
3.6655449338
 20
4.3898267153
 30
0.0
 10
3.6762011799
 20
4.3813463673
 30
0.0
 10
3.6853967003
 20
4.3740306625
 30
0.0
 10
3.6931070423
 20
4.3679285199
 30
0.0
 10
3.6992872693
 20
4.363108217
 30
0.0
 10
3.7038385203
 20
4.3596105199
 30
0.0
 10
3.7066422588
 20
4.3574823362
 30
0.0
 10
3.7079169635
 20
4.3565276651
 30
0.0
 10
3.7082417511
 20
4.3562854002
 30
0.0
  0
SPLINE
  5
278
100
AcDbEntity
  8
ALL_FEATURES
100
AcDbSpline
 62
7
  6
CONTINUOUS
 70
0
 71
3
 72
15
 73
11
 74
0
 42
0.0000001
 43
0.0000001
 44
0.0000000001
 40
0.0
 40
0.0
 40
0.0
 40
0.0
 40
0.1279174388
 40
0.2551057919
 40
0.3814520061
 40
0.5068857642
 40
0.6313866981
 40
0.7549920362
 40
0.8778044845
 40
1.0
 40
1.0
 40
1.0
 40
1.0
 10
4.4042411829
 20
4.7950405105
 30
0.0
 10
4.3778205865
 20
4.7936151147
 30
0.0
 10
4.3251578215
 20
4.7902103549
 30
0.0
 10
4.2465647238
 20
4.7831387862
 30
0.0
 10
4.1687176804
 20
4.7738417425
 30
0.0
 10
4.0917688249
 20
4.7620450719
 30
0.0
 10
4.0158699737
 20
4.7474739927
 30
0.0
 10
3.9411723106
 20
4.729852513
 30
0.0
 10
3.8678311381
 20
4.7089051635
 30
0.0
 10
3.819849006
 20
4.6925053795
 30
0.0
 10
3.7961689594
 20
4.6836676879
 30
0.0
  0
SPLINE
  5
279
100
AcDbEntity
  8
ALL_FEATURES
100
AcDbSpline
 62
7
  6
CONTINUOUS
 70
0
 71
3
 72
16
 73
12
 74
0
 42
0.0000001
 43
0.0000001
 44
0.0000000001
 40
0.0
 40
0.0
 40
0.0
 40
0.0
 40
0.1044776535
 40
0.196055755
 40
0.2787826262
 40
0.3551656495
 40
0.4927975811
 40
0.6148655103
 40
0.7249440855
 40
0.8250789174
 40
1.0
 40
1.0
 40
1.0
 40
1.0
 10
3.2448093208
 20
4.288791523
 30
0.0
 10
3.2501716969
 20
4.2868737771
 30
0.0
 10
3.2602119588
 20
4.2832118112
 30
0.0
 10
3.274417011
 20
4.2778126135
 30
0.0
 10
3.2871390511
 20
4.2728245582
 30
0.0
 10
3.302151826
 20
4.2668032913
 30
0.0
 10
3.3190801907
 20
4.2597990537
 30
0.0
 10
3.3376150107
 20
4.2518776319
 30
0.0
 10
3.3542079791
 20
4.2446156188
 30
0.0
 10
3.3733858147
 20
4.2360753922
 30
0.0
 10
3.3870353078
 20
4.2298715044
 30
0.0
 10
3.3957070711
 20
4.2259075733
 30
0.0
  0
LINE
  5
27A
100
AcDbEntity
  8
ALL_FEATURES
100
AcDbLine
 62
7
  6
CONTINUOUS
 10
3.3957070711
 20
4.2259075733
 11
3.3986859121
 21
4.2245450372
  0
SPLINE
  5
27B
100
AcDbEntity
  8
ALL_FEATURES
100
AcDbSpline
 62
7
  6
CONTINUOUS
 70
0
 71
3
 72
15
 73
11
 74
0
 42
0.0000001
 43
0.0000001
 44
0.0000000001
 40
0.0
 40
0.0
 40
0.0
 40
0.0
 40
0.2277427383
 40
0.4256004663
 40
0.5946684387
 40
0.7354315101
 40
0.847844463
 40
0.9308723095
 40
0.9823417326
 40
1.0
 40
1.0
 40
1.0
 40
1.0
 10
3.3986859121
 20
4.2245450372
 30
0.0
 10
3.4039741367
 20
4.2221246668
 30
0.0
 10
3.4138505601
 20
4.2175882394
 30
0.0
 10
3.4276520716
 20
4.2112534972
 30
0.0
 10
3.4394461551
 20
4.2058698664
 30
0.0
 10
3.4492729042
 20
4.2014310753
 30
0.0
 10
3.4571207332
 20
4.1979489737
 30
0.0
 10
3.4629080809
 20
4.1954461896
 30
0.0
 10
3.4664859378
 20
4.1939306363
 30
0.0
 10
3.4681168934
 20
4.1932551739
 30
0.0
 10
3.4685339296
 20
4.1930836381
 30
0.0
  0
SPLINE
  5
27C
100
AcDbEntity
  8
ALL_FEATURES
100
AcDbSpline
 62
7
  6
CONTINUOUS
 70
0
 71
3
 72
26
 73
22
 74
0
 42
0.0000001
 43
0.0000001
 44
0.0000000001
 40
0.0
 40
0.0
 40
0.0
 40
0.0
 40
0.0162316392
 40
0.0637611933
 40
0.0987334065
 40
0.1409743822
 40
0.190379221
 40
0.2468966325
 40
0.3105078997
 40
0.3812602748
 40
0.4593043709
 40
0.5451062705
 40
0.639370316
 40
0.6900903705
 40
0.7436068856
 40
0.8003514073
 40
0.8609760547
 40
0.8930199228
 40
0.9266046544
 40
0.962128612
 40
1.0
 40
1.0
 40
1.0
 40
1.0
 10
3.6136566037
 20
4.892129052
 30
0.0
 10
3.6145189649
 20
4.890893807
 30
0.0
 10
3.6178988337
 20
4.8860361865
 30
0.0
 10
3.6230939022
 20
4.8784874312
 30
0.0
 10
3.6296326289
 20
4.8689331361
 30
0.0
 10
3.6363082521
 20
4.8592616535
 30
0.0
 10
3.6442015497
 20
4.8480012125
 30
0.0
 10
3.6533684278
 20
4.835212226
 30
0.0
 10
3.6638731771
 20
4.8209458902
 30
0.0
 10
3.6758341779
 20
4.8052737802
 30
0.0
 10
3.6893962908
 20
4.7882374011
 30
0.0
 10
3.7048091659
 20
4.7698945763
 30
0.0
 10
3.7190882128
 20
4.7539225595
 30
0.0
 10
3.7317499525
 20
4.7405384024
 30
0.0
 10
3.7422601842
 20
4.7299173056
 30
0.0
 10
3.753696291
 20
4.7189255155
 30
0.0
 10
3.7639742941
 20
4.7096126713
 30
0.0
 10
3.7728412428
 20
4.7019513998
 30
0.0
 10
3.7800713852
 20
4.6959616204
 30
0.0
 10
3.7878683077
 20
4.689812462
 30
0.0
 10
3.7933260354
 20
4.6857346389
 30
0.0
 10
3.7961689594
 20
4.6836676879
 30
0.0
  0
SPLINE
  5
27D
100
AcDbEntity
  8
ALL_FEATURES
100
AcDbSpline
 62
7
  6
CONTINUOUS
 70
0
 71
3
 72
25
 73
21
 74
0
 42
0.0000001
 43
0.0000001
 44
0.0000000001
 40
0.0
 40
0.0
 40
0.0
 40
0.0
 40
0.0854755115
 40
0.1585333107
 40
0.2238803423
 40
0.2834484328
 40
0.3894616575
 40
0.4823313189
 40
0.5650013579
 40
0.6389850841
 40
0.7054087838
 40
0.7648308014
 40
0.8176126784
 40
0.8638972826
 40
0.9037473174
 40
0.937123092
 40
0.9638881152
 40
0.9836195339
 40
0.9958221424
 40
1.0
 40
1.0
 40
1.0
 40
1.0
 10
3.2014114766
 20
4.2354578496
 30
0.0
 10
3.2080972223
 20
4.2332123221
 30
0.0
 10
3.2204708842
 20
4.2289676046
 30
0.0
 10
3.2378598456
 20
4.2227318821
 30
0.0
 10
3.2531852308
 20
4.2170770755
 30
0.0
 10
3.2710069549
 20
4.2103344476
 30
0.0
 10
3.290874301
 20
4.202583012
 30
0.0
 10
3.3124278917
 20
4.1939135365
 30
0.0
 10
3.3314724695
 20
4.186090125
 30
0.0
 10
3.348457628
 20
4.1789971707
 30
0.0
 10
3.3636514095
 20
4.1725928208
 30
0.0
 10
3.3772219647
 20
4.1668415707
 30
0.0
 10
3.3892624629
 20
4.1617385903
 30
0.0
 10
3.399820117
 20
4.1572753493
 30
0.0
 10
3.4089113756
 20
4.153455685
 30
0.0
 10
3.416528837
 20
4.1502863103
 30
0.0
 10
3.4226283052
 20
4.1477901433
 30
0.0
 10
3.4271212851
 20
4.1459813574
 30
0.0
 10
3.4298906673
 20
4.1448817801
 30
0.0
 10
3.4311493832
 20
4.1443894123
 30
0.0
 10
3.4314706125
 20
4.1442643242
 30
0.0
  0
SPLINE
  5
27E
100
AcDbEntity
  8
ALL_FEATURES
100
AcDbSpline
 62
7
  6
CONTINUOUS
 70
0
 71
3
 72
11
 73
7
 74
0
 42
0.0000001
 43
0.0000001
 44
0.0000000001
 40
0.0
 40
0.0
 40
0.0
 40
0.0
 40
0.2521224973
 40
0.5031414453
 40
0.7525903437
 40
1.0
 40
1.0
 40
1.0
 40
1.0
 10
3.2014114766
 20
4.2354578496
 30
0.0
 10
3.1848795843
 20
4.214193309
 30
0.0
 10
3.1529855905
 20
4.1708911326
 30
0.0
 10
3.1086937568
 20
4.1037488597
 30
0.0
 10
3.0681870541
 20
4.0348408074
 30
0.0
 10
3.043698486
 20
3.9877140934
 30
0.0
 10
3.0321414105
 20
3.9639433301
 30
0.0
  0
SPLINE
  5
27F
100
AcDbEntity
  8
ALL_FEATURES
100
AcDbSpline
 62
7
  6
CONTINUOUS
 70
0
 71
3
 72
11
 73
7
 74
0
 42
0.0000001
 43
0.0000001
 44
0.0000000001
 40
0.0
 40
0.0
 40
0.0
 40
0.0
 40
0.2491927297
 40
0.498456838
 40
0.7486717882
 40
1.0
 40
1.0
 40
1.0
 40
1.0
 10
3.7961689594
 20
4.6836676879
 30
0.0
 10
3.7684009564
 20
4.6733043194
 30
0.0
 10
3.7135252155
 20
4.6507230838
 30
0.0
 10
3.633715184
 20
4.6110541964
 30
0.0
 10
3.5568701918
 20
4.5654110141
 30
0.0
 10
3.5077978317
 20
4.5313995074
 30
0.0
 10
3.4838041512
 20
4.5135701684
 30
0.0
  0
SPLINE
  5
280
100
AcDbEntity
  8
ALL_FEATURES
100
AcDbSpline
 62
7
  6
CONTINUOUS
 70
0
 71
3
 72
25
 73
21
 74
0
 42
0.0000001
 43
0.0000001
 44
0.0000000001
 40
0.0
 40
0.0
 40
0.0
 40
0.0
 40
0.0172610969
 40
0.0667034741
 40
0.1024350594
 40
0.1451323158
 40
0.1946122905
 40
0.250765482
 40
0.3135366843
 40
0.3830048975
 40
0.4593949847
 40
0.5433529947
 40
0.6358321531
 40
0.685824687
 40
0.7388575601
 40
0.7954961002
 40
0.8565868364
 40
0.8891565965
 40
0.9235755782
 40
1.0
 40
1.0
 40
1.0
 40
1.0
 10
3.2686623947
 20
4.6792293458
 30
0.0
 10
3.2698011909
 20
4.678150725
 30
0.0
 10
3.2741969551
 20
4.6739772806
 30
0.0
 10
3.2809227804
 20
4.6675422991
 30
0.0
 10
3.2893017849
 20
4.6594918105
 30
0.0
 10
3.2977136154
 20
4.6514705952
 30
0.0
 10
3.3075313814
 20
4.642235026
 30
0.0
 10
3.3187810815
 20
4.631860289
 30
0.0
 10
3.3315060158
 20
4.6204074443
 30
0.0
 10
3.3458025069
 20
4.6079549962
 30
0.0
 10
3.3618135691
 20
4.5945445669
 30
0.0
 10
3.3797889488
 20
4.5802325173
 30
0.0
 10
3.396246824
 20
4.5678771609
 30
0.0
 10
3.4107221319
 20
4.5575759577
 30
0.0
 10
3.4227093333
 20
4.5494002577
 30
0.0
 10
3.4357171344
 20
4.5409371274
 30
0.0
 10
3.4473476009
 20
4.5337740164
 30
0.0
 10
3.457373427
 20
4.5278621641
 30
0.0
 10
3.4687066342
 20
4.5214274947
 30
0.0
 10
3.4776093124
 20
4.5167091594
 30
0.0
 10
3.4838041512
 20
4.5135701684
 30
0.0
  0
SPLINE
  5
281
100
AcDbEntity
  8
ALL_FEATURES
100
AcDbSpline
 62
7
  6
CONTINUOUS
 70
0
 71
3
 72
10
 73
6
 74
0
 42
0.0000001
 43
0.0000001
 44
0.0000000001
 40
0.0
 40
0.0
 40
0.0
 40
0.0
 40
0.4990466424
 40
0.749472436
 40
1.0
 40
1.0
 40
1.0
 40
1.0
 10
3.4838041512
 20
4.5135701684
 30
0.0
 10
3.4399189342
 20
4.4809597312
 30
0.0
 10
3.3769143787
 20
4.4279190963
 30
0.0
 10
3.2993137462
 20
4.350536672
 30
0.0
 10
3.2626031469
 20
4.3096899829
 30
0.0
 10
3.2448093208
 20
4.288791523
 30
0.0
  0
SPLINE
  5
282
100
AcDbEntity
  8
ALL_FEATURES
100
AcDbSpline
 62
7
  6
CONTINUOUS
 70
0
 71
3
 72
14
 73
10
 74
0
 42
0.0000001
 43
0.0000001
 44
0.0000000001
 40
0.0
 40
0.0
 40
0.0
 40
0.0
 40
0.0690143118
 40
0.1520039535
 40
0.2644651847
 40
0.405331305
 40
0.574490939
 40
0.7723689245
 40
1.0
 40
1.0
 40
1.0
 40
1.0
 10
3.0288642267
 20
4.398405054
 30
0.0
 10
3.0303321701
 20
4.3974568398
 30
0.0
 10
3.0335663957
 20
4.3953700774
 30
0.0
 10
3.0391957033
 20
4.3917428456
 30
0.0
 10
3.0463542534
 20
4.3871298748
 30
0.0
 10
3.0553743649
 20
4.381377608
 30
0.0
 10
3.0662832464
 20
4.3745652256
 30
0.0
 10
3.0791559698
 20
4.3667517487
 30
0.0
 10
3.0884525425
 20
4.3613037829
 30
0.0
 10
3.0934520403
 20
4.358435195
 30
0.0
  0
SPLINE
  5
283
100
AcDbEntity
  8
ALL_FEATURES
100
AcDbSpline
 62
7
  6
CONTINUOUS
 70
0
 71
3
 72
17
 73
13
 74
0
 42
0.0000001
 43
0.0000001
 44
0.0000000001
 40
0.0
 40
0.0
 40
0.0
 40
0.0
 40
0.1730893724
 40
0.2725704953
 40
0.3822236399
 40
0.5041114101
 40
0.64191735
 40
0.7186028164
 40
0.7593293456
 40
0.8018565655
 40
0.8941963299
 40
1.0
 40
1.0
 40
1.0
 40
1.0
 10
3.0934520403
 20
4.358435195
 30
0.0
 10
3.101800854
 20
4.3536448528
 30
0.0
 10
3.1150607021
 20
4.3462945765
 30
0.0
 10
3.1339077271
 20
4.3364649154
 30
0.0
 10
3.1503879032
 20
4.3282607202
 30
0.0
 10
3.1689637723
 20
4.3194932262
 30
0.0
 10
3.1860667215
 20
4.3119114311
 30
0.0
 10
3.1991488055
 20
4.3064067915
 30
0.0
 10
3.2073809316
 20
4.3030392655
 30
0.0
 10
3.2164430335
 20
4.2994019781
 30
0.0
 10
3.2289235366
 20
4.2945669137
 30
0.0
 10
3.2392692149
 20
4.2907728305
 30
0.0
 10
3.2448093208
 20
4.288791523
 30
0.0
  0
SPLINE
  5
284
100
AcDbEntity
  8
ALL_FEATURES
100
AcDbSpline
 62
7
  6
CONTINUOUS
 70
0
 71
3
 72
24
 73
20
 74
0
 42
0.0000001
 43
0.0000001
 44
0.0000000001
 40
0.0
 40
0.0
 40
0.0
 40
0.0
 40
0.0150061295
 40
0.0580835271
 40
0.0893114635
 40
0.1268999946
 40
0.1709481653
 40
0.2216639959
 40
0.2793423502
 40
0.3445087301
 40
0.4179011516
 40
0.500859991
 40
0.5951430933
 40
0.6474476104
 40
0.7040234617
 40
0.7657123466
 40
0.8337448407
 40
0.9101800787
 40
1.0
 40
1.0
 40
1.0
 40
1.0
 10
2.9878233573
 20
4.3327259335
 30
0.0
 10
2.9888444296
 20
4.3321422483
 30
0.0
 10
2.9927970557
 20
4.3298837225
 30
0.0
 10
2.9988771032
 20
4.3264150235
 30
0.0
 10
3.0064977971
 20
4.3220750394
 30
0.0
 10
3.0142077708
 20
4.3177382222
 30
0.0
 10
3.0232874521
 20
4.3127214392
 30
0.0
 10
3.033802331
 20
4.3070473842
 30
0.0
 10
3.0458467625
 20
4.3007240084
 30
0.0
 10
3.0595637184
 20
4.2937656883
 30
0.0
 10
3.0751682345
 20
4.2861525763
 30
0.0
 10
3.0929792617
 20
4.2778644487
 30
0.0
 10
3.1094369672
 20
4.2705932015
 30
0.0
 10
3.1241023474
 20
4.2643895423
 30
0.0
 10
3.1364757785
 20
4.2593272122
 30
0.0
 10
3.150057187
 20
4.2539647981
 30
0.0
 10
3.1651629899
 20
4.2482285125
 30
0.0
 10
3.182416998
 20
4.2419426954
 30
0.0
 10
3.1947380556
 20
4.2376992375
 30
0.0
 10
3.2014114766
 20
4.2354578496
 30
0.0
  0
ENDSEC
  0
SECTION
  2
OBJECTS
  0
DICTIONARY
  5
C
100
AcDbDictionary
280
0
281
1
  3
ACAD_GROUP
350
D
  3
ACAD_MLINESTYLE
350
17
  3
ACAD_LAYOUT
350
1A
  3
ACAD_PLOTSETTINGS
350
19
  3
ACAD_PLOTSTYLENAME
350
E
  0
DICTIONARY
  5
D
102
{ACAD_REACTORS
330
C
102
}
100
AcDbDictionary
280
0
281
1
  0
ACDBDICTIONARYWDFLT
  5
E
102
{ACAD_REACTORS
330
C
102
}
100
AcDbDictionary
281
1
  3
Normal
350
F
100
AcDbDictionaryWithDefault
340
F
  0
DICTIONARY
  5
17
102
{ACAD_REACTORS
330
C
102
}
100
AcDbDictionary
280
0
281
1
  3
Standard
350
18
  0
DICTIONARY
  5
19
102
{ACAD_REACTORS
330
C
102
}
100
AcDbDictionary
281
1
  0
DICTIONARY
  5
1A
102
{ACAD_REACTORS
330
C
102
}
100
AcDbDictionary
281
1
  3
Model
350
285
  3
Layout1
350
286
  0
ACDBPLACEHOLDER
  5
F
102
{ACAD_REACTORS
330
E
102
}
  0
MLINESTYLE
  5
18
102
{ACAD_REACTORS
330
17
102
}
100
AcDbMlineStyle
  2
STANDARD
 70
0
  3

 62
256
 51
90.0
 52
90.0
 71
2
 49
0.5
 62
256
  6
BYLAYER
 49
-0.5
 62
256
  6
BYLAYER
  0
LAYOUT
  5
285
102
{ACAD_REACTORS
330
1A
102
}
100
AcDbPlotSettings
  1

  2
none_device
  4
ANSI_A_(11.00_x_8.50_Inches)
  6

 40
0.0
 41
0.0
 42
0.0
 43
0.0
 44
279.4
 45
215.9
 46
0.0
 47
0.0
 48
0.0
 49
0.0
140
0.0
141
0.0
142
1.0
143
1.0
 70
1024
 72
0
 73
0
 74
0
  7

 75
0
147
1.0
148
0.0
149
0.0
100
AcDbLayout
  1
Model
 70
0
 71
0
 10
0.0
 20
0.0
 11
11.0
 21
8.5
 12
0.0
 22
0.0
 32
0.0
 14
0.0
 24
0.0
 34
0.0
 15
0.0
 25
0.0
 35
0.0
146
0.0
 13
0.0
 23
0.0
 33
0.0
 16
1.0
 26
0.0
 36
0.0
 17
0.0
 27
1.0
 37
0.0
 76
0
330
217
345
0
346
0
  0
LAYOUT
  5
286
102
{ACAD_REACTORS
330
1A
102
}
100
AcDbPlotSettings
  1

  2
none_device
  4
ANSI_A_(11.00_x_8.50_Inches)
  6

 40
0.0
 41
0.0
 42
0.0
 43
0.0
 44
279.4
 45
215.9
 46
0.0
 47
0.0
 48
0.0
 49
0.0
140
0.0
141
0.0
142
1.0
143
1.0
 70
0
 72
0
 73
0
 74
0
  7

 75
0
147
1.0
148
0.0
149
0.0
100
AcDbLayout
  1
Layout1
 70
0
 71
1
 10
0.0
 20
0.0
 11
11.0
 21
8.5
 12
0.0
 22
0.0
 32
0.0
 14
0.0
 24
0.0
 34
0.0
 15
0.0
 25
0.0
 35
0.0
146
0.0
 13
0.0
 23
0.0
 33
0.0
 16
1.0
 26
0.0
 36
0.0
 17
0.0
 27
1.0
 37
0.0
 76
0
330
218
345
0
346
0
  0
ENDSEC
  0
EOF
