999
DXF file: 3-383_top.dxf
999
Pro/ENGINEER 2018400 by Parametric Technology Corporation
  0
SECTION
  2
HEADER
  9
$ACADVER
  1
AC1027
  9
$DWGCODEPAGE
  3
ANSI_1252
  9
$EXTMAX
 10
11.0
 20
8.5
 30
0.0
  9
$EXTMIN
 10
0.0
 20
0.0
 30
0.0
  9
$LIMMIN
 10
0.0
 20
0.0
  9
$LIMMAX
 10
11.0
 20
8.5
  9
$VIEWCTR
 10
5.5
 20
4.25
  9
$VIEWSIZE
 40
8.5
  9
$CLAYER
  8
0
  9
$LTSCALE
 40
0.605
  9
$CELTYPE
  6
BYLAYER
  9
$DIMSCALE
 40
1.0
  9
$DIMASZ
 40
0.1
  9
$DIMEXO
 40
0.0625
  9
$DIMDLI
 40
0.418
  9
$DIMEXE
 40
0.125
  9
$DIMCEN
 40
0.099
  9
$DIMLFAC
 40
1.0
  9
$DIMBLK
  1
_FILLED
  9
$DIMALT
 70
1
  9
$DIMALTD
 70
2
  9
$DIMALTTD
 70
2
  9
$DIMALTF
 40
25.4
  9
$DIMTXT
 40
0.08
  9
$DIMTOL
 70
1
  9
$DIMLIM
 70
0
  9
$DIMTFAC
 40
1.0
  9
$DIMTP
 40
0.001
  9
$DIMTM
 40
0.001
  9
$DIMGAP
 40
0.09
  9
$DIMDSEP
 70
46
  9
$AUNITS
 70
0
  9
$PDMODE
 70
3
  9
$PDSIZE
 40
0.3125
  9
$HANDSEED
  5
2D0
  9
$TILEMODE
 70
1
  9
$MEASUREMENT
 70
0
  9
$INSUNITS
 70
1
  0
ENDSEC
  0
SECTION
  2
CLASSES
  0
CLASS
  1
ACDBDICTIONARYWDFLT
  2
AcDbDictionaryWithDefault
  3
AutoCAD 2000
 90
0
 91
1
280
0
281
0
  0
CLASS
  1
ACDBPLACEHOLDER
  2
AcDbPlaceHolder
  3
AutoCAD 2000
 90
0
 91
1
280
0
281
0
  0
CLASS
  1
LAYOUT
  2
AcDbLayout
  3
AutoCAD 2000
 90
0
 91
0
280
0
281
0
  0
ENDSEC
  0
SECTION
  2
TABLES
  0
TABLE
  2
VPORT
  5
8
100
AcDbSymbolTable
 70
2
  0
VPORT
  5
1F4
100
AcDbSymbolTableRecord
100
AcDbViewportTableRecord
  2
*ACTIVE
 70
0
 10
0.0
 20
0.0
 11
1.0
 21
1.0
 12
5.5
 22
4.25
 13
0.0
 23
0.0
 14
1.0
 24
1.0
 15
0.0
 25
0.0
 16
0.0
 26
0.0
 36
1.0
 17
0.0
 27
0.0
 37
0.0
 40
8.5
 41
1.2941176471
 42
50.0
 43
0.0
 44
0.0
 50
0.0
 51
0.0
 71
0
 72
100
 73
1
 74
1
 75
0
 76
0
 77
0
 78
0
  0
ENDTAB
  0
TABLE
  2
LTYPE
  5
5
100
AcDbSymbolTable
 70
6
  0
LTYPE
  5
14
100
AcDbSymbolTableRecord
100
AcDbLinetypeTableRecord
  2
BYBLOCK
 70
0
  3

 72
65
 73
0
 40
0.0
  0
LTYPE
  5
15
100
AcDbSymbolTableRecord
100
AcDbLinetypeTableRecord
  2
BYLAYER
 70
0
  3

 72
65
 73
0
 40
0.0
  0
LTYPE
  5
16
100
AcDbSymbolTableRecord
100
AcDbLinetypeTableRecord
  2
CONTINUOUS
 70
64
  3
Solid line
 72
65
 73
0
 40
0.0
  0
LTYPE
  5
1F5
100
AcDbSymbolTableRecord
100
AcDbLinetypeTableRecord
  2
CENTER
 70
64
  3
____ _ ____ _ ____ _ ____ _ ____ _ ____ _ ____
 72
65
 73
4
 40
0.6
 49
0.375
 74
0
 49
-0.075
 74
0
 49
0.075
 74
0
 49
-0.075
 74
0
  0
LTYPE
  5
1F6
100
AcDbSymbolTableRecord
100
AcDbLinetypeTableRecord
  2
HIDDEN
 70
64
  3
- - - - - - - - - - - - - - - - - - - -
 72
65
 73
2
 40
0.2
 49
0.1
 74
0
 49
-0.1
 74
0
  0
LTYPE
  5
1F7
100
AcDbSymbolTableRecord
100
AcDbLinetypeTableRecord
  2
PHANTOM
 70
64
  3
_____ _ _ _____ _ _ _____ _ _ _____
 72
65
 73
6
 40
0.8
 49
0.45
 74
0
 49
-0.05
 74
0
 49
0.1
 74
0
 49
-0.05
 74
0
 49
0.1
 74
0
 49
-0.05
 74
0
  0
LTYPE
  5
1F8
100
AcDbSymbolTableRecord
100
AcDbLinetypeTableRecord
  2
DOT
 70
64
  3
. . . . . . . . . . . . . . . . . . . .
 72
65
 73
2
 40
0.2
 49
0.1
 74
0
 49
-0.1
 74
0
  0
LTYPE
  5
1F9
100
AcDbSymbolTableRecord
100
AcDbLinetypeTableRecord
  2
DASHED
 70
64
  3
- - - - - - - - - - - - - - - - - - - -
 72
65
 73
2
 40
0.2
 49
0.1
 74
0
 49
-0.1
 74
0
  0
ENDTAB
  0
TABLE
  2
LAYER
  5
2
100
AcDbSymbolTable
 70
36
  0
LAYER
  5
10
100
AcDbSymbolTableRecord
100
AcDbLayerTableRecord
  2
0
 70
0
 62
7
  6
CONTINUOUS
370
-3
390
F
  0
LAYER
  5
1FA
100
AcDbSymbolTableRecord
100
AcDbLayerTableRecord
  2
DEFAULT_1
 70
0
 62
7
  6
CENTER
370
-3
390
F
  0
LAYER
  5
1FB
100
AcDbSymbolTableRecord
100
AcDbLayerTableRecord
  2
DEFAULT_2
 70
0
 62
8
  6
HIDDEN
370
-3
390
F
  0
LAYER
  5
1FC
100
AcDbSymbolTableRecord
100
AcDbLayerTableRecord
  2
DEFAULT_3
 70
0
 62
7
  6
PHANTOM
370
-3
390
F
  0
LAYER
  5
1FD
100
AcDbSymbolTableRecord
100
AcDbLayerTableRecord
  2
ALL_FEATURES
 70
0
 62
7
  6
CONTINUOUS
370
-3
390
F
  0
LAYER
  5
1FE
100
AcDbSymbolTableRecord
100
AcDbLayerTableRecord
  2
AXES_FEATURES
 70
0
 62
7
  6
CONTINUOUS
370
-3
390
F
  0
LAYER
  5
1FF
100
AcDbSymbolTableRecord
100
AcDbLayerTableRecord
  2
CHAMFER_FEATURES
 70
0
 62
7
  6
CONTINUOUS
370
-3
390
F
  0
LAYER
  5
200
100
AcDbSymbolTableRecord
100
AcDbLayerTableRecord
  2
COORDINATE_SYSTEMS
 70
0
 62
7
  6
CONTINUOUS
370
-3
390
F
  0
LAYER
  5
201
100
AcDbSymbolTableRecord
100
AcDbLayerTableRecord
  2
CUT_FEATURES
 70
0
 62
7
  6
CONTINUOUS
370
-3
390
F
  0
LAYER
  5
202
100
AcDbSymbolTableRecord
100
AcDbLayerTableRecord
  2
CYAN
 70
0
 62
7
  6
CONTINUOUS
370
-3
390
F
  0
LAYER
  5
203
100
AcDbSymbolTableRecord
100
AcDbLayerTableRecord
  2
DATUM_CURVES
 70
0
 62
7
  6
CONTINUOUS
370
-3
390
F
  0
LAYER
  5
204
100
AcDbSymbolTableRecord
100
AcDbLayerTableRecord
  2
DATUM_PLANES
 70
0
 62
7
  6
CONTINUOUS
370
-3
390
F
  0
LAYER
  5
205
100
AcDbSymbolTableRecord
100
AcDbLayerTableRecord
  2
DATUM_POINTS
 70
0
 62
7
  6
CONTINUOUS
370
-3
390
F
  0
LAYER
  5
206
100
AcDbSymbolTableRecord
100
AcDbLayerTableRecord
  2
DEFAULT_COORDINATE_SYSTEM
 70
0
 62
7
  6
CONTINUOUS
370
-3
390
F
  0
LAYER
  5
207
100
AcDbSymbolTableRecord
100
AcDbLayerTableRecord
  2
DEFAULT_DATUM_AXES
 70
0
 62
7
  6
CONTINUOUS
370
-3
390
F
  0
LAYER
  5
208
100
AcDbSymbolTableRecord
100
AcDbLayerTableRecord
  2
DEFAULT_DATUM_CURVES
 70
0
 62
7
  6
CONTINUOUS
370
-3
390
F
  0
LAYER
  5
209
100
AcDbSymbolTableRecord
100
AcDbLayerTableRecord
  2
DEFAULT_DATUM_PLANES
 70
0
 62
7
  6
CONTINUOUS
370
-3
390
F
  0
LAYER
  5
20A
100
AcDbSymbolTableRecord
100
AcDbLayerTableRecord
  2
DEFAULT_SURFACES
 70
0
 62
7
  6
CONTINUOUS
370
-3
390
F
  0
LAYER
  5
20B
100
AcDbSymbolTableRecord
100
AcDbLayerTableRecord
  2
DIMENSIONS
 70
0
 62
7
  6
CONTINUOUS
370
-3
390
F
  0
LAYER
  5
20C
100
AcDbSymbolTableRecord
100
AcDbLayerTableRecord
  2
HOLE_FEATURES
 70
0
 62
7
  6
CONTINUOUS
370
-3
390
F
  0
LAYER
  5
20D
100
AcDbSymbolTableRecord
100
AcDbLayerTableRecord
  2
PLATED_SURFACE_AREA
 70
0
 62
7
  6
CONTINUOUS
370
-3
390
F
  0
LAYER
  5
20E
100
AcDbSymbolTableRecord
100
AcDbLayerTableRecord
  2
POINTS
 70
0
 62
7
  6
CONTINUOUS
370
-3
390
F
  0
LAYER
  5
20F
100
AcDbSymbolTableRecord
100
AcDbLayerTableRecord
  2
PROTRUSION_FEATURES
 70
0
 62
7
  6
CONTINUOUS
370
-3
390
F
  0
LAYER
  5
210
100
AcDbSymbolTableRecord
100
AcDbLayerTableRecord
  2
QUILTS
 70
0
 62
7
  6
CONTINUOUS
370
-3
390
F
  0
LAYER
  5
211
100
AcDbSymbolTableRecord
100
AcDbLayerTableRecord
  2
SURFACE_FEATURES
 70
0
 62
7
  6
CONTINUOUS
370
-3
390
F
  0
LAYER
  5
212
100
AcDbSymbolTableRecord
100
AcDbLayerTableRecord
  2
SURFACE_FINISH_SYMBOLS
 70
0
 62
7
  6
CONTINUOUS
370
-3
390
F
  0
LAYER
  5
213
100
AcDbSymbolTableRecord
100
AcDbLayerTableRecord
  2
WETTED_SURFACE_AREA
 70
0
 62
7
  6
CONTINUOUS
370
-3
390
F
  0
LAYER
  5
214
100
AcDbSymbolTableRecord
100
AcDbLayerTableRecord
  2
WHITE
 70
0
 62
7
  6
CONTINUOUS
370
-3
390
F
  0
ENDTAB
  0
TABLE
  2
STYLE
  5
3
100
AcDbSymbolTable
 70
1
  0
STYLE
  5
11
100
AcDbSymbolTableRecord
100
AcDbTextStyleTableRecord
  2
STANDARD
 70
0
 40
0.0
 41
0.8
 50
0.0
 71
0
 42
0.2
  3
txt
  4

  0
STYLE
  5
215
100
AcDbSymbolTableRecord
100
AcDbTextStyleTableRecord
  2
TEXTSTYLE_1
 70
0
 40
0.0
 41
0.8
 50
0.0
 71
0
 42
0.2
  3
gdt
  4

  0
ENDTAB
  0
TABLE
  2
VIEW
  5
6
100
AcDbSymbolTable
 70
0
  0
ENDTAB
  0
TABLE
  2
UCS
  5
7
100
AcDbSymbolTable
 70
0
  0
ENDTAB
  0
TABLE
  2
APPID
  5
9
100
AcDbSymbolTable
 70
1
  0
APPID
  5
216
100
AcDbSymbolTableRecord
100
AcDbRegAppTableRecord
  2
ACAD
 70
0
  0
ENDTAB
  0
TABLE
  2
BLOCK_RECORD
  5
1
100
AcDbSymbolTable
 70
0
  0
BLOCK_RECORD
  5
217
100
AcDbSymbolTableRecord
100
AcDbBlockTableRecord
  2
*Model_Space
  0
BLOCK_RECORD
  5
218
100
AcDbSymbolTableRecord
100
AcDbBlockTableRecord
  2
*Paper_Space
  0
BLOCK_RECORD
  5
219
100
AcDbSymbolTableRecord
100
AcDbBlockTableRecord
  2
_FILLED
  0
ENDTAB
  0
TABLE
  2
DIMSTYLE
  5
A
100
AcDbSymbolTable
 70
1
100
AcDbDimStyleTable
 71
0
  0
DIMSTYLE
105
21A
100
AcDbSymbolTableRecord
100
AcDbDimStyleTableRecord
  2
STANDARD
 70
0
  3

  4

 40
1.0
 41
0.1
 42
0.0625
 43
0.38
 44
0.125
 45
0.0
 46
0.0
 47
0.001
 48
0.001
140
0.08
141
0.09
142
0.0
143
25.4
144
1.0
145
0.0
146
1.0
147
0.09
 71
1.0
 72
0.0
 73
1
 74
1
 75
0
 76
0
 77
0
 78
4
 79
1
170
1
171
2
172
0
173
0
174
0
175
0
176
0
177
0
178
0
270
2
179
3
271
3
272
3
273
2
274
2
275
0
280
0
281
0
282
0
283
1
284
4
285
0
286
0
287
3
288
0
340
11
278
46
341
219
342
219
343
219
344
219
  0
ENDTAB
  0
ENDSEC
  0
SECTION
  2
BLOCKS
  0
BLOCK
  5
20
100
AcDbEntity
  8
0
100
AcDbBlockBegin
  2
*Model_Space
 70
0
 10
0.0
 20
0.0
 30
0.0
  3
*Model_Space
  1

  0
ENDBLK
  5
21
100
AcDbEntity
  8
0
100
AcDbBlockEnd
  0
BLOCK
  5
1C
100
AcDbEntity
  8
0
100
AcDbBlockBegin
  2
*Paper_Space
 70
0
 10
0.0
 20
0.0
 30
0.0
  3
*Paper_Space
  1

  0
ENDBLK
  5
1D
100
AcDbEntity
  8
0
100
AcDbBlockEnd
  0
BLOCK
  5
21B
100
AcDbEntity
  8
0
100
AcDbBlockBegin
  2
_FILLED
 70
64
 10
0.0
 20
0.0
  3
_FILLED
  1

  0
SOLID
  5
21C
100
AcDbEntity
  8
0
  6
BYBLOCK
 62
0
100
AcDbTrace
 10
0.0
 20
0.0
 11
-1.0
 21
0.2
 12
-1.0
 22
-0.2
 13
-1.0
 23
-0.2
  0
ENDBLK
  5
21D
100
AcDbEntity
  8
0
  6
BYBLOCK
 62
0
100
AcDbBlockEnd
  0
ENDSEC
  0
SECTION
  2
ENTITIES
  0
MTEXT
  5
21E
100
AcDbEntity
  8
0
100
AcDbMText
 62
2
  6
CONTINUOUS
  7
STANDARD
 71
3
 72
1
 10
5.1887034161
 20
1.7549507898
 30
0.0
 11
1.0
 21
0.0
 31
0.0
 73
2
 44
0.9
  1
SCALE  .500
 40
0.08
 41
0.704
  0
LINE
  5
21F
100
AcDbEntity
  8
0
100
AcDbLine
 62
7
  6
CONTINUOUS
 10
0.0
 20
0.0
 11
0.0
 21
8.5
  0
LINE
  5
220
100
AcDbEntity
  8
0
100
AcDbLine
 62
7
  6
CONTINUOUS
 10
0.0
 20
0.0
 11
11.0
 21
0.0
  0
LINE
  5
221
100
AcDbEntity
  8
0
100
AcDbLine
 62
7
  6
CONTINUOUS
 10
0.0
 20
8.5
 11
11.0
 21
8.5
  0
LINE
  5
222
100
AcDbEntity
  8
0
100
AcDbLine
 62
7
  6
CONTINUOUS
 10
11.0
 20
0.0
 11
11.0
 21
8.5
  0
LINE
  5
223
100
AcDbEntity
  8
0
100
AcDbLine
 62
7
  6
CONTINUOUS
 10
5.3435822981
 20
6.4352582986
 11
5.3955396884
 21
6.5065880874
  0
LINE
  5
224
100
AcDbEntity
  8
ALL_FEATURES
100
AcDbLine
 62
7
  6
CONTINUOUS
 10
4.451438184
 20
4.7102751314
 11
4.4514671629
 21
4.669166095
  0
LINE
  5
225
100
AcDbEntity
  8
ALL_FEATURES
100
AcDbLine
 62
7
  6
CONTINUOUS
 10
4.4005822981
 20
5.6340787133
 11
4.4005822981
 21
5.6453287133
  0
LINE
  5
226
100
AcDbEntity
  8
ALL_FEATURES
100
AcDbLine
 62
7
  6
CONTINUOUS
 10
4.4005822981
 20
6.1565787133
 11
4.4005822981
 21
6.1640787133
  0
LINE
  5
227
100
AcDbEntity
  8
ALL_FEATURES
100
AcDbLine
 62
7
  6
CONTINUOUS
 10
4.4505822981
 20
5.5990787133
 11
4.4505838087
 21
5.0430214258
  0
LINE
  5
228
100
AcDbEntity
  8
ALL_FEATURES
100
AcDbLine
 62
7
  6
CONTINUOUS
 10
4.4514671629
 20
4.669166095
 11
4.4514056843
 21
4.6116392646
  0
LINE
  5
229
100
AcDbEntity
  8
ALL_FEATURES
100
AcDbLine
 62
7
  6
CONTINUOUS
 10
4.4513958519
 20
4.6116392898
 11
4.4512808169
 21
4.572640119
  0
LINE
  5
22A
100
AcDbEntity
  8
ALL_FEATURES
100
AcDbLine
 62
7
  6
CONTINUOUS
 10
4.451326137
 20
4.5844259577
 11
4.4510627894
 21
4.5315433414
  0
LINE
  5
22B
100
AcDbEntity
  8
ALL_FEATURES
100
AcDbLine
 62
7
  6
CONTINUOUS
 10
4.4511324648
 20
4.5430280351
 11
4.4507666243
 21
4.493013923
  0
LINE
  5
22C
100
AcDbEntity
  8
ALL_FEATURES
100
AcDbLine
 62
7
  6
CONTINUOUS
 10
4.4489016065
 20
4.3603474351
 11
4.448889108
 21
4.3590742575
  0
LINE
  5
22D
100
AcDbEntity
  8
ALL_FEATURES
100
AcDbLine
 62
7
  6
CONTINUOUS
 10
4.4508498579
 20
4.502908803
 11
4.4503954239
 21
4.4566215268
  0
LINE
  5
22E
100
AcDbEntity
  8
ALL_FEATURES
100
AcDbLine
 62
7
  6
CONTINUOUS
 10
4.450475257
 20
4.4640404538
 11
4.4499615074
 21
4.4227290932
  0
LWPOLYLINE
  5
22F
100
AcDbEntity
  8
ALL_FEATURES
100
AcDbPolyline
 62
7
  6
CONTINUOUS
 90
3
 70
0
 10
4.450007324
 20
4.4264218742
 10
4.4494466705
 20
4.3900791516
 10
4.448889108
 20
4.3590742575
  0
LWPOLYLINE
  5
230
100
AcDbEntity
  8
ALL_FEATURES
100
AcDbPolyline
 62
7
  6
CONTINUOUS
 90
13
 70
0
 10
4.4489016215
 20
4.3603481946
 10
4.447728663
 20
4.3077579348
 10
4.446116511
 20
4.2505446435
 10
4.4441620472
 20
4.1946684851
 10
4.441850231
 20
4.1401648847
 10
4.4391697397
 20
4.0870783332
 10
4.4361134055
 20
4.0354617345
 10
4.4326737908
 20
3.9853083616
 10
4.428850418
 20
3.9366716912
 10
4.4246545824
 20
3.8896820858
 10
4.4200967711
 20
3.8443833594
 10
4.4151828372
 20
3.8007379768
 10
4.4105405571
 20
3.7634453512
  0
LINE
  5
231
100
AcDbEntity
  8
0
100
AcDbLine
 62
7
  6
CONTINUOUS
 10
5.440743181
 20
6.6337857699
 11
5.4260189889
 21
6.6066114572
  0
LINE
  5
232
100
AcDbEntity
  8
ALL_FEATURES
100
AcDbLine
 62
7
  6
CONTINUOUS
 10
4.4105407305
 20
3.763446682
 11
4.4105405571
 21
3.7634453512
  0
LWPOLYLINE
  5
233
100
AcDbEntity
  8
ALL_FEATURES
100
AcDbPolyline
 62
7
  6
CONTINUOUS
 90
10
 70
0
 10
4.4105407305
 20
3.763446682
 10
4.4067808503
 20
3.7355792867
 10
4.4019017252
 20
3.7020440543
 10
4.3965452825
 20
3.6680934342
 10
4.39067851
 20
3.633780963
 10
4.3842684093
 20
3.5991716394
 10
4.3772966547
 20
3.5643340533
 10
4.3697749189
 20
3.5293279916
 10
4.3617224151
 20
3.4942128435
 10
4.3541922823
 20
3.463173946
  0
LINE
  5
234
100
AcDbEntity
  8
0
100
AcDbLine
 62
7
  6
CONTINUOUS
 10
5.4260189889
 20
6.6066114572
 11
5.3956282633
 21
6.5436565642
  0
LWPOLYLINE
  5
235
100
AcDbEntity
  8
ALL_FEATURES
100
AcDbPolyline
 62
7
  6
CONTINUOUS
 90
9
 70
0
 10
5.2927338318
 20
3.0287999399
 10
5.2870780635
 20
3.0423760019
 10
5.2802934348
 20
3.0588536278
 10
5.2733099097
 20
3.076055031
 10
5.2661600106
 20
3.0939425283
 10
5.2588631402
 20
3.1125099958
 10
5.2514254085
 20
3.1317860778
 10
5.2438651468
 20
3.1517697967
 10
5.2362130803
 20
3.1724272856
  0
LINE
  5
236
100
AcDbEntity
  8
ALL_FEATURES
100
AcDbLine
 62
7
  6
CONTINUOUS
 10
4.7505822981
 20
5.5990787133
 11
4.7505822981
 21
2.7492520321
  0
LINE
  5
237
100
AcDbEntity
  8
ALL_FEATURES
100
AcDbLine
 62
7
  6
CONTINUOUS
 10
4.3541936527
 20
3.4631794573
 11
4.3541922823
 21
3.463173946
  0
LWPOLYLINE
  5
238
100
AcDbEntity
  8
ALL_FEATURES
100
AcDbPolyline
 62
7
  6
CONTINUOUS
 90
9
 70
0
 10
4.3541936527
 20
3.4631794573
 10
4.3480476393
 20
3.4389442255
 10
4.3406020834
 20
3.410752554
 10
4.3329783495
 20
3.3830553706
 10
4.325202533
 20
3.355882393
 10
4.3172976023
 20
3.3292516174
 10
4.3092837382
 20
3.3031724467
 10
4.3011853376
 20
3.2776687766
 10
4.2930306834
 20
3.2527758301
  0
LINE
  5
239
100
AcDbEntity
  8
ALL_FEATURES
100
AcDbLine
 62
7
  6
CONTINUOUS
 10
5.2362130803
 20
3.1724272856
 11
5.2289710645
 21
3.1924079698
  0
LINE
  5
23A
100
AcDbEntity
  8
ALL_FEATURES
100
AcDbLine
 62
7
  6
CONTINUOUS
 10
5.2289710645
 20
3.1924079698
 11
5.2234380534
 21
3.2079987095
  0
LINE
  5
23B
100
AcDbEntity
  8
ALL_FEATURES
100
AcDbLine
 62
7
  6
CONTINUOUS
 10
5.2234380534
 20
3.2079987095
 11
5.217797898
 21
3.2242134169
  0
LINE
  5
23C
100
AcDbEntity
  8
ALL_FEATURES
100
AcDbLine
 62
7
  6
CONTINUOUS
 10
5.217797898
 20
3.2242134169
 11
5.2151977061
 21
3.2318018125
  0
LWPOLYLINE
  5
23D
100
AcDbEntity
  8
ALL_FEATURES
100
AcDbPolyline
 62
7
  6
CONTINUOUS
 90
10
 70
0
 10
5.2151964765
 20
3.2318054178
 10
5.2081339129
 20
3.2527758301
 10
5.1999792586
 20
3.2776687766
 10
5.1918808581
 20
3.3031724467
 10
5.183866994
 20
3.3292516174
 10
5.1759620633
 20
3.355882393
 10
5.1681862468
 20
3.3830553706
 10
5.1605625129
 20
3.410752554
 10
5.153116957
 20
3.4389442255
 10
5.1469709436
 20
3.4631794573
  0
LINE
  5
23E
100
AcDbEntity
  8
ALL_FEATURES
100
AcDbLine
 62
7
  6
CONTINUOUS
 10
4.2930306834
 20
3.2527758301
 11
4.2852688969
 21
3.22975764
  0
LINE
  5
23F
100
AcDbEntity
  8
ALL_FEATURES
100
AcDbLine
 62
7
  6
CONTINUOUS
 10
4.2852688969
 20
3.22975764
 11
4.2795951656
 21
3.2133341155
  0
LINE
  5
240
100
AcDbEntity
  8
ALL_FEATURES
100
AcDbLine
 62
7
  6
CONTINUOUS
 10
4.2795951656
 20
3.2133341155
 11
4.274025386
 21
3.1975357859
  0
LINE
  5
241
100
AcDbEntity
  8
ALL_FEATURES
100
AcDbLine
 62
7
  6
CONTINUOUS
 10
4.274025386
 20
3.1975357859
 11
4.2714652568
 21
3.1903785533
  0
LWPOLYLINE
  5
242
100
AcDbEntity
  8
ALL_FEATURES
100
AcDbPolyline
 62
7
  6
CONTINUOUS
 90
10
 70
0
 10
4.2714659311
 20
3.19038043
 10
4.264951516
 20
3.1724272856
 10
4.2572994494
 20
3.1517697967
 10
4.2497391878
 20
3.1317860778
 10
4.2423014561
 20
3.1125099958
 10
4.2350045856
 20
3.0939425283
 10
4.2278546866
 20
3.076055031
 10
4.2208711615
 20
3.0588536278
 10
4.2140865328
 20
3.0423760019
 10
4.2084307645
 20
3.0287999399
  0
LINE
  5
243
100
AcDbEntity
  8
ALL_FEATURES
100
AcDbLine
 62
7
  6
CONTINUOUS
 10
5.1469709436
 20
3.4631794573
 11
5.1469685742
 21
3.4631889826
  0
LWPOLYLINE
  5
244
100
AcDbEntity
  8
ALL_FEATURES
100
AcDbPolyline
 62
7
  6
CONTINUOUS
 90
10
 70
0
 10
5.146972314
 20
3.463173946
 10
5.1394421812
 20
3.4942128435
 10
5.1313896774
 20
3.5293279916
 10
5.1238679416
 20
3.5643340533
 10
5.116896187
 20
3.5991716394
 10
5.1104860863
 20
3.633780963
 10
5.1046193137
 20
3.6680934342
 10
5.099262871
 20
3.7020440543
 10
5.094383746
 20
3.7355792867
 10
5.0906238658
 20
3.763446682
  0
LINE
  5
245
100
AcDbEntity
  8
0
100
AcDbLine
 62
7
  6
CONTINUOUS
 10
4.0751456074
 20
6.6066114572
 11
4.1055363329
 21
6.5436565642
  0
LINE
  5
246
100
AcDbEntity
  8
ALL_FEATURES
100
AcDbLine
 62
7
  6
CONTINUOUS
 10
5.0906240392
 20
3.7634453512
 11
5.0906238658
 21
3.763446682
  0
LWPOLYLINE
  5
247
100
AcDbEntity
  8
ALL_FEATURES
100
AcDbPolyline
 62
7
  6
CONTINUOUS
 90
13
 70
0
 10
5.0906240392
 20
3.7634453512
 10
5.0859817591
 20
3.8007379768
 10
5.0810678252
 20
3.8443833594
 10
5.0765100139
 20
3.8896820858
 10
5.0723141783
 20
3.9366716912
 10
5.0684908055
 20
3.9853083616
 10
5.0650511908
 20
4.0354617345
 10
5.0619948565
 20
4.0870783332
 10
5.0593143653
 20
4.1401648847
 10
5.0570025491
 20
4.1946684851
 10
5.0550480852
 20
4.2505446435
 10
5.0534359333
 20
4.3077579348
 10
5.0522629748
 20
4.3603481946
  0
LINE
  5
248
100
AcDbEntity
  8
ALL_FEATURES
100
AcDbLine
 62
7
  6
CONTINUOUS
 10
5.0517179257
 20
4.3900791516
 11
5.0522754882
 21
4.3590742575
  0
LINE
  5
249
100
AcDbEntity
  8
ALL_FEATURES
100
AcDbLine
 62
7
  6
CONTINUOUS
 10
5.0511462358
 20
4.4273091246
 11
5.0517179257
 21
4.3900791516
  0
LINE
  5
24A
100
AcDbEntity
  8
ALL_FEATURES
100
AcDbLine
 62
7
  6
CONTINUOUS
 10
5.0506719588
 20
4.4658438409
 11
5.0511572723
 21
4.4264218742
  0
LINE
  5
24B
100
AcDbEntity
  8
ALL_FEATURES
100
AcDbLine
 62
7
  6
CONTINUOUS
 10
5.0522754882
 20
4.3590742575
 11
5.0522629898
 21
4.3603474351
  0
LINE
  5
24C
100
AcDbEntity
  8
ALL_FEATURES
100
AcDbLine
 62
7
  6
CONTINUOUS
 10
5.050299239
 20
4.5051091086
 11
5.0506893392
 21
4.4640404538
  0
LINE
  5
24D
100
AcDbEntity
  8
ALL_FEATURES
100
AcDbLine
 62
7
  6
CONTINUOUS
 10
5.0500223578
 20
4.545117177
 11
5.0503147383
 21
4.502908803
  0
LWPOLYLINE
  5
24E
100
AcDbEntity
  8
ALL_FEATURES
100
AcDbPolyline
 62
7
  6
CONTINUOUS
 90
4
 70
0
 10
5.0500321314
 20
4.5430280351
 10
5.0498384593
 20
4.5844259577
 10
5.0497291471
 20
4.6270961717
 10
5.0496974334
 20
4.669166095
  0
LINE
  5
24F
100
AcDbEntity
  8
ALL_FEATURES
100
AcDbLine
 62
7
  6
CONTINUOUS
 10
5.1005822981
 20
5.6340787133
 11
5.1005822981
 21
5.6453287133
  0
LINE
  5
250
100
AcDbEntity
  8
ALL_FEATURES
100
AcDbLine
 62
7
  6
CONTINUOUS
 10
5.1005822981
 20
6.1565787133
 11
5.1005822981
 21
6.1640787133
  0
LINE
  5
251
100
AcDbEntity
  8
ALL_FEATURES
100
AcDbLine
 62
7
  6
CONTINUOUS
 10
5.0505822981
 20
5.5990787133
 11
5.0505804998
 21
5.0421882966
  0
LINE
  5
252
100
AcDbEntity
  8
ALL_FEATURES
100
AcDbLine
 62
7
  6
CONTINUOUS
 10
5.0497264122
 20
4.7102751314
 11
5.0496974334
 21
4.669166095
  0
LINE
  5
253
100
AcDbEntity
  8
0
100
AcDbLine
 62
7
  6
CONTINUOUS
 10
4.0604214152
 20
6.6337857699
 11
4.0751456074
 21
6.6066114572
  0
LINE
  5
254
100
AcDbEntity
  8
0
100
AcDbLine
 62
7
  6
CONTINUOUS
 10
4.1575822981
 20
6.4352582986
 11
4.1056249078
 21
6.5065880874
  0
LINE
  5
255
100
AcDbEntity
  8
0
100
AcDbLine
 62
7
  6
CONTINUOUS
 10
5.0655822981
 20
5.5990787133
 11
4.4355822982
 21
5.5990787133
  0
LINE
  5
256
100
AcDbEntity
  8
0
100
AcDbLine
 62
7
  6
CONTINUOUS
 10
5.1005822981
 20
5.6340787133
 11
4.4005822981
 21
5.6340787133
  0
LINE
  5
257
100
AcDbEntity
  8
0
100
AcDbLine
 62
7
  6
CONTINUOUS
 10
5.1005822981
 20
5.6453287133
 11
4.4005822981
 21
5.6453287133
  0
LINE
  5
258
100
AcDbEntity
  8
0
100
AcDbLine
 62
7
  6
CONTINUOUS
 10
5.0784383277
 20
5.6778820925
 11
4.4227262685
 21
5.6778820925
  0
LINE
  5
259
100
AcDbEntity
  8
0
100
AcDbLine
 62
7
  6
CONTINUOUS
 10
5.0629028336
 20
5.6973925736
 11
4.4382617627
 21
5.6973925736
  0
LINE
  5
25A
100
AcDbEntity
  8
0
100
AcDbLine
 62
7
  6
CONTINUOUS
 10
4.4382617627
 20
6.1045148529
 11
5.0629028336
 21
6.1045148529
  0
LINE
  5
25B
100
AcDbEntity
  8
0
100
AcDbLine
 62
7
  6
CONTINUOUS
 10
4.4227262685
 20
6.124025334
 11
5.0784383277
 21
6.124025334
  0
LINE
  5
25C
100
AcDbEntity
  8
0
100
AcDbLine
 62
7
  6
CONTINUOUS
 10
5.1005822981
 20
6.1565787133
 11
4.4005822981
 21
6.1565787133
  0
LINE
  5
25D
100
AcDbEntity
  8
0
100
AcDbLine
 62
7
  6
CONTINUOUS
 10
5.1005822981
 20
6.1640787133
 11
4.4005822981
 21
6.1640787133
  0
LINE
  5
25E
100
AcDbEntity
  8
0
100
AcDbLine
 62
7
  6
CONTINUOUS
 10
5.0813886059
 20
6.1990787133
 11
4.4197759904
 21
6.1990787133
  0
LINE
  5
25F
100
AcDbEntity
  8
0
100
AcDbLine
 62
7
  6
CONTINUOUS
 10
5.1150888725
 20
6.2121423446
 11
4.3860757237
 21
6.2121423446
  0
LINE
  5
260
100
AcDbEntity
  8
0
100
AcDbLine
 62
7
  6
CONTINUOUS
 10
4.1819362503
 20
6.4210787133
 11
5.319228346
 21
6.4210787133
  0
LINE
  5
261
100
AcDbEntity
  8
0
100
AcDbLine
 62
7
  6
CONTINUOUS
 10
4.1575822981
 20
6.4352582986
 11
5.3435822981
 21
6.4352582986
  0
LINE
  5
262
100
AcDbEntity
  8
0
100
AcDbLine
 62
7
  6
CONTINUOUS
 10
5.3955396884
 20
6.5065880873
 11
4.1056249079
 21
6.5065880873
  0
LINE
  5
263
100
AcDbEntity
  8
0
100
AcDbLine
 62
7
  6
CONTINUOUS
 10
5.3981913442
 20
6.5153730196
 11
4.1029732521
 21
6.5153730196
  0
LINE
  5
264
100
AcDbEntity
  8
0
100
AcDbLine
 62
7
  6
CONTINUOUS
 10
4.1059131201
 20
6.5290175465
 11
5.3952514762
 21
6.5290175465
  0
LINE
  5
265
100
AcDbEntity
  8
0
100
AcDbLine
 62
7
  6
CONTINUOUS
 10
4.105536333
 20
6.5436565642
 11
5.3956282633
 21
6.5436565642
  0
LINE
  5
266
100
AcDbEntity
  8
0
100
AcDbLine
 62
7
  6
CONTINUOUS
 10
4.0751456074
 20
6.6066114572
 11
5.4260189889
 21
6.6066114572
  0
LINE
  5
267
100
AcDbEntity
  8
0
100
AcDbLine
 62
7
  6
CONTINUOUS
 10
5.440743181
 20
6.6337857699
 11
4.0604214152
 21
6.6337857699
  0
LINE
  5
268
100
AcDbEntity
  8
0
100
AcDbLine
 62
7
  6
CONTINUOUS
 10
5.4247465812
 20
6.6615787133
 11
4.076418015
 21
6.6615787133
  0
ARC
  5
269
100
AcDbEntity
  8
ALL_FEATURES
100
AcDbCircle
 62
7
  6
CONTINUOUS
 10
-8.6057670105
 20
4.6067751987
 40
13.0570258343
100
AcDbArc
 50
359.2124530697
 51
359.3410933376
  0
ARC
  5
26A
100
AcDbEntity
  8
ALL_FEATURES
100
AcDbCircle
 62
7
  6
CONTINUOUS
 10
-7.1595472451
 20
4.5864548682
 40
11.6106631853
100
AcDbArc
 50
358.8841457196
 51
359.1920266159
  0
ARC
  5
26B
100
AcDbEntity
  8
ALL_FEATURES
100
AcDbCircle
 62
7
  6
CONTINUOUS
 10
-5.444178358
 20
4.5530334884
 40
9.8949680045
100
AcDbArc
 50
358.5023039654
 51
358.813602665
  0
ARC
  5
26C
100
AcDbEntity
  8
ALL_FEATURES
100
AcDbCircle
 62
7
  6
CONTINUOUS
 10
-4.5475507527
 20
4.5302092911
 40
8.998050179
100
AcDbArc
 50
358.2865313363
 51
358.498365416
  0
ARC
  5
26D
100
AcDbEntity
  8
ALL_FEATURES
100
AcDbCircle
 62
7
  6
CONTINUOUS
 10
-3.974326191
 20
4.5132474203
 40
8.4245747511
100
AcDbArc
 50
358.0717551334
 51
358.28526755
  0
ARC
  5
26E
100
AcDbEntity
  8
ALL_FEATURES
100
AcDbCircle
 62
7
  6
CONTINUOUS
 10
8.9871799694
 20
4.5216539023
 40
3.9925823685
100
AcDbArc
 50
202.0038565908
 51
202.6054201748
  0
ARC
  5
26F
100
AcDbEntity
  8
ALL_FEATURES
100
AcDbCircle
 62
7
  6
CONTINUOUS
 10
0.5139846269
 20
4.5216539023
 40
3.9925823685
100
AcDbArc
 50
337.3945798252
 51
337.9961434092
  0
ARC
  5
270
100
AcDbEntity
  8
ALL_FEATURES
100
AcDbCircle
 62
7
  6
CONTINUOUS
 10
8.4456634073
 20
4.3046726114
 40
3.4092148775
100
AcDbArc
 50
199.6856822092
 51
202.0326521093
  0
ARC
  5
271
100
AcDbEntity
  8
ALL_FEATURES
100
AcDbCircle
 62
7
  6
CONTINUOUS
 10
1.055501189
 20
4.3046726114
 40
3.4092148775
100
AcDbArc
 50
337.9673478907
 51
340.3143177908
  0
ARC
  5
272
100
AcDbEntity
  8
ALL_FEATURES
100
AcDbCircle
 62
7
  6
CONTINUOUS
 10
8.4445631069
 20
4.1865486401
 40
3.3813097206
100
AcDbArc
 50
187.1910644878
 51
187.400833913
  0
ARC
  5
273
100
AcDbEntity
  8
ALL_FEATURES
100
AcDbCircle
 62
7
  6
CONTINUOUS
 10
1.0566014895
 20
4.18654864
 40
3.3813097205
100
AcDbArc
 50
352.599166087
 51
352.8089355122
  0
ARC
  5
274
100
AcDbEntity
  8
ALL_FEATURES
100
AcDbCircle
 62
7
  6
CONTINUOUS
 10
8.222174148
 20
4.2232824833
 40
3.1713707129
100
AcDbArc
 50
198.9248183477
 51
199.6613162958
  0
ARC
  5
275
100
AcDbEntity
  8
ALL_FEATURES
100
AcDbCircle
 62
7
  6
CONTINUOUS
 10
1.2789904483
 20
4.2232824833
 40
3.1713707129
100
AcDbArc
 50
340.3386837042
 51
341.0751816523
  0
ARC
  5
276
100
AcDbEntity
  8
ALL_FEATURES
100
AcDbCircle
 62
7
  6
CONTINUOUS
 10
8.1577964422
 20
4.2012986786
 40
3.1033428467
100
AcDbArc
 50
198.2361873691
 51
198.8303367583
  0
ARC
  5
277
100
AcDbEntity
  8
ALL_FEATURES
100
AcDbCircle
 62
7
  6
CONTINUOUS
 10
1.3433681541
 20
4.2012986786
 40
3.1033428467
100
AcDbArc
 50
341.1696632417
 51
341.7638126309
  0
ARC
  5
278
100
AcDbEntity
  8
ALL_FEATURES
100
AcDbCircle
 62
7
  6
CONTINUOUS
 10
1.639087368
 20
4.1142839799
 40
2.7950118922
100
AcDbArc
 50
346.0111509277
 51
346.5129341943
  0
ARC
  5
279
100
AcDbEntity
  8
ALL_FEATURES
100
AcDbCircle
 62
7
  6
CONTINUOUS
 10
7.8620772283
 20
4.1142839799
 40
2.7950118922
100
AcDbArc
 50
193.4870658057
 51
193.9888490723
  0
ARC
  5
27A
100
AcDbEntity
  8
ALL_FEATURES
100
AcDbCircle
 62
7
  6
CONTINUOUS
 10
4.505714084
 20
3.7510940432
 40
0.0959716366
100
AcDbArc
 50
172.6056687059
 51
180.0549301895
  0
ARC
  5
27B
100
AcDbEntity
  8
ALL_FEATURES
100
AcDbCircle
 62
7
  6
CONTINUOUS
 10
4.9954505123
 20
3.7510940432
 40
0.0959716366
100
AcDbArc
 50
359.9450698105
 51
7.3943312941
  0
ARC
  5
27C
100
AcDbEntity
  8
ALL_FEATURES
100
AcDbCircle
 62
7
  6
CONTINUOUS
 10
4.5110143449
 20
4.3590424795
 40
0.062125245
100
AcDbArc
 50
179.9706924132
 51
185.9816231944
  0
ARC
  5
27D
100
AcDbEntity
  8
ALL_FEATURES
100
AcDbCircle
 62
7
  6
CONTINUOUS
 10
4.9911673213
 20
4.3589895212
 40
0.0611082257
100
AcDbArc
 50
353.9899258128
 51
0.0794497421
  0
ARC
  5
27E
100
AcDbEntity
  8
0
100
AcDbCircle
 62
7
  6
CONTINUOUS
 10
5.3970822981
 20
7.3202333636
 40
1.5
100
AcDbArc
 50
216.8295458268
 51
227.6231174488
  0
ARC
  5
27F
100
AcDbEntity
  8
0
100
AcDbCircle
 62
7
  6
CONTINUOUS
 10
4.1040822981
 20
7.3202333636
 40
1.5
100
AcDbArc
 50
312.3768825512
 51
323.1704541732
  0
ARC
  5
280
100
AcDbEntity
  8
ALL_FEATURES
100
AcDbCircle
 62
7
  6
CONTINUOUS
 10
6.4075822981
 20
5.9009537133
 40
1.36
100
AcDbArc
 50
171.3917734115
 51
188.6082265885
  0
ARC
  5
281
100
AcDbEntity
  8
ALL_FEATURES
100
AcDbCircle
 62
7
  6
CONTINUOUS
 10
3.0935822981
 20
5.9009537133
 40
1.36
100
AcDbArc
 50
351.3917734115
 51
8.6082265885
  0
ARC
  5
282
100
AcDbEntity
  8
0
100
AcDbCircle
 62
7
  6
CONTINUOUS
 10
5.0813886549
 20
6.2490787133
 40
0.05
100
AcDbArc
 50
270.0
 51
312.3768825512
  0
ARC
  5
283
100
AcDbEntity
  8
0
100
AcDbCircle
 62
7
  6
CONTINUOUS
 10
4.4197759413
 20
6.2490787133
 40
0.05
100
AcDbArc
 50
227.6231174488
 51
270.0
  0
ARC
  5
284
100
AcDbEntity
  8
0
100
AcDbCircle
 62
7
  6
CONTINUOUS
 10
5.3567301519
 20
6.5135787133
 40
0.0415
100
AcDbArc
 50
2.4780297489
 51
21.8402547393
  0
ARC
  5
285
100
AcDbEntity
  8
0
100
AcDbCircle
 62
7
  6
CONTINUOUS
 10
4.1444344444
 20
6.5135787133
 40
0.0415
100
AcDbArc
 50
158.1597452607
 51
177.5219702511
  0
ARC
  5
286
100
AcDbEntity
  8
0
100
AcDbCircle
 62
7
  6
CONTINUOUS
 10
5.0655822981
 20
6.1640787133
 40
0.035
100
AcDbArc
 50
0.0
 51
90.0
  0
ARC
  5
287
100
AcDbEntity
  8
0
100
AcDbCircle
 62
7
  6
CONTINUOUS
 10
4.4355822981
 20
6.1640787133
 40
0.035
100
AcDbArc
 50
90.0
 51
180.0
  0
ARC
  5
288
100
AcDbEntity
  8
0
100
AcDbCircle
 62
7
  6
CONTINUOUS
 10
5.0655822981
 20
6.1565787133
 40
0.035
100
AcDbArc
 50
291.5501295438
 51
360.0
  0
ARC
  5
289
100
AcDbEntity
  8
0
100
AcDbCircle
 62
7
  6
CONTINUOUS
 10
4.4355822981
 20
5.6453287133
 40
0.035
100
AcDbArc
 50
111.5501295438
 51
180.0
  0
ARC
  5
28A
100
AcDbEntity
  8
0
100
AcDbCircle
 62
7
  6
CONTINUOUS
 10
4.4355822981
 20
6.1565787133
 40
0.035
100
AcDbArc
 50
180.0
 51
248.4498704562
  0
ARC
  5
28B
100
AcDbEntity
  8
0
100
AcDbCircle
 62
7
  6
CONTINUOUS
 10
5.0655822981
 20
5.6453287133
 40
0.035
100
AcDbArc
 50
0.0
 51
68.4498704562
  0
ARC
  5
28C
100
AcDbEntity
  8
0
100
AcDbCircle
 62
7
  6
CONTINUOUS
 10
5.0655822981
 20
5.6340787133
 40
0.035
100
AcDbArc
 50
270.0
 51
360.0
  0
ARC
  5
28D
100
AcDbEntity
  8
0
100
AcDbCircle
 62
7
  6
CONTINUOUS
 10
4.4355822981
 20
5.6340787133
 40
0.035
100
AcDbArc
 50
180.0
 51
270.0
  0
ARC
  5
28E
100
AcDbEntity
  8
0
100
AcDbCircle
 62
7
  6
CONTINUOUS
 10
5.3192307861
 20
6.4490787133
 40
0.028
100
AcDbArc
 50
270.0
 51
330.4234315939
  0
ARC
  5
28F
100
AcDbEntity
  8
0
100
AcDbCircle
 62
7
  6
CONTINUOUS
 10
4.1819338102
 20
6.4490787133
 40
0.028
100
AcDbArc
 50
209.5765684061
 51
270.0
  0
ARC
  5
290
100
AcDbEntity
  8
0
100
AcDbCircle
 62
7
  6
CONTINUOUS
 10
4.4135433902
 20
5.7011345063
 40
0.025
100
AcDbArc
 50
291.5501295438
 51
351.3917734115
  0
ARC
  5
291
100
AcDbEntity
  8
0
100
AcDbCircle
 62
7
  6
CONTINUOUS
 10
5.0876212061
 20
5.7011345063
 40
0.025
100
AcDbArc
 50
188.6082265885
 51
248.4498704562
  0
ARC
  5
292
100
AcDbEntity
  8
0
100
AcDbCircle
 62
7
  6
CONTINUOUS
 10
4.4135433902
 20
6.1007729202
 40
0.025
100
AcDbArc
 50
8.6082265885
 51
68.4498704562
  0
ARC
  5
293
100
AcDbEntity
  8
0
100
AcDbCircle
 62
7
  6
CONTINUOUS
 10
5.0876212061
 20
6.1007729202
 40
0.025
100
AcDbArc
 50
111.5501295438
 51
171.3917734115
  0
ARC
  5
294
100
AcDbEntity
  8
0
100
AcDbCircle
 62
7
  6
CONTINUOUS
 10
5.4124236329
 20
6.5358999179
 40
0.0185
100
AcDbArc
 50
155.2109756159
 51
201.8402547393
  0
ARC
  5
295
100
AcDbEntity
  8
0
100
AcDbCircle
 62
7
  6
CONTINUOUS
 10
4.0887409634
 20
6.5358999179
 40
0.0185
100
AcDbArc
 50
338.1597452607
 51
24.7890243841
  0
ARC
  5
296
100
AcDbEntity
  8
0
100
AcDbCircle
 62
7
  6
CONTINUOUS
 10
5.4247465813
 20
6.6430787133
 40
0.0185
100
AcDbArc
 50
329.8463072946
 51
90.0
  0
ARC
  5
297
100
AcDbEntity
  8
0
100
AcDbCircle
 62
7
  6
CONTINUOUS
 10
4.076418015
 20
6.6430787133
 40
0.0185
100
AcDbArc
 50
90.0
 51
210.1536927054
  0
ARC
  5
298
100
AcDbEntity
  8
0
100
AcDbCircle
 62
7
  6
CONTINUOUS
 10
5.3843043424
 20
6.514772035
 40
0.0139
100
AcDbArc
 50
323.93
 51
2.4780297489
  0
ARC
  5
299
100
AcDbEntity
  8
0
100
AcDbCircle
 62
7
  6
CONTINUOUS
 10
4.1168602539
 20
6.514772035
 40
0.0139
100
AcDbArc
 50
177.5219702511
 51
216.07
  0
ARC
  5
29A
100
AcDbEntity
  8
ALL_FEATURES
100
AcDbCircle
 62
7
  6
CONTINUOUS
 10
28.8052385234
 20
4.6666962169
 40
23.7555412184
100
AcDbArc
 50
179.9940429229
 51
180.2237243338
  0
ARC
  5
29B
100
AcDbEntity
  8
ALL_FEATURES
100
AcDbCircle
 62
7
  6
CONTINUOUS
 10
18.1069316071
 20
4.6067751987
 40
13.0570258346
100
AcDbArc
 50
180.6589066624
 51
180.7875469303
  0
ARC
  5
29C
100
AcDbEntity
  8
ALL_FEATURES
100
AcDbCircle
 62
7
  6
CONTINUOUS
 10
16.6607118413
 20
4.5864548682
 40
11.6106631853
100
AcDbArc
 50
180.8079733841
 51
181.1158542804
  0
ARC
  5
29D
100
AcDbEntity
  8
ALL_FEATURES
100
AcDbCircle
 62
7
  6
CONTINUOUS
 10
14.9453429543
 20
4.5530334884
 40
9.8949680045
100
AcDbArc
 50
181.186397335
 51
181.4976960346
  0
ARC
  5
29E
100
AcDbEntity
  8
ALL_FEATURES
100
AcDbCircle
 62
7
  6
CONTINUOUS
 10
14.0487153489
 20
4.5302092911
 40
8.9980501789
100
AcDbArc
 50
181.501634584
 51
181.7134686637
  0
ARC
  5
29F
100
AcDbEntity
  8
ALL_FEATURES
100
AcDbCircle
 62
7
  6
CONTINUOUS
 10
13.4754907874
 20
4.5132474203
 40
8.4245747512
100
AcDbArc
 50
181.71473245
 51
181.9282448666
  0
SPLINE
  5
2A0
100
AcDbEntity
  8
ALL_FEATURES
100
AcDbSpline
 62
7
  6
CONTINUOUS
 70
0
 71
3
 72
32
 73
28
 74
0
 42
0.0000001
 43
0.0000001
 44
0.0000000001
 40
0.0
 40
0.0
 40
0.0
 40
0.0
 40
0.0178623374
 40
0.0342963866
 40
0.0497165376
 40
0.0644644666
 40
0.0787842473
 40
0.0927957319
 40
0.1065835243
 40
0.1202177424
 40
0.1472229351
 40
0.1741186043
 40
0.2010834065
 40
0.2282269555
 40
0.2556186272
 40
0.2833101843
 40
0.3397105917
 40
0.397584189
 40
0.4570325411
 40
0.5181220129
 40
0.5809306971
 40
0.6455301323
 40
0.7120040247
 40
0.7804580208
 40
0.8511063411
 40
0.9242003276
 40
1.0
 40
1.0
 40
1.0
 40
1.0
 10
5.3013322981
 20
2.986974485
 30
0.0
 10
5.3013322981
 20
2.98314094
 30
0.0
 10
5.3009647299
 20
2.9757730255
 30
0.0
 10
5.2992883753
 20
2.9652161737
 30
0.0
 10
5.2967104218
 20
2.9555358605
 30
0.0
 10
5.2934318153
 20
2.9465582772
 30
0.0
 10
5.2896607401
 20
2.938109475
 30
0.0
 10
5.2854341248
 20
2.9301118813
 30
0.0
 10
5.2807945799
 20
2.9225195079
 30
0.0
 10
5.2741418116
 20
2.9129121256
 30
0.0
 10
5.2649853134
 20
2.9016447231
 30
0.0
 10
5.2528790457
 20
2.8891848591
 30
0.0
 10
5.2398831632
 20
2.8776177012
 30
0.0
 10
5.2260963708
 20
2.8668372306
 30
0.0
 10
5.2116148705
 20
2.8567381729
 30
0.0
 10
5.1913262358
 20
2.8440404954
 30
0.0
 10
5.1644352109
 20
2.8296393116
 30
0.0
 10
5.1303818583
 20
2.8143984485
 30
0.0
 10
5.0945130441
 20
2.8009375515
 30
0.0
 10
5.0569716314
 20
2.7890927444
 30
0.0
 10
5.0178319315
 20
2.7788053134
 30
0.0
 10
4.9771491761
 20
2.7700098285
 30
0.0
 10
4.9349470279
 20
2.7626863874
 30
0.0
 10
4.8912092281
 20
2.7568113168
 30
0.0
 10
4.8458619802
 20
2.7524945195
 30
0.0
 10
4.7988086975
 20
2.7498376779
 30
0.0
 10
4.7668501273
 20
2.7492520321
 30
0.0
 10
4.7505822981
 20
2.7492520321
 30
0.0
  0
SPLINE
  5
2A1
100
AcDbEntity
  8
ALL_FEATURES
100
AcDbSpline
 62
7
  6
CONTINUOUS
 70
0
 71
3
 72
11
 73
7
 74
0
 42
0.0000001
 43
0.0000001
 44
0.0000000001
 40
0.0
 40
0.0
 40
0.0
 40
0.0
 40
0.2285807274
 40
0.4674808887
 40
0.7223182059
 40
1.0
 40
1.0
 40
1.0
 40
1.0
 10
5.2927337905
 20
3.0288000385
 30
0.0
 10
5.293998468
 20
3.0257792435
 30
0.0
 10
5.2963677044
 20
3.0195060325
 30
0.0
 10
5.2991321491
 20
3.0095159386
 30
0.0
 10
5.300936687
 20
2.9985903785
 30
0.0
 10
5.3013322981
 20
2.9909527947
 30
0.0
 10
5.3013322981
 20
2.986974485
 30
0.0
  0
SPLINE
  5
2A2
100
AcDbEntity
  8
ALL_FEATURES
100
AcDbSpline
 62
7
  6
CONTINUOUS
 70
0
 71
3
 72
11
 73
7
 74
0
 42
0.0000001
 43
0.0000001
 44
0.0000000001
 40
0.0
 40
0.0
 40
0.0
 40
0.0
 40
0.2776817941
 40
0.5325191113
 40
0.7714192726
 40
1.0
 40
1.0
 40
1.0
 40
1.0
 10
4.1998322981
 20
2.986974485
 30
0.0
 10
4.1998322981
 20
2.9909527947
 30
0.0
 10
4.2002279093
 20
2.9985903785
 30
0.0
 10
4.2020324471
 20
3.0095159386
 30
0.0
 10
4.2047968919
 20
3.0195060325
 30
0.0
 10
4.2071661283
 20
3.0257792435
 30
0.0
 10
4.2084308058
 20
3.0288000385
 30
0.0
  0
SPLINE
  5
2A3
100
AcDbEntity
  8
ALL_FEATURES
100
AcDbSpline
 62
7
  6
CONTINUOUS
 70
0
 71
3
 72
32
 73
28
 74
0
 42
0.0000001
 43
0.0000001
 44
0.0000000001
 40
0.0
 40
0.0
 40
0.0
 40
0.0
 40
0.0757996724
 40
0.1488936589
 40
0.2195419792
 40
0.2879959753
 40
0.3544698677
 40
0.4190693029
 40
0.4818779871
 40
0.5429674589
 40
0.602415811
 40
0.6602894083
 40
0.7166898157
 40
0.7443813728
 40
0.7717730445
 40
0.7989165935
 40
0.8258813957
 40
0.8527770649
 40
0.8797822576
 40
0.8934164757
 40
0.9072042681
 40
0.9212157527
 40
0.9355355334
 40
0.9502834624
 40
0.9657036134
 40
0.9821376626
 40
1.0
 40
1.0
 40
1.0
 40
1.0
 10
4.7505822981
 20
2.7492520321
 30
0.0
 10
4.734314469
 20
2.7492520321
 30
0.0
 10
4.7023558988
 20
2.7498376779
 30
0.0
 10
4.6553026161
 20
2.7524945195
 30
0.0
 10
4.6099553682
 20
2.7568113168
 30
0.0
 10
4.5662175684
 20
2.7626863874
 30
0.0
 10
4.5240154202
 20
2.7700098285
 30
0.0
 10
4.4833326648
 20
2.7788053134
 30
0.0
 10
4.4441929649
 20
2.7890927444
 30
0.0
 10
4.4066515522
 20
2.8009375515
 30
0.0
 10
4.370782738
 20
2.8143984485
 30
0.0
 10
4.3367293854
 20
2.8296393116
 30
0.0
 10
4.3098383604
 20
2.8440404954
 30
0.0
 10
4.2895497258
 20
2.8567381729
 30
0.0
 10
4.2750682255
 20
2.8668372306
 30
0.0
 10
4.261281433
 20
2.8776177012
 30
0.0
 10
4.2482855505
 20
2.8891848591
 30
0.0
 10
4.2361792829
 20
2.9016447231
 30
0.0
 10
4.2270227847
 20
2.9129121256
 30
0.0
 10
4.2203700164
 20
2.9225195079
 30
0.0
 10
4.2157304715
 20
2.9301118813
 30
0.0
 10
4.2115038562
 20
2.938109475
 30
0.0
 10
4.207732781
 20
2.9465582772
 30
0.0
 10
4.2044541745
 20
2.9555358605
 30
0.0
 10
4.201876221
 20
2.9652161737
 30
0.0
 10
4.2001998664
 20
2.9757730255
 30
0.0
 10
4.1998322981
 20
2.98314094
 30
0.0
 10
4.1998322981
 20
2.986974485
 30
0.0
  0
LINE
  5
2A4
100
AcDbEntity
  8
ALL_FEATURES
100
AcDbLine
 62
7
  6
CONTINUOUS
 10
4.4514671629
 20
4.669166095
 11
4.4514358362
 21
4.6273016154
  0
LINE
  5
2A5
100
AcDbEntity
  8
ALL_FEATURES
100
AcDbLine
 62
7
  6
CONTINUOUS
 10
4.4505838087
 20
5.0430214258
 11
4.451438184
 21
4.7102751314
  0
LINE
  5
2A6
100
AcDbEntity
  8
ALL_FEATURES
100
AcDbLine
 62
7
  6
CONTINUOUS
 10
5.0505804998
 20
5.0421882966
 11
5.0497264122
 21
4.7102751314
  0
SPLINE
  5
2A7
100
AcDbEntity
  8
ALL_FEATURES
100
AcDbSpline
 62
7
  6
CONTINUOUS
 70
0
 71
3
 72
9
 73
5
 74
0
 42
0.0000001
 43
0.0000001
 44
0.0000000001
 40
0.0
 40
0.0
 40
0.0
 40
0.0
 40
0.2637695069
 40
1.0
 40
1.0
 40
1.0
 40
1.0
 10
5.1499575884
 20
3.4386372257
 30
0.0
 10
5.1545708893
 20
3.420117263
 30
0.0
 10
5.1727822051
 20
3.3500853026
 30
0.0
 10
5.1936498296
 20
3.2807513984
 30
0.0
 10
5.2103202473
 20
3.2301545571
 30
0.0
  0
SPLINE
  5
2A8
100
AcDbEntity
  8
ALL_FEATURES
100
AcDbSpline
 62
7
  6
CONTINUOUS
 70
0
 71
3
 72
11
 73
7
 74
0
 42
0.0000001
 43
0.0000001
 44
0.0000000001
 40
0.0
 40
0.0
 40
0.0
 40
0.0
 40
0.26910095
 40
0.5237686712
 40
0.7666126818
 40
1.0
 40
1.0
 40
1.0
 40
1.0
 10
5.1499575884
 20
3.4386372257
 30
0.0
 10
5.1499575884
 20
3.4408601844
 30
0.0
 10
5.149824673
 20
3.4451882867
 30
0.0
 10
5.1492263775
 20
3.4514968173
 30
0.0
 10
5.1482812259
 20
3.4574638286
 30
0.0
 10
5.1474362439
 20
3.4613085093
 30
0.0
 10
5.1469709436
 20
3.4631794573
 30
0.0
  0
SPLINE
  5
2A9
100
AcDbEntity
  8
ALL_FEATURES
100
AcDbSpline
 62
7
  6
CONTINUOUS
 70
0
 71
3
 72
32
 73
28
 74
0
 42
0.0000001
 43
0.0000001
 44
0.0000000001
 40
0.0
 40
0.0
 40
0.0
 40
0.0
 40
0.0750312305
 40
0.1473620275
 40
0.2172587947
 40
0.2849795769
 40
0.3507474492
 40
0.414685787
 40
0.4768999302
 40
0.5374860154
 40
0.5965531245
 40
0.654216084
 40
0.7106330735
 40
0.7384395394
 40
0.7660286612
 40
0.7934615411
 40
0.8208199596
 40
0.8482260295
 40
0.8758715103
 40
0.8898771876
 40
0.9040719206
 40
0.918525906
 40
0.9333227118
 40
0.9485807973
 40
0.9645434011
 40
0.9815476994
 40
1.0
 40
1.0
 40
1.0
 40
1.0
 10
4.7505822981
 20
2.9836973013
 30
0.0
 10
4.7645126791
 20
2.9836973013
 30
0.0
 10
4.7918755468
 20
2.984227328
 30
0.0
 10
4.832150615
 20
2.9866381025
 30
0.0
 10
4.870943098
 20
2.9905623962
 30
0.0
 10
4.9083334265
 20
2.995913273
 30
0.0
 10
4.9443846073
 20
3.0025968359
 30
0.0
 10
4.9791109699
 20
3.0106347193
 30
0.0
 10
5.0124942276
 20
3.0200452966
 30
0.0
 10
5.0444892649
 20
3.0308866501
 30
0.0
 10
5.0750376935
 20
3.0432126101
 30
0.0
 10
5.1040245714
 20
3.0571656852
 30
0.0
 10
5.126882108
 20
3.0703277217
 30
0.0
 10
5.1441190455
 20
3.0819097848
 30
0.0
 10
5.1564390844
 20
3.091124989
 30
0.0
 10
5.1681702733
 20
3.1009525903
 30
0.0
 10
5.1792315113
 20
3.1114831712
 30
0.0
 10
5.1895407819
 20
3.1228091458
 30
0.0
 10
5.1973327436
 20
3.1330168108
 30
0.0
 10
5.2029995663
 20
3.1417044765
 30
0.0
 10
5.2069580013
 20
3.1485685887
 30
0.0
 10
5.210566225
 20
3.1557884559
 30
0.0
 10
5.2137879403
 20
3.1634040275
 30
0.0
 10
5.2165914089
 20
3.1714829396
 30
0.0
 10
5.218797278
 20
3.1801739433
 30
0.0
 10
5.2202330974
 20
3.1896276297
 30
0.0
 10
5.220549174
 20
3.1962165209
 30
0.0
 10
5.220549174
 20
3.1996423954
 30
0.0
  0
SPLINE
  5
2AA
100
AcDbEntity
  8
ALL_FEATURES
100
AcDbSpline
 62
7
  6
CONTINUOUS
 70
0
 71
3
 72
11
 73
7
 74
0
 42
0.0000001
 43
0.0000001
 44
0.0000000001
 40
0.0
 40
0.0
 40
0.0
 40
0.0
 40
0.2740586061
 40
0.5290935831
 40
0.7697412581
 40
1.0
 40
1.0
 40
1.0
 40
1.0
 10
5.220549174
 20
3.1996423954
 30
0.0
 10
5.220549174
 20
3.2026337754
 30
0.0
 10
5.2203073901
 20
3.2084126957
 30
0.0
 10
5.2192110367
 20
3.2167532134
 30
0.0
 10
5.2175051653
 20
3.2245002564
 30
0.0
 10
5.2160089014
 20
3.2294230234
 30
0.0
 10
5.2151977061
 20
3.2318018125
 30
0.0
  0
LINE
  5
2AB
100
AcDbEntity
  8
ALL_FEATURES
100
AcDbLine
 62
7
  6
CONTINUOUS
 10
5.220549174
 20
3.1996423954
 11
5.2222320014
 21
3.1947207127
  0
SPLINE
  5
2AC
100
AcDbEntity
  8
ALL_FEATURES
100
AcDbSpline
 62
7
  6
CONTINUOUS
 70
0
 71
3
 72
11
 73
7
 74
0
 42
0.0000001
 43
0.0000001
 44
0.0000000001
 40
0.0
 40
0.0
 40
0.0
 40
0.0
 40
0.2747341582
 40
0.5296812712
 40
0.7699800367
 40
1.0
 40
1.0
 40
1.0
 40
1.0
 10
5.2357009353
 20
3.1562445512
 30
0.0
 10
5.2357009353
 20
3.1594339258
 30
0.0
 10
5.2354283397
 20
3.1655875694
 30
0.0
 10
5.2341915128
 20
3.1744528422
 30
0.0
 10
5.2322744765
 20
3.1826619804
 30
0.0
 10
5.2306023134
 20
3.1878655699
 30
0.0
 10
5.2296993395
 20
3.1903785533
 30
0.0
  0
SPLINE
  5
2AD
100
AcDbEntity
  8
ALL_FEATURES
100
AcDbSpline
 62
7
  6
CONTINUOUS
 70
0
 71
3
 72
31
 73
27
 74
0
 42
0.0000001
 43
0.0000001
 44
0.0000000001
 40
0.0
 40
0.0
 40
0.0
 40
0.0
 40
0.1483521247
 40
0.218702449
 40
0.2868232084
 40
0.3529276318
 40
0.4171286422
 40
0.479522409
 40
0.5401975863
 40
0.5992575303
 40
0.6568105093
 40
0.7130108141
 40
0.7406679493
 40
0.7680808527
 40
0.7953117928
 40
0.8224434448
 40
0.8495998431
 40
0.8769754588
 40
0.8908405311
 40
0.904891957
 40
0.9192012046
 40
0.9338535357
 40
0.9489692643
 40
0.9647935903
 40
0.9816669738
 40
1.0
 40
1.0
 40
1.0
 40
1.0
 10
4.7505822981
 20
2.9426564318
 30
0.0
 10
4.7788002938
 20
2.9426564318
 30
0.0
 10
4.8204251899
 20
2.944101489
 30
0.0
 10
4.8747582624
 20
2.9491406907
 30
0.0
 10
4.9133480583
 20
2.9542172842
 30
0.0
 10
4.9505607823
 20
2.9605777063
 30
0.0
 10
4.9864118409
 20
2.9682592757
 30
0.0
 10
5.0208809904
 20
2.9772963006
 30
0.0
 10
5.0539210143
 20
2.9877637641
 30
0.0
 10
5.0854697624
 20
2.999732008
 30
0.0
 10
5.1154073145
 20
3.0133630846
 30
0.0
 10
5.1390249731
 20
3.0263076219
 30
0.0
 10
5.1568337083
 20
3.0377586165
 30
0.0
 10
5.1695548492
 20
3.0468947871
 30
0.0
 10
5.1816664247
 20
3.0566694055
 30
0.0
 10
5.1930847966
 20
3.0671777876
 30
0.0
 10
5.2037247459
 20
3.0785166016
 30
0.0
 10
5.2117659962
 20
3.0887715048
 30
0.0
 10
5.2176117286
 20
3.0975195349
 30
0.0
 10
5.2216941053
 20
3.1044419079
 30
0.0
 10
5.2254145714
 20
3.1117346755
 30
0.0
 10
5.2287357061
 20
3.1194390343
 30
0.0
 10
5.231624838
 20
3.1276245431
 30
0.0
 10
5.2338974666
 20
3.1364448042
 30
0.0
 10
5.235376101
 20
3.1460545681
 30
0.0
 10
5.2357009353
 20
3.1527574339
 30
0.0
 10
5.2357009353
 20
3.1562445512
 30
0.0
  0
SPLINE
  5
2AE
100
AcDbEntity
  8
ALL_FEATURES
100
AcDbSpline
 62
7
  6
CONTINUOUS
 70
0
 71
3
 72
28
 73
24
 74
0
 42
0.0000001
 43
0.0000001
 44
0.0000000001
 40
0.0
 40
0.0
 40
0.0
 40
0.0
 40
0.1665753474
 40
0.2466113912
 40
0.3241176352
 40
0.3988233548
 40
0.4704547781
 40
0.5387455536
 40
0.6034317016
 40
0.6642960916
 40
0.7212422525
 40
0.7742537967
 40
0.8233861784
 40
0.8465912575
 40
0.868980751
 40
0.8906753001
 40
0.9118497107
 40
0.932767956
 40
0.9538359633
 40
0.9646178599
 40
0.9757519422
 40
0.9874584324
 40
1.0
 40
1.0
 40
1.0
 40
1.0
 10
4.7505822981
 20
4.6140787133
 30
0.0
 10
4.7690912888
 20
4.6140787133
 30
0.0
 10
4.7965020003
 20
4.6148048919
 30
0.0
 10
4.8324357716
 20
4.6172597389
 30
0.0
 10
4.8581258856
 20
4.6197439472
 30
0.0
 10
4.8828060963
 20
4.6228596297
 30
0.0
 10
4.9063626358
 20
4.6266082604
 30
0.0
 10
4.9286770774
 20
4.6309904652
 30
0.0
 10
4.9496274346
 20
4.6360211616
 30
0.0
 10
4.9690988159
 20
4.6417182935
 30
0.0
 10
4.9869805073
 20
4.6481241863
 30
0.0
 10
5.0031653897
 20
4.655277416
 30
0.0
 10
5.0153462477
 20
4.6620952864
 30
0.0
 10
5.0240166366
 20
4.6680756498
 30
0.0
 10
5.0298573081
 20
4.6727552398
 30
0.0
 10
5.0351314873
 20
4.6777456502
 30
0.0
 10
5.0397830206
 20
4.6831110697
 30
0.0
 10
5.0437536351
 20
4.6889195773
 30
0.0
 10
5.0463808616
 20
4.6941862198
 30
0.0
 10
5.0480214392
 20
4.698676689
 30
0.0
 10
5.0489789111
 20
4.7022943103
 30
0.0
 10
5.0495919444
 20
4.7061846788
 30
0.0
 10
5.0497264122
 20
4.7088815773
 30
0.0
 10
5.0497264122
 20
4.7102751314
 30
0.0
  0
SPLINE
  5
2AF
100
AcDbEntity
  8
ALL_FEATURES
100
AcDbSpline
 62
7
  6
CONTINUOUS
 70
0
 71
3
 72
29
 73
25
 74
0
 42
0.0000001
 43
0.0000001
 44
0.0000000001
 40
0.0
 40
0.0
 40
0.0
 40
0.0
 40
0.174523055
 40
0.3411569781
 40
0.420366351
 40
0.4962438685
 40
0.5683646047
 40
0.6362999388
 40
0.6996337305
 40
0.7580468365
 40
0.7853360666
 40
0.8113102562
 40
0.8359404728
 40
0.859203533
 40
0.8810857527
 40
0.9015876141
 40
0.9207365397
 40
0.9385885401
 40
0.9552313001
 40
0.963146659
 40
0.9708235596
 40
0.985600508
 40
0.9928130935
 40
1.0
 40
1.0
 40
1.0
 40
1.0
 10
4.7505822981
 20
4.9885786622
 30
0.0
 10
4.7686836548
 20
4.9885786622
 30
0.0
 10
4.8040712241
 20
4.9892334181
 30
0.0
 10
4.8476163187
 20
4.9916151178
 30
0.0
 10
4.8808715393
 20
4.9943855409
 30
0.0
 10
4.9043131834
 20
4.9968186189
 30
0.0
 10
4.9265343473
 20
4.9996317227
 30
0.0
 10
4.9473902047
 20
5.0028202672
 30
0.0
 10
4.9667420243
 20
5.0063826081
 30
0.0
 10
4.9818361927
 20
5.009739378
 30
0.0
 10
4.9930480165
 20
5.0126523409
 30
0.0
 10
5.0008126349
 20
5.0148882176
 30
0.0
 10
5.008108343
 20
5.0172316247
 30
0.0
 10
5.0149173043
 20
5.0196890052
 30
0.0
 10
5.0212217051
 20
5.0222670915
 30
0.0
 10
5.0270054397
 20
5.0249725754
 30
0.0
 10
5.0322506698
 20
5.027820376
 30
0.0
 10
5.0369408257
 20
5.0308239452
 30
0.0
 10
5.0404215824
 20
5.0335273517
 30
0.0
 10
5.0428763166
 20
5.0358004354
 30
0.0
 10
5.045047864
 20
5.0380838886
 30
0.0
 10
5.0469270813
 20
5.0405402858
 30
0.0
 10
5.0484349944
 20
5.043167774
 30
0.0
 10
5.0490524184
 20
5.0445313606
 30
0.0
 10
5.0493205473
 20
5.0452268864
 30
0.0
  0
SPLINE
  5
2B0
100
AcDbEntity
  8
ALL_FEATURES
100
AcDbSpline
 62
7
  6
CONTINUOUS
 70
0
 71
3
 72
9
 73
5
 74
0
 42
0.0000001
 43
0.0000001
 44
0.0000000001
 40
0.0
 40
0.0
 40
0.0
 40
0.0
 40
0.4826329078
 40
1.0
 40
1.0
 40
1.0
 40
1.0
 10
5.0493205473
 20
5.0452268864
 30
0.0
 10
5.0497254823
 20
5.0462772869
 30
0.0
 10
5.0503764612
 20
5.0485322763
 30
0.0
 10
5.0505822981
 20
5.0508719448
 30
0.0
 10
5.0505822981
 20
5.0520787133
 30
0.0
  0
LINE
  5
2B1
100
AcDbEntity
  8
ALL_FEATURES
100
AcDbLine
 62
7
  6
CONTINUOUS
 10
4.4514056843
 20
4.6116392646
 11
4.4513317153
 21
4.5859128176
  0
LINE
  5
2B2
100
AcDbEntity
  8
ALL_FEATURES
100
AcDbLine
 62
7
  6
CONTINUOUS
 10
4.4512808169
 20
4.572640119
 11
4.4511453715
 21
4.5451170357
  0
LINE
  5
2B3
100
AcDbEntity
  8
ALL_FEATURES
100
AcDbLine
 62
7
  6
CONTINUOUS
 10
4.4510627894
 20
4.5315433414
 11
4.450869829
 21
4.5051088065
  0
LINE
  5
2B4
100
AcDbEntity
  8
ALL_FEATURES
100
AcDbLine
 62
7
  6
CONTINUOUS
 10
4.4507666243
 20
4.493013923
 11
4.4504984144
 21
4.4658433069
  0
SPLINE
  5
2B5
100
AcDbEntity
  8
ALL_FEATURES
100
AcDbSpline
 62
7
  6
CONTINUOUS
 70
0
 71
3
 72
11
 73
7
 74
0
 42
0.0000001
 43
0.0000001
 44
0.0000000001
 40
0.0
 40
0.0
 40
0.0
 40
0.0
 40
0.2300199633
 40
0.4703187288
 40
0.7252658418
 40
1.0
 40
1.0
 40
1.0
 40
1.0
 10
4.2714652568
 20
3.1903785533
 30
0.0
 10
4.2705622829
 20
3.1878655699
 30
0.0
 10
4.2688901198
 20
3.1826619804
 30
0.0
 10
4.2669730834
 20
3.1744528422
 30
0.0
 10
4.2657362565
 20
3.1655875694
 30
0.0
 10
4.265463661
 20
3.1594339258
 30
0.0
 10
4.265463661
 20
3.1562445512
 30
0.0
  0
SPLINE
  5
2B6
100
AcDbEntity
  8
ALL_FEATURES
100
AcDbSpline
 62
7
  6
CONTINUOUS
 70
0
 71
3
 72
29
 73
25
 74
0
 42
0.0000001
 43
0.0000001
 44
0.0000000001
 40
0.0
 40
0.0
 40
0.0
 40
0.0
 40
0.1562657279
 40
0.3032154351
 40
0.3730891161
 40
0.4404617211
 40
0.5052639596
 40
0.5674356808
 40
0.6269615737
 40
0.6839271194
 40
0.7115115889
 40
0.7385301034
 40
0.7910061817
 40
0.8418626953
 40
0.8669679315
 40
0.8920708118
 40
0.9047004577
 40
0.917431341
 40
0.930314608
 40
0.9434117925
 40
0.9567936315
 40
0.9705526617
 40
0.9848712604
 40
1.0
 40
1.0
 40
1.0
 40
1.0
 10
4.7505822981
 20
4.2351254639
 30
0.0
 10
4.7685701517
 20
4.2351254639
 30
0.0
 10
4.8034837147
 20
4.2361358228
 30
0.0
 10
4.8462795895
 20
4.2401168619
 30
0.0
 10
4.8786524263
 20
4.2448747565
 30
0.0
 10
4.9015206252
 20
4.249151249
 30
0.0
 10
4.9233180089
 20
4.2542219459
 30
0.0
 10
4.9439675446
 20
4.2601316862
 30
0.0
 10
4.9633923759
 20
4.2669259435
 30
0.0
 10
4.9786532659
 20
4.2734617056
 30
0.0
 10
4.9901344595
 20
4.2792246981
 30
0.0
 10
5.0008984712
 20
4.2852371273
 30
0.0
 10
5.0134506158
 20
4.293511033
 30
0.0
 10
5.0247711772
 20
4.3030965212
 30
0.0
 10
5.0327647805
 20
4.311563472
 30
0.0
 10
5.0372770385
 20
4.3172309731
 30
0.0
 10
5.0405597975
 20
4.322025759
 30
0.0
 10
5.0428622039
 20
4.3257803702
 30
0.0
 10
5.0449819167
 20
4.3297026695
 30
0.0
 10
5.0469020186
 20
4.3338097593
 30
0.0
 10
5.0486053255
 20
4.3381200195
 30
0.0
 10
5.0500805719
 20
4.3426626953
 30
0.0
 10
5.0512502639
 20
4.347502265
 30
0.0
 10
5.051756693
 20
4.3508594462
 30
0.0
 10
5.0519396657
 20
4.3525912867
 30
0.0
  0
SPLINE
  5
2B7
100
AcDbEntity
  8
ALL_FEATURES
100
AcDbSpline
 62
7
  6
CONTINUOUS
 70
0
 71
3
 72
11
 73
7
 74
0
 42
0.0000001
 43
0.0000001
 44
0.0000000001
 40
0.0
 40
0.0
 40
0.0
 40
0.0
 40
0.2302587419
 40
0.4709064169
 40
0.7259413939
 40
1.0
 40
1.0
 40
1.0
 40
1.0
 10
4.2859668902
 20
3.2318018125
 30
0.0
 10
4.2851556948
 20
3.2294230234
 30
0.0
 10
4.283659431
 20
3.2245002564
 30
0.0
 10
4.2819535596
 20
3.2167532134
 30
0.0
 10
4.2808572062
 20
3.2084126957
 30
0.0
 10
4.2806154223
 20
3.2026337754
 30
0.0
 10
4.2806154223
 20
3.1996423954
 30
0.0
  0
LINE
  5
2B8
100
AcDbEntity
  8
ALL_FEATURES
100
AcDbLine
 62
7
  6
CONTINUOUS
 10
4.448889108
 20
4.3590742575
 11
4.4486684352
 21
4.3481575814
  0
SPLINE
  5
2B9
100
AcDbEntity
  8
ALL_FEATURES
100
AcDbSpline
 62
7
  6
CONTINUOUS
 70
0
 71
3
 72
11
 73
7
 74
0
 42
0.0000001
 43
0.0000001
 44
0.0000000001
 40
0.0
 40
0.0
 40
0.0
 40
0.0
 40
0.2579333457
 40
0.5112776026
 40
0.758966858
 40
1.0
 40
1.0
 40
1.0
 40
1.0
 10
4.4454781457
 20
4.2297784307
 30
0.0
 10
4.4441233486
 20
4.1895723959
 30
0.0
 10
4.440847748
 20
4.1098935851
 30
0.0
 10
4.4338018917
 20
3.991722135
 30
0.0
 10
4.4243189485
 20
3.8763633419
 30
0.0
 10
4.4160205922
 20
3.8005786163
 30
0.0
 10
4.4113146239
 20
3.7632813352
 30
0.0
  0
SPLINE
  5
2BA
100
AcDbEntity
  8
ALL_FEATURES
100
AcDbSpline
 62
7
  6
CONTINUOUS
 70
0
 71
3
 72
13
 73
9
 74
0
 42
0.0000001
 43
0.0000001
 44
0.0000000001
 40
0.0
 40
0.0
 40
0.0
 40
0.0
 40
0.2600738276
 40
0.3877406018
 40
0.513752215
 40
0.6380554395
 40
0.7605846111
 40
1.0
 40
1.0
 40
1.0
 40
1.0
 10
4.4097424915
 20
3.7510020339
 30
0.0
 10
4.4064647705
 20
3.7257699841
 30
0.0
 10
4.4011371475
 20
3.6882065175
 30
0.0
 10
4.3931067671
 20
3.6385886514
 30
0.0
 10
4.3867043916
 20
3.6021663839
 30
0.0
 10
4.3798745565
 20
3.5663333254
 30
0.0
 10
4.3703050047
 20
3.5197331033
 30
0.0
 10
4.3624827618
 20
3.4851920025
 30
0.0
 10
4.3570200841
 20
3.4624149529
 30
0.0
  0
LINE
  5
2BB
100
AcDbEntity
  8
ALL_FEATURES
100
AcDbLine
 62
7
  6
CONTINUOUS
 10
5.0522754882
 20
4.3590742575
 11
5.0524961611
 21
4.3481575814
  0
SPLINE
  5
2BC
100
AcDbEntity
  8
ALL_FEATURES
100
AcDbSpline
 62
7
  6
CONTINUOUS
 70
0
 71
3
 72
11
 73
7
 74
0
 42
0.0000001
 43
0.0000001
 44
0.0000000001
 40
0.0
 40
0.0
 40
0.0
 40
0.0
 40
0.2579333457
 40
0.5112776026
 40
0.758966858
 40
1.0
 40
1.0
 40
1.0
 40
1.0
 10
5.0556864505
 20
4.2297784307
 30
0.0
 10
5.0570412477
 20
4.1895723959
 30
0.0
 10
5.0603168482
 20
4.1098935851
 30
0.0
 10
5.0673627045
 20
3.991722135
 30
0.0
 10
5.0768456478
 20
3.8763633419
 30
0.0
 10
5.085144004
 20
3.8005786163
 30
0.0
 10
5.0898499724
 20
3.7632813352
 30
0.0
  0
SPLINE
  5
2BD
100
AcDbEntity
  8
ALL_FEATURES
100
AcDbSpline
 62
7
  6
CONTINUOUS
 70
0
 71
3
 72
11
 73
7
 74
0
 42
0.0000001
 43
0.0000001
 44
0.0000000001
 40
0.0
 40
0.0
 40
0.0
 40
0.0
 40
0.2333897752
 40
0.4762353497
 40
0.7309026762
 40
1.0
 40
1.0
 40
1.0
 40
1.0
 10
4.3541922823
 20
3.463173946
 30
0.0
 10
4.3537271839
 20
3.461303382
 30
0.0
 10
4.35288258
 20
3.4574595082
 30
0.0
 10
4.3519378677
 20
3.4514937997
 30
0.0
 10
4.3513398594
 20
3.4451867222
 30
0.0
 10
4.3512070079
 20
3.4408596452
 30
0.0
 10
4.3512070079
 20
3.4386372257
 30
0.0
  0
SPLINE
  5
2BE
100
AcDbEntity
  8
ALL_FEATURES
100
AcDbSpline
 62
7
  6
CONTINUOUS
 70
0
 71
3
 72
9
 73
5
 74
0
 42
0.0000001
 43
0.0000001
 44
0.0000000001
 40
0.0
 40
0.0
 40
0.0
 40
0.0
 40
0.2637695069
 40
1.0
 40
1.0
 40
1.0
 40
1.0
 10
4.3512070079
 20
3.4386372257
 30
0.0
 10
4.346593707
 20
3.420117263
 30
0.0
 10
4.3283823912
 20
3.3500853026
 30
0.0
 10
4.3075147666
 20
3.2807513984
 30
0.0
 10
4.290844349
 20
3.2301545571
 30
0.0
  0
LINE
  5
2BF
100
AcDbEntity
  8
ALL_FEATURES
100
AcDbLine
 62
7
  6
CONTINUOUS
 10
4.2806154223
 20
3.1996423954
 11
4.2789325949
 21
3.1947207127
  0
SPLINE
  5
2C0
100
AcDbEntity
  8
ALL_FEATURES
100
AcDbSpline
 62
7
  6
CONTINUOUS
 70
0
 71
3
 72
30
 73
26
 74
0
 42
0.0000001
 43
0.0000001
 44
0.0000000001
 40
0.0
 40
0.0
 40
0.0
 40
0.0
 40
0.1430673558
 40
0.2109464031
 40
0.2767042939
 40
0.3405648327
 40
0.4026857802
 40
0.4632252528
 40
0.5223486663
 40
0.5802602105
 40
0.6372249251
 40
0.6935808461
 40
0.7497530207
 40
0.7779772448
 40
0.8064361884
 40
0.8352885806
 40
0.8647627997
 40
0.8798330118
 40
0.8951951477
 40
0.9109186999
 40
0.9270832893
 40
0.9438014465
 40
0.9613075954
 40
0.9799166803
 40
1.0
 40
1.0
 40
1.0
 40
1.0
 10
4.7505822981
 20
3.5684896783
 30
0.0
 10
4.7706574484
 20
3.5684896783
 30
0.0
 10
4.8002839643
 20
3.5696958612
 30
0.0
 10
4.8388851173
 20
3.5739742319
 30
0.0
 10
4.8662661903
 20
3.5783193132
 30
0.0
 10
4.8926161383
 20
3.5838090159
 30
0.0
 10
4.9179378695
 20
3.5904785798
 30
0.0
 10
4.942212837
 20
3.5983611214
 30
0.0
 10
4.9654045058
 20
3.6075195348
 30
0.0
 10
4.9874716046
 20
3.6180167898
 30
0.0
 10
5.0083402174
 20
3.6299767281
 30
0.0
 10
5.027930381
 20
3.6435186949
 30
0.0
 10
5.0429992307
 20
3.6563517778
 30
0.0
 10
5.0541347628
 20
3.6676229633
 30
0.0
 10
5.0620154544
 20
3.6766875745
 30
0.0
 10
5.0693550231
 20
3.6864185235
 30
0.0
 10
5.0748807423
 20
3.6951260431
 30
0.0
 10
5.0789038721
 20
3.7025097965
 30
0.0
 10
5.0817232376
 20
3.7083436678
 30
0.0
 10
5.0842941612
 20
3.7144585204
 30
0.0
 10
5.0865912235
 20
3.7208840102
 30
0.0
 10
5.0885915674
 20
3.7276706269
 30
0.0
 10
5.0901665411
 20
3.7349229903
 30
0.0
 10
5.0911934989
 20
3.7427510502
 30
0.0
 10
5.0914221048
 20
3.7481839511
 30
0.0
 10
5.0914221048
 20
3.7510020339
 30
0.0
  0
SPLINE
  5
2C1
100
AcDbEntity
  8
ALL_FEATURES
100
AcDbSpline
 62
7
  6
CONTINUOUS
 70
0
 71
3
 72
13
 73
9
 74
0
 42
0.0000001
 43
0.0000001
 44
0.0000000001
 40
0.0
 40
0.0
 40
0.0
 40
0.0
 40
0.2600738276
 40
0.3877406018
 40
0.513752215
 40
0.6380554395
 40
0.7605846111
 40
1.0
 40
1.0
 40
1.0
 40
1.0
 10
5.0914221048
 20
3.7510020339
 30
0.0
 10
5.0946998258
 20
3.7257699841
 30
0.0
 10
5.1000274487
 20
3.6882065175
 30
0.0
 10
5.1080578292
 20
3.6385886514
 30
0.0
 10
5.1144602047
 20
3.6021663839
 30
0.0
 10
5.1212900397
 20
3.5663333254
 30
0.0
 10
5.1308595916
 20
3.5197331033
 30
0.0
 10
5.1386818345
 20
3.4851920025
 30
0.0
 10
5.1441445122
 20
3.4624149529
 30
0.0
  0
SPLINE
  5
2C2
100
AcDbEntity
  8
ALL_FEATURES
100
AcDbSpline
 62
7
  6
CONTINUOUS
 70
0
 71
3
 72
11
 73
7
 74
0
 42
0.0000001
 43
0.0000001
 44
0.0000000001
 40
0.0
 40
0.0
 40
0.0
 40
0.0
 40
0.2664558079
 40
0.5168043257
 40
0.7591660336
 40
1.0
 40
1.0
 40
1.0
 40
1.0
 10
4.4505822981
 20
5.0520787133
 30
0.0
 10
4.4505822981
 20
5.0511471779
 30
0.0
 10
4.4507044246
 20
5.04933715
 30
0.0
 10
4.4512700493
 20
5.0467348728
 30
0.0
 10
4.4521619493
 20
5.044322698
 30
0.0
 10
4.4529371782
 20
5.0428174432
 30
0.0
 10
4.4533591409
 20
5.0420888517
 30
0.0
  0
SPLINE
  5
2C3
100
AcDbEntity
  8
ALL_FEATURES
100
AcDbSpline
 62
7
  6
CONTINUOUS
 70
0
 71
3
 72
27
 73
23
 74
0
 42
0.0000001
 43
0.0000001
 44
0.0000000001
 40
0.0
 40
0.0
 40
0.0
 40
0.0
 40
0.0144459791
 40
0.0295892647
 40
0.0456982786
 40
0.0629366662
 40
0.0814010576
 40
0.1011523988
 40
0.1222264336
 40
0.144631829
 40
0.1683601231
 40
0.193393048
 40
0.2197050282
 40
0.2472695707
 40
0.3060522295
 40
0.3695155834
 40
0.4373348741
 40
0.5091129284
 40
0.5844477647
 40
0.6629400117
 40
0.8277159162
 40
1.0
 40
1.0
 40
1.0
 40
1.0
 10
4.4533591409
 20
5.0420888517
 30
0.0
 10
4.4541016313
 20
5.0408068137
 30
0.0
 10
4.455861
 20
5.0383144129
 30
0.0
 10
4.4591101603
 20
5.0349197344
 30
0.0
 10
4.4629520462
 20
5.0317474003
 30
0.0
 10
4.4673569327
 20
5.0287645169
 30
0.0
 10
4.472296491
 20
5.0259371176
 30
0.0
 10
4.4777544743
 20
5.023249616
 30
0.0
 10
4.4837142882
 20
5.0206877867
 30
0.0
 10
4.4901606903
 20
5.0182430482
 30
0.0
 10
4.4970776601
 20
5.0159094777
 30
0.0
 10
4.5044485069
 20
5.0136811239
 30
0.0
 10
4.5122568148
 20
5.0115514245
 30
0.0
 10
4.5234740182
 20
5.0087787327
 30
0.0
 10
4.5385056852
 20
5.005579749
 30
0.0
 10
4.5577019042
 20
5.0021781253
 30
0.0
 10
4.5783056625
 20
4.9991327685
 30
0.0
 10
4.6001857408
 20
4.9964452665
 30
0.0
 10
4.6232075889
 20
4.9941212057
 30
0.0
 10
4.6557767717
 20
4.9914763199
 30
0.0
 10
4.6983430268
 20
4.9892031436
 30
0.0
 10
4.7329135047
 20
4.9885786622
 30
0.0
 10
4.7505822981
 20
4.9885786622
 30
0.0
  0
SPLINE
  5
2C4
100
AcDbEntity
  8
ALL_FEATURES
100
AcDbSpline
 62
7
  6
CONTINUOUS
 70
0
 71
3
 72
28
 73
24
 74
0
 42
0.0000001
 43
0.0000001
 44
0.0000000001
 40
0.0
 40
0.0
 40
0.0
 40
0.0
 40
0.0125415676
 40
0.0242480578
 40
0.0353821401
 40
0.0461640367
 40
0.067232044
 40
0.0881502893
 40
0.1093246999
 40
0.131019249
 40
0.1534087425
 40
0.1766138216
 40
0.2257462033
 40
0.2787577475
 40
0.3357039084
 40
0.3965682984
 40
0.4612544464
 40
0.5295452219
 40
0.6011766452
 40
0.6758823648
 40
0.7533886088
 40
0.8334246526
 40
1.0
 40
1.0
 40
1.0
 40
1.0
 10
4.451438184
 20
4.7102751314
 30
0.0
 10
4.451438184
 20
4.7088815773
 30
0.0
 10
4.4515726519
 20
4.7061846788
 30
0.0
 10
4.4521856852
 20
4.7022943103
 30
0.0
 10
4.453143157
 20
4.698676689
 30
0.0
 10
4.4547837347
 20
4.6941862198
 30
0.0
 10
4.4574109612
 20
4.6889195773
 30
0.0
 10
4.4613815757
 20
4.6831110697
 30
0.0
 10
4.466033109
 20
4.6777456502
 30
0.0
 10
4.4713072882
 20
4.6727552398
 30
0.0
 10
4.4771479597
 20
4.6680756498
 30
0.0
 10
4.4858183486
 20
4.6620952864
 30
0.0
 10
4.4979992066
 20
4.655277416
 30
0.0
 10
4.514184089
 20
4.6481241863
 30
0.0
 10
4.5320657804
 20
4.6417182935
 30
0.0
 10
4.5515371617
 20
4.6360211616
 30
0.0
 10
4.5724875189
 20
4.6309904652
 30
0.0
 10
4.5948019605
 20
4.6266082604
 30
0.0
 10
4.6183585
 20
4.6228596297
 30
0.0
 10
4.6430387106
 20
4.6197439472
 30
0.0
 10
4.6687288247
 20
4.6172597389
 30
0.0
 10
4.704662596
 20
4.6148048919
 30
0.0
 10
4.7320733074
 20
4.6140787133
 30
0.0
 10
4.7505822981
 20
4.6140787133
 30
0.0
  0
SPLINE
  5
2C5
100
AcDbEntity
  8
ALL_FEATURES
100
AcDbSpline
 62
7
  6
CONTINUOUS
 70
0
 71
3
 72
29
 73
25
 74
0
 42
0.0000001
 43
0.0000001
 44
0.0000000001
 40
0.0
 40
0.0
 40
0.0
 40
0.0
 40
0.0151247227
 40
0.0294405099
 40
0.0431976948
 40
0.0565782344
 40
0.0696744381
 40
0.0825569983
 40
0.095287404
 40
0.1079167492
 40
0.1330194273
 40
0.1581248411
 40
0.2089823922
 40
0.2614599354
 40
0.2884792361
 40
0.3160644937
 40
0.3730316039
 40
0.4325589764
 40
0.4947320165
 40
0.5595353775
 40
0.6269089076
 40
0.6967833215
 40
0.8437339728
 40
1.0
 40
1.0
 40
1.0
 40
1.0
 10
4.4492273489
 20
4.3525684401
 30
0.0
 10
4.4494109337
 20
4.3508372457
 30
0.0
 10
4.4499184943
 20
4.3474812622
 30
0.0
 10
4.4510895532
 20
4.3426433998
 30
0.0
 10
4.4525657509
 20
4.338102095
 30
0.0
 10
4.4542698215
 20
4.3337929799
 30
0.0
 10
4.4561906245
 20
4.3296869313
 30
0.0
 10
4.4583109387
 20
4.3257655793
 30
0.0
 10
4.4606138527
 20
4.322011825
 30
0.0
 10
4.463897211
 20
4.3172180554
 30
0.0
 10
4.4684100849
 20
4.3115517163
 30
0.0
 10
4.4764043936
 20
4.3030863444
 30
0.0
 10
4.4877254758
 20
4.2935025524
 30
0.0
 10
4.5002777758
 20
4.2852300313
 30
0.0
 10
4.5110417789
 20
4.2792185519
 30
0.0
 10
4.5225228579
 20
4.2734564314
 30
0.0
 10
4.5377834381
 20
4.2669216402
 30
0.0
 10
4.5572076873
 20
4.2601283498
 30
0.0
 10
4.5778564396
 20
4.2542194279
 30
0.0
 10
4.5996528522
 20
4.249149416
 30
0.0
 10
4.6225199089
 20
4.2448734908
 30
0.0
 10
4.6548909416
 20
4.240116219
 30
0.0
 10
4.6976842198
 20
4.2361356943
 30
0.0
 10
4.7325956052
 20
4.2351254639
 30
0.0
 10
4.7505822981
 20
4.2351254639
 30
0.0
  0
SPLINE
  5
2C6
100
AcDbEntity
  8
ALL_FEATURES
100
AcDbSpline
 62
7
  6
CONTINUOUS
 70
0
 71
3
 72
30
 73
26
 74
0
 42
0.0000001
 43
0.0000001
 44
0.0000000001
 40
0.0
 40
0.0
 40
0.0
 40
0.0
 40
0.0200833197
 40
0.0386924046
 40
0.0561985535
 40
0.0729167107
 40
0.0890813001
 40
0.1048048523
 40
0.1201669882
 40
0.1352372003
 40
0.1647114194
 40
0.1935638116
 40
0.2220227552
 40
0.2502469793
 40
0.3064191539
 40
0.3627750749
 40
0.4197397895
 40
0.4776513337
 40
0.5367747472
 40
0.5973142198
 40
0.6594351673
 40
0.7232957061
 40
0.7890535969
 40
0.8569326442
 40
1.0
 40
1.0
 40
1.0
 40
1.0
 10
4.4097424915
 20
3.7510020339
 30
0.0
 10
4.4097424915
 20
3.7481839511
 30
0.0
 10
4.4099710974
 20
3.7427510502
 30
0.0
 10
4.4109980552
 20
3.7349229903
 30
0.0
 10
4.4125730289
 20
3.7276706269
 30
0.0
 10
4.4145733727
 20
3.7208840102
 30
0.0
 10
4.4168704351
 20
3.7144585204
 30
0.0
 10
4.4194413587
 20
3.7083436678
 30
0.0
 10
4.4222607241
 20
3.7025097965
 30
0.0
 10
4.4262838539
 20
3.6951260431
 30
0.0
 10
4.4318095732
 20
3.6864185235
 30
0.0
 10
4.4391491418
 20
3.6766875745
 30
0.0
 10
4.4470298335
 20
3.6676229633
 30
0.0
 10
4.4581653656
 20
3.6563517778
 30
0.0
 10
4.4732342153
 20
3.6435186949
 30
0.0
 10
4.4928243789
 20
3.6299767281
 30
0.0
 10
4.5136929917
 20
3.6180167898
 30
0.0
 10
4.5357600905
 20
3.6075195348
 30
0.0
 10
4.5589517593
 20
3.5983611214
 30
0.0
 10
4.5832267267
 20
3.5904785798
 30
0.0
 10
4.608548458
 20
3.5838090159
 30
0.0
 10
4.6348984059
 20
3.5783193132
 30
0.0
 10
4.6622794789
 20
3.5739742319
 30
0.0
 10
4.700880632
 20
3.5696958612
 30
0.0
 10
4.7305071479
 20
3.5684896783
 30
0.0
 10
4.7505822981
 20
3.5684896783
 30
0.0
  0
SPLINE
  5
2C7
100
AcDbEntity
  8
ALL_FEATURES
100
AcDbSpline
 62
7
  6
CONTINUOUS
 70
0
 71
3
 72
31
 73
27
 74
0
 42
0.0000001
 43
0.0000001
 44
0.0000000001
 40
0.0
 40
0.0
 40
0.0
 40
0.0
 40
0.0195560333
 40
0.0376632666
 40
0.0547071847
 40
0.071011351
 40
0.0868132535
 40
0.102225944
 40
0.1173284525
 40
0.132188585
 40
0.1613812092
 40
0.1901169913
 40
0.2185976284
 40
0.2469556707
 40
0.3036388634
 40
0.360697519
 40
0.4184268262
 40
0.4770606258
 40
0.5367858228
 40
0.5977666466
 40
0.6601513507
 40
0.7240965911
 40
0.7897751488
 40
0.8574496934
 40
0.9274202489
 40
1.0
 40
1.0
 40
1.0
 40
1.0
 10
4.3512070079
 20
3.4386372257
 30
0.0
 10
4.3512070079
 20
3.4354356908
 30
0.0
 10
4.3514806292
 20
3.4292652204
 30
0.0
 10
4.3527123019
 20
3.4203821306
 30
0.0
 10
4.354601012
 20
3.4121626374
 30
0.0
 10
4.3569986503
 20
3.4044756068
 30
0.0
 10
4.3597504212
 20
3.3971948702
 30
0.0
 10
4.3628288306
 20
3.3902610342
 30
0.0
 10
4.3662029332
 20
3.3836393103
 30
0.0
 10
4.3710219423
 20
3.3752355398
 30
0.0
 10
4.3776359467
 20
3.3653042722
 30
0.0
 10
4.3863939337
 20
3.3541801681
 30
0.0
 10
4.3957823103
 20
3.3437690011
 30
0.0
 10
4.4090447855
 20
3.3307372334
 30
0.0
 10
4.4269258003
 20
3.3157887008
 30
0.0
 10
4.4500606597
 20
3.2998335778
 30
0.0
 10
4.4746264576
 20
3.2855502303
 30
0.0
 10
4.5005235035
 20
3.2728379188
 30
0.0
 10
4.5276627286
 20
3.2615891094
 30
0.0
 10
4.5560009608
 20
3.251772328
 30
0.0
 10
4.5855030656
 20
3.2433537357
 30
0.0
 10
4.6161573708
 20
3.2363345867
 30
0.0
 10
4.6479779634
 20
3.2307128494
 30
0.0
 10
4.6810222418
 20
3.226587821
 30
0.0
 10
4.7153586688
 20
3.2240527278
 30
0.0
 10
4.738700205
 20
3.2234954693
 30
0.0
 10
4.7505822981
 20
3.2234954693
 30
0.0
  0
SPLINE
  5
2C8
100
AcDbEntity
  8
ALL_FEATURES
100
AcDbSpline
 62
7
  6
CONTINUOUS
 70
0
 71
3
 72
32
 73
28
 74
0
 42
0.0000001
 43
0.0000001
 44
0.0000000001
 40
0.0
 40
0.0
 40
0.0
 40
0.0
 40
0.0184523006
 40
0.0354565989
 40
0.0514192027
 40
0.0666772882
 40
0.081474094
 40
0.0959280794
 40
0.1101228124
 40
0.1241284897
 40
0.1517739705
 40
0.1791800404
 40
0.2065384589
 40
0.2339713388
 40
0.2615604606
 40
0.2893669265
 40
0.345783916
 40
0.4034468755
 40
0.4625139846
 40
0.5231000698
 40
0.585314213
 40
0.6492525508
 40
0.7150204231
 40
0.7827412053
 40
0.8526379725
 40
0.9249687695
 40
1.0
 40
1.0
 40
1.0
 40
1.0
 10
4.2806154223
 20
3.1996423954
 30
0.0
 10
4.2806154223
 20
3.1962165209
 30
0.0
 10
4.2809314988
 20
3.1896276297
 30
0.0
 10
4.2823673183
 20
3.1801739433
 30
0.0
 10
4.2845731874
 20
3.1714829396
 30
0.0
 10
4.287376656
 20
3.1634040275
 30
0.0
 10
4.2905983712
 20
3.1557884559
 30
0.0
 10
4.2942065949
 20
3.1485685887
 30
0.0
 10
4.29816503
 20
3.1417044765
 30
0.0
 10
4.3038318527
 20
3.1330168108
 30
0.0
 10
4.3116238144
 20
3.1228091458
 30
0.0
 10
4.321933085
 20
3.1114831712
 30
0.0
 10
4.332994323
 20
3.1009525903
 30
0.0
 10
4.3447255119
 20
3.091124989
 30
0.0
 10
4.3570455507
 20
3.0819097848
 30
0.0
 10
4.3742824883
 20
3.0703277217
 30
0.0
 10
4.3971400249
 20
3.0571656852
 30
0.0
 10
4.4261269028
 20
3.0432126101
 30
0.0
 10
4.4566753314
 20
3.0308866501
 30
0.0
 10
4.4886703686
 20
3.0200452966
 30
0.0
 10
4.5220536264
 20
3.0106347193
 30
0.0
 10
4.5567799889
 20
3.0025968359
 30
0.0
 10
4.5928311697
 20
2.995913273
 30
0.0
 10
4.6302214982
 20
2.9905623962
 30
0.0
 10
4.6690139813
 20
2.9866381025
 30
0.0
 10
4.7092890494
 20
2.984227328
 30
0.0
 10
4.7366519172
 20
2.9836973013
 30
0.0
 10
4.7505822981
 20
2.9836973013
 30
0.0
  0
SPLINE
  5
2C9
100
AcDbEntity
  8
ALL_FEATURES
100
AcDbSpline
 62
7
  6
CONTINUOUS
 70
0
 71
3
 72
31
 73
27
 74
0
 42
0.0000001
 43
0.0000001
 44
0.0000000001
 40
0.0
 40
0.0
 40
0.0
 40
0.0
 40
0.0183330262
 40
0.0352064097
 40
0.0510307357
 40
0.0661464643
 40
0.0807987954
 40
0.095108043
 40
0.1091594689
 40
0.1230245412
 40
0.1504001569
 40
0.1775565552
 40
0.2046882072
 40
0.2319191473
 40
0.2593320507
 40
0.2869891859
 40
0.3431894907
 40
0.4007424697
 40
0.4598024137
 40
0.520477591
 40
0.5828713578
 40
0.6470723682
 40
0.7131767916
 40
0.781297551
 40
0.8516478753
 40
1.0
 40
1.0
 40
1.0
 40
1.0
 10
4.265463661
 20
3.1562445512
 30
0.0
 10
4.265463661
 20
3.1527574339
 30
0.0
 10
4.2657884952
 20
3.1460545681
 30
0.0
 10
4.2672671297
 20
3.1364448042
 30
0.0
 10
4.2695397582
 20
3.1276245431
 30
0.0
 10
4.2724288902
 20
3.1194390343
 30
0.0
 10
4.2757500249
 20
3.1117346755
 30
0.0
 10
4.279470491
 20
3.1044419079
 30
0.0
 10
4.2835528676
 20
3.0975195349
 30
0.0
 10
4.2893986001
 20
3.0887715048
 30
0.0
 10
4.2974398504
 20
3.0785166016
 30
0.0
 10
4.3080797997
 20
3.0671777876
 30
0.0
 10
4.3194981716
 20
3.0566694055
 30
0.0
 10
4.3316097471
 20
3.0468947871
 30
0.0
 10
4.344330888
 20
3.0377586165
 30
0.0
 10
4.3621396232
 20
3.0263076219
 30
0.0
 10
4.3857572818
 20
3.0133630846
 30
0.0
 10
4.4156948339
 20
2.999732008
 30
0.0
 10
4.447243582
 20
2.9877637641
 30
0.0
 10
4.4802836059
 20
2.9772963006
 30
0.0
 10
4.5147527554
 20
2.9682592757
 30
0.0
 10
4.550603814
 20
2.9605777063
 30
0.0
 10
4.587816538
 20
2.9542172842
 30
0.0
 10
4.6264063338
 20
2.9491406907
 30
0.0
 10
4.6807394064
 20
2.944101489
 30
0.0
 10
4.7223643024
 20
2.9426564318
 30
0.0
 10
4.7505822981
 20
2.9426564318
 30
0.0
  0
SPLINE
  5
2CA
100
AcDbEntity
  8
ALL_FEATURES
100
AcDbSpline
 62
7
  6
CONTINUOUS
 70
0
 71
3
 72
31
 73
27
 74
0
 42
0.0000001
 43
0.0000001
 44
0.0000000001
 40
0.0
 40
0.0
 40
0.0
 40
0.0
 40
0.0725797511
 40
0.1425503066
 40
0.2102248512
 40
0.2759034089
 40
0.3398486493
 40
0.4022333534
 40
0.4632141772
 40
0.5229393742
 40
0.5815731738
 40
0.639302481
 40
0.6963611366
 40
0.7530443293
 40
0.7814023716
 40
0.8098830087
 40
0.8386187908
 40
0.867811415
 40
0.8826715475
 40
0.897774056
 40
0.9131867465
 40
0.928988649
 40
0.9452928153
 40
0.9623367334
 40
0.9804439667
 40
1.0
 40
1.0
 40
1.0
 40
1.0
 10
4.7505822981
 20
3.2234954693
 30
0.0
 10
4.7624643912
 20
3.2234954693
 30
0.0
 10
4.7858059274
 20
3.2240527278
 30
0.0
 10
4.8201423545
 20
3.226587821
 30
0.0
 10
4.8531866329
 20
3.2307128494
 30
0.0
 10
4.8850072255
 20
3.2363345867
 30
0.0
 10
4.9156615307
 20
3.2433537357
 30
0.0
 10
4.9451636355
 20
3.251772328
 30
0.0
 10
4.9735018676
 20
3.2615891094
 30
0.0
 10
5.0006410928
 20
3.2728379188
 30
0.0
 10
5.0265381387
 20
3.2855502303
 30
0.0
 10
5.0511039365
 20
3.2998335778
 30
0.0
 10
5.074238796
 20
3.3157887008
 30
0.0
 10
5.0921198107
 20
3.3307372334
 30
0.0
 10
5.1053822859
 20
3.3437690011
 30
0.0
 10
5.1147706625
 20
3.3541801681
 30
0.0
 10
5.1235286496
 20
3.3653042722
 30
0.0
 10
5.1301426539
 20
3.3752355398
 30
0.0
 10
5.1349616631
 20
3.3836393103
 30
0.0
 10
5.1383357657
 20
3.3902610342
 30
0.0
 10
5.1414141751
 20
3.3971948702
 30
0.0
 10
5.144165946
 20
3.4044756068
 30
0.0
 10
5.1465635843
 20
3.4121626374
 30
0.0
 10
5.1484522944
 20
3.4203821306
 30
0.0
 10
5.1496839671
 20
3.4292652204
 30
0.0
 10
5.1499575884
 20
3.4354356908
 30
0.0
 10
5.1499575884
 20
3.4386372257
 30
0.0
  0
LINE
  5
2CB
100
AcDbEntity
  8
ALL_FEATURES
100
AcDbLine
 62
7
  6
CONTINUOUS
 10
5.0498784038
 20
4.5739375674
 11
5.0500192248
 21
4.5451170357
  0
LINE
  5
2CC
100
AcDbEntity
  8
ALL_FEATURES
100
AcDbLine
 62
7
  6
CONTINUOUS
 10
5.0501018069
 20
4.5315433414
 11
5.0502947673
 21
4.5051088065
  0
LINE
  5
2CD
100
AcDbEntity
  8
ALL_FEATURES
100
AcDbLine
 62
7
  6
CONTINUOUS
 10
5.0503979719
 20
4.493013923
 11
5.0506661819
 21
4.4658433069
  0
ENDSEC
  0
SECTION
  2
OBJECTS
  0
DICTIONARY
  5
C
100
AcDbDictionary
280
0
281
1
  3
ACAD_GROUP
350
D
  3
ACAD_MLINESTYLE
350
17
  3
ACAD_LAYOUT
350
1A
  3
ACAD_PLOTSETTINGS
350
19
  3
ACAD_PLOTSTYLENAME
350
E
  0
DICTIONARY
  5
D
102
{ACAD_REACTORS
330
C
102
}
100
AcDbDictionary
280
0
281
1
  0
ACDBDICTIONARYWDFLT
  5
E
102
{ACAD_REACTORS
330
C
102
}
100
AcDbDictionary
281
1
  3
Normal
350
F
100
AcDbDictionaryWithDefault
340
F
  0
DICTIONARY
  5
17
102
{ACAD_REACTORS
330
C
102
}
100
AcDbDictionary
280
0
281
1
  3
Standard
350
18
  0
DICTIONARY
  5
19
102
{ACAD_REACTORS
330
C
102
}
100
AcDbDictionary
281
1
  0
DICTIONARY
  5
1A
102
{ACAD_REACTORS
330
C
102
}
100
AcDbDictionary
281
1
  3
Model
350
2CE
  3
Layout1
350
2CF
  0
ACDBPLACEHOLDER
  5
F
102
{ACAD_REACTORS
330
E
102
}
  0
MLINESTYLE
  5
18
102
{ACAD_REACTORS
330
17
102
}
100
AcDbMlineStyle
  2
STANDARD
 70
0
  3

 62
256
 51
90.0
 52
90.0
 71
2
 49
0.5
 62
256
  6
BYLAYER
 49
-0.5
 62
256
  6
BYLAYER
  0
LAYOUT
  5
2CE
102
{ACAD_REACTORS
330
1A
102
}
100
AcDbPlotSettings
  1

  2
none_device
  4
ANSI_A_(11.00_x_8.50_Inches)
  6

 40
0.0
 41
0.0
 42
0.0
 43
0.0
 44
279.4
 45
215.9
 46
0.0
 47
0.0
 48
0.0
 49
0.0
140
0.0
141
0.0
142
1.0
143
1.0
 70
1024
 72
0
 73
0
 74
0
  7

 75
0
147
1.0
148
0.0
149
0.0
100
AcDbLayout
  1
Model
 70
0
 71
0
 10
0.0
 20
0.0
 11
11.0
 21
8.5
 12
0.0
 22
0.0
 32
0.0
 14
0.0
 24
0.0
 34
0.0
 15
0.0
 25
0.0
 35
0.0
146
0.0
 13
0.0
 23
0.0
 33
0.0
 16
1.0
 26
0.0
 36
0.0
 17
0.0
 27
1.0
 37
0.0
 76
0
330
217
345
0
346
0
  0
LAYOUT
  5
2CF
102
{ACAD_REACTORS
330
1A
102
}
100
AcDbPlotSettings
  1

  2
none_device
  4
ANSI_A_(11.00_x_8.50_Inches)
  6

 40
0.0
 41
0.0
 42
0.0
 43
0.0
 44
279.4
 45
215.9
 46
0.0
 47
0.0
 48
0.0
 49
0.0
140
0.0
141
0.0
142
1.0
143
1.0
 70
0
 72
0
 73
0
 74
0
  7

 75
0
147
1.0
148
0.0
149
0.0
100
AcDbLayout
  1
Layout1
 70
0
 71
1
 10
0.0
 20
0.0
 11
11.0
 21
8.5
 12
0.0
 22
0.0
 32
0.0
 14
0.0
 24
0.0
 34
0.0
 15
0.0
 25
0.0
 35
0.0
146
0.0
 13
0.0
 23
0.0
 33
0.0
 16
1.0
 26
0.0
 36
0.0
 17
0.0
 27
1.0
 37
0.0
 76
0
330
218
345
0
346
0
  0
ENDSEC
  0
EOF
