999
DXF file: 3-427_front.dxf
999
Pro/ENGINEER 2018400 by Parametric Technology Corporation
  0
SECTION
  2
HEADER
  9
$ACADVER
  1
AC1027
  9
$DWGCODEPAGE
  3
ANSI_1252
  9
$EXTMAX
 10
11.0
 20
8.5
 30
0.0
  9
$EXTMIN
 10
0.0
 20
0.0
 30
0.0
  9
$LIMMIN
 10
0.0
 20
0.0
  9
$LIMMAX
 10
11.0
 20
8.5
  9
$VIEWCTR
 10
5.5
 20
4.25
  9
$VIEWSIZE
 40
8.5
  9
$CLAYER
  8
0
  9
$LTSCALE
 40
0.605
  9
$CELTYPE
  6
BYLAYER
  9
$DIMSCALE
 40
1.0
  9
$DIMASZ
 40
0.1
  9
$DIMEXO
 40
0.0625
  9
$DIMDLI
 40
0.418
  9
$DIMEXE
 40
0.125
  9
$DIMCEN
 40
0.099
  9
$DIMLFAC
 40
1.0
  9
$DIMBLK
  1
_FILLED
  9
$DIMALT
 70
1
  9
$DIMALTD
 70
2
  9
$DIMALTTD
 70
2
  9
$DIMALTF
 40
25.4
  9
$DIMTXT
 40
0.08
  9
$DIMTOL
 70
1
  9
$DIMLIM
 70
0
  9
$DIMTFAC
 40
1.0
  9
$DIMTP
 40
0.001
  9
$DIMTM
 40
0.001
  9
$DIMGAP
 40
0.09
  9
$DIMDSEP
 70
46
  9
$AUNITS
 70
0
  9
$PDMODE
 70
3
  9
$PDSIZE
 40
0.3125
  9
$HANDSEED
  5
24A
  9
$TILEMODE
 70
1
  9
$MEASUREMENT
 70
0
  9
$INSUNITS
 70
1
  0
ENDSEC
  0
SECTION
  2
CLASSES
  0
CLASS
  1
ACDBDICTIONARYWDFLT
  2
AcDbDictionaryWithDefault
  3
AutoCAD 2000
 90
0
 91
1
280
0
281
0
  0
CLASS
  1
ACDBPLACEHOLDER
  2
AcDbPlaceHolder
  3
AutoCAD 2000
 90
0
 91
1
280
0
281
0
  0
CLASS
  1
LAYOUT
  2
AcDbLayout
  3
AutoCAD 2000
 90
0
 91
0
280
0
281
0
  0
ENDSEC
  0
SECTION
  2
TABLES
  0
TABLE
  2
VPORT
  5
8
100
AcDbSymbolTable
 70
2
  0
VPORT
  5
1F4
100
AcDbSymbolTableRecord
100
AcDbViewportTableRecord
  2
*ACTIVE
 70
0
 10
0.0
 20
0.0
 11
1.0
 21
1.0
 12
5.5
 22
4.25
 13
0.0
 23
0.0
 14
1.0
 24
1.0
 15
0.0
 25
0.0
 16
0.0
 26
0.0
 36
1.0
 17
0.0
 27
0.0
 37
0.0
 40
8.5
 41
1.2941176471
 42
50.0
 43
0.0
 44
0.0
 50
0.0
 51
0.0
 71
0
 72
100
 73
1
 74
1
 75
0
 76
0
 77
0
 78
0
  0
ENDTAB
  0
TABLE
  2
LTYPE
  5
5
100
AcDbSymbolTable
 70
6
  0
LTYPE
  5
14
100
AcDbSymbolTableRecord
100
AcDbLinetypeTableRecord
  2
BYBLOCK
 70
0
  3

 72
65
 73
0
 40
0.0
  0
LTYPE
  5
15
100
AcDbSymbolTableRecord
100
AcDbLinetypeTableRecord
  2
BYLAYER
 70
0
  3

 72
65
 73
0
 40
0.0
  0
LTYPE
  5
16
100
AcDbSymbolTableRecord
100
AcDbLinetypeTableRecord
  2
CONTINUOUS
 70
64
  3
Solid line
 72
65
 73
0
 40
0.0
  0
LTYPE
  5
1F5
100
AcDbSymbolTableRecord
100
AcDbLinetypeTableRecord
  2
CENTER
 70
64
  3
____ _ ____ _ ____ _ ____ _ ____ _ ____ _ ____
 72
65
 73
4
 40
0.6
 49
0.375
 74
0
 49
-0.075
 74
0
 49
0.075
 74
0
 49
-0.075
 74
0
  0
LTYPE
  5
1F6
100
AcDbSymbolTableRecord
100
AcDbLinetypeTableRecord
  2
HIDDEN
 70
64
  3
- - - - - - - - - - - - - - - - - - - -
 72
65
 73
2
 40
0.2
 49
0.1
 74
0
 49
-0.1
 74
0
  0
LTYPE
  5
1F7
100
AcDbSymbolTableRecord
100
AcDbLinetypeTableRecord
  2
PHANTOM
 70
64
  3
_____ _ _ _____ _ _ _____ _ _ _____
 72
65
 73
6
 40
0.8
 49
0.45
 74
0
 49
-0.05
 74
0
 49
0.1
 74
0
 49
-0.05
 74
0
 49
0.1
 74
0
 49
-0.05
 74
0
  0
LTYPE
  5
1F8
100
AcDbSymbolTableRecord
100
AcDbLinetypeTableRecord
  2
DOT
 70
64
  3
. . . . . . . . . . . . . . . . . . . .
 72
65
 73
2
 40
0.2
 49
0.1
 74
0
 49
-0.1
 74
0
  0
LTYPE
  5
1F9
100
AcDbSymbolTableRecord
100
AcDbLinetypeTableRecord
  2
DASHED
 70
64
  3
- - - - - - - - - - - - - - - - - - - -
 72
65
 73
2
 40
0.2
 49
0.1
 74
0
 49
-0.1
 74
0
  0
ENDTAB
  0
TABLE
  2
LAYER
  5
2
100
AcDbSymbolTable
 70
36
  0
LAYER
  5
10
100
AcDbSymbolTableRecord
100
AcDbLayerTableRecord
  2
0
 70
0
 62
7
  6
CONTINUOUS
370
-3
390
F
  0
LAYER
  5
1FA
100
AcDbSymbolTableRecord
100
AcDbLayerTableRecord
  2
DEFAULT_1
 70
0
 62
7
  6
CENTER
370
-3
390
F
  0
LAYER
  5
1FB
100
AcDbSymbolTableRecord
100
AcDbLayerTableRecord
  2
DEFAULT_2
 70
0
 62
8
  6
HIDDEN
370
-3
390
F
  0
LAYER
  5
1FC
100
AcDbSymbolTableRecord
100
AcDbLayerTableRecord
  2
DEFAULT_3
 70
0
 62
7
  6
PHANTOM
370
-3
390
F
  0
LAYER
  5
1FD
100
AcDbSymbolTableRecord
100
AcDbLayerTableRecord
  2
01_ALL_DTM_PLN
 70
0
 62
7
  6
CONTINUOUS
370
-3
390
F
  0
LAYER
  5
1FE
100
AcDbSymbolTableRecord
100
AcDbLayerTableRecord
  2
01__ASM_ALL_DTM_PLN
 70
0
 62
7
  6
CONTINUOUS
370
-3
390
F
  0
LAYER
  5
1FF
100
AcDbSymbolTableRecord
100
AcDbLayerTableRecord
  2
01__ASM_DEF_DTM_PLN
 70
0
 62
7
  6
CONTINUOUS
370
-3
390
F
  0
LAYER
  5
200
100
AcDbSymbolTableRecord
100
AcDbLayerTableRecord
  2
01___PRT_ALL_DTM_PLN
 70
0
 62
7
  6
CONTINUOUS
370
-3
390
F
  0
LAYER
  5
201
100
AcDbSymbolTableRecord
100
AcDbLayerTableRecord
  2
01___PRT_DEF_DTM_PLN
 70
0
 62
7
  6
CONTINUOUS
370
-3
390
F
  0
LAYER
  5
202
100
AcDbSymbolTableRecord
100
AcDbLayerTableRecord
  2
02_ALL_AXES
 70
0
 62
7
  6
CONTINUOUS
370
-3
390
F
  0
LAYER
  5
203
100
AcDbSymbolTableRecord
100
AcDbLayerTableRecord
  2
02__ASM_ALL_AXES
 70
0
 62
7
  6
CONTINUOUS
370
-3
390
F
  0
LAYER
  5
204
100
AcDbSymbolTableRecord
100
AcDbLayerTableRecord
  2
02___PRT_ALL_AXES
 70
0
 62
7
  6
CONTINUOUS
370
-3
390
F
  0
LAYER
  5
205
100
AcDbSymbolTableRecord
100
AcDbLayerTableRecord
  2
03_ALL_CURVES
 70
0
 62
7
  6
CONTINUOUS
370
-3
390
F
  0
LAYER
  5
206
100
AcDbSymbolTableRecord
100
AcDbLayerTableRecord
  2
03__ASM_ALL_CURVES
 70
0
 62
7
  6
CONTINUOUS
370
-3
390
F
  0
LAYER
  5
207
100
AcDbSymbolTableRecord
100
AcDbLayerTableRecord
  2
03___PRT_ALL_CURVES
 70
0
 62
7
  6
CONTINUOUS
370
-3
390
F
  0
LAYER
  5
208
100
AcDbSymbolTableRecord
100
AcDbLayerTableRecord
  2
04_ALL_DTM_PNT
 70
0
 62
7
  6
CONTINUOUS
370
-3
390
F
  0
LAYER
  5
209
100
AcDbSymbolTableRecord
100
AcDbLayerTableRecord
  2
04__ASM_ALL_DTM_PNT
 70
0
 62
7
  6
CONTINUOUS
370
-3
390
F
  0
LAYER
  5
20A
100
AcDbSymbolTableRecord
100
AcDbLayerTableRecord
  2
04___PRT_ALL_DTM_PNT
 70
0
 62
7
  6
CONTINUOUS
370
-3
390
F
  0
LAYER
  5
20B
100
AcDbSymbolTableRecord
100
AcDbLayerTableRecord
  2
05_ALL_DTM_CSYS
 70
0
 62
7
  6
CONTINUOUS
370
-3
390
F
  0
LAYER
  5
20C
100
AcDbSymbolTableRecord
100
AcDbLayerTableRecord
  2
05__ASM_ALL_DTM_CSYS
 70
0
 62
7
  6
CONTINUOUS
370
-3
390
F
  0
LAYER
  5
20D
100
AcDbSymbolTableRecord
100
AcDbLayerTableRecord
  2
05__ASM_DEF_DTM_CSYS
 70
0
 62
7
  6
CONTINUOUS
370
-3
390
F
  0
LAYER
  5
20E
100
AcDbSymbolTableRecord
100
AcDbLayerTableRecord
  2
05___PRT_ALL_DTM_CSYS
 70
0
 62
7
  6
CONTINUOUS
370
-3
390
F
  0
LAYER
  5
20F
100
AcDbSymbolTableRecord
100
AcDbLayerTableRecord
  2
05___PRT_DEF_DTM_CSYS
 70
0
 62
7
  6
CONTINUOUS
370
-3
390
F
  0
LAYER
  5
210
100
AcDbSymbolTableRecord
100
AcDbLayerTableRecord
  2
06_ALL_SURFS
 70
0
 62
7
  6
CONTINUOUS
370
-3
390
F
  0
LAYER
  5
211
100
AcDbSymbolTableRecord
100
AcDbLayerTableRecord
  2
06__ASM_ALL_SURFS
 70
0
 62
7
  6
CONTINUOUS
370
-3
390
F
  0
LAYER
  5
212
100
AcDbSymbolTableRecord
100
AcDbLayerTableRecord
  2
06___PRT_ALL_SURFS
 70
0
 62
7
  6
CONTINUOUS
370
-3
390
F
  0
LAYER
  5
213
100
AcDbSymbolTableRecord
100
AcDbLayerTableRecord
  2
07__ASM_ALL_SKELETONS
 70
0
 62
7
  6
CONTINUOUS
370
-3
390
F
  0
LAYER
  5
214
100
AcDbSymbolTableRecord
100
AcDbLayerTableRecord
  2
ALL_FEATURES
 70
0
 62
7
  6
CONTINUOUS
370
-3
390
F
  0
LAYER
  5
215
100
AcDbSymbolTableRecord
100
AcDbLayerTableRecord
  2
AXES_FEATURES
 70
0
 62
7
  6
CONTINUOUS
370
-3
390
F
  0
LAYER
  5
216
100
AcDbSymbolTableRecord
100
AcDbLayerTableRecord
  2
DEFAULT_COORDINATE_SYSTEM
 70
0
 62
7
  6
CONTINUOUS
370
-3
390
F
  0
LAYER
  5
217
100
AcDbSymbolTableRecord
100
AcDbLayerTableRecord
  2
DEFAULT_DATUM_AXES
 70
0
 62
7
  6
CONTINUOUS
370
-3
390
F
  0
LAYER
  5
218
100
AcDbSymbolTableRecord
100
AcDbLayerTableRecord
  2
DEFAULT_DATUM_PLANES
 70
0
 62
7
  6
CONTINUOUS
370
-3
390
F
  0
LAYER
  5
219
100
AcDbSymbolTableRecord
100
AcDbLayerTableRecord
  2
DEFAULT_SURFACES
 70
0
 62
7
  6
CONTINUOUS
370
-3
390
F
  0
LAYER
  5
21A
100
AcDbSymbolTableRecord
100
AcDbLayerTableRecord
  2
DIMENSIONS
 70
0
 62
7
  6
CONTINUOUS
370
-3
390
F
  0
ENDTAB
  0
TABLE
  2
STYLE
  5
3
100
AcDbSymbolTable
 70
1
  0
STYLE
  5
11
100
AcDbSymbolTableRecord
100
AcDbTextStyleTableRecord
  2
STANDARD
 70
0
 40
0.0
 41
0.8
 50
0.0
 71
0
 42
0.2
  3
txt
  4

  0
STYLE
  5
21B
100
AcDbSymbolTableRecord
100
AcDbTextStyleTableRecord
  2
TEXTSTYLE_1
 70
0
 40
0.0
 41
0.8
 50
0.0
 71
0
 42
0.2
  3
gdt
  4

  0
ENDTAB
  0
TABLE
  2
VIEW
  5
6
100
AcDbSymbolTable
 70
0
  0
ENDTAB
  0
TABLE
  2
UCS
  5
7
100
AcDbSymbolTable
 70
0
  0
ENDTAB
  0
TABLE
  2
APPID
  5
9
100
AcDbSymbolTable
 70
1
  0
APPID
  5
21C
100
AcDbSymbolTableRecord
100
AcDbRegAppTableRecord
  2
ACAD
 70
0
  0
ENDTAB
  0
TABLE
  2
BLOCK_RECORD
  5
1
100
AcDbSymbolTable
 70
0
  0
BLOCK_RECORD
  5
21D
100
AcDbSymbolTableRecord
100
AcDbBlockTableRecord
  2
*Model_Space
  0
BLOCK_RECORD
  5
21E
100
AcDbSymbolTableRecord
100
AcDbBlockTableRecord
  2
*Paper_Space
  0
BLOCK_RECORD
  5
21F
100
AcDbSymbolTableRecord
100
AcDbBlockTableRecord
  2
_FILLED
  0
ENDTAB
  0
TABLE
  2
DIMSTYLE
  5
A
100
AcDbSymbolTable
 70
1
100
AcDbDimStyleTable
 71
0
  0
DIMSTYLE
105
220
100
AcDbSymbolTableRecord
100
AcDbDimStyleTableRecord
  2
STANDARD
 70
0
  3

  4

 40
1.0
 41
0.1
 42
0.0625
 43
0.38
 44
0.125
 45
0.0
 46
0.0
 47
0.001
 48
0.001
140
0.08
141
0.09
142
0.0
143
25.4
144
1.0
145
0.0
146
1.0
147
0.09
 71
1.0
 72
0.0
 73
1
 74
1
 75
0
 76
0
 77
0
 78
4
 79
1
170
1
171
2
172
0
173
0
174
0
175
0
176
0
177
0
178
0
270
2
179
3
271
3
272
3
273
2
274
2
275
0
280
0
281
0
282
0
283
1
284
4
285
0
286
0
287
3
288
0
340
11
278
46
341
21F
342
21F
343
21F
344
21F
  0
ENDTAB
  0
ENDSEC
  0
SECTION
  2
BLOCKS
  0
BLOCK
  5
20
100
AcDbEntity
  8
0
100
AcDbBlockBegin
  2
*Model_Space
 70
0
 10
0.0
 20
0.0
 30
0.0
  3
*Model_Space
  1

  0
ENDBLK
  5
21
100
AcDbEntity
  8
0
100
AcDbBlockEnd
  0
BLOCK
  5
1C
100
AcDbEntity
  8
0
100
AcDbBlockBegin
  2
*Paper_Space
 70
0
 10
0.0
 20
0.0
 30
0.0
  3
*Paper_Space
  1

  0
ENDBLK
  5
1D
100
AcDbEntity
  8
0
100
AcDbBlockEnd
  0
BLOCK
  5
221
100
AcDbEntity
  8
0
100
AcDbBlockBegin
  2
_FILLED
 70
64
 10
0.0
 20
0.0
  3
_FILLED
  1

  0
SOLID
  5
222
100
AcDbEntity
  8
0
  6
BYBLOCK
 62
0
100
AcDbTrace
 10
0.0
 20
0.0
 11
-1.0
 21
0.2
 12
-1.0
 22
-0.2
 13
-1.0
 23
-0.2
  0
ENDBLK
  5
223
100
AcDbEntity
  8
0
  6
BYBLOCK
 62
0
100
AcDbBlockEnd
  0
ENDSEC
  0
SECTION
  2
ENTITIES
  0
MTEXT
  5
224
100
AcDbEntity
  8
0
100
AcDbMText
 62
2
  6
CONTINUOUS
  7
STANDARD
 71
3
 72
1
 10
4.8036180124
 20
2.7257529939
 30
0.0
 11
1.0
 21
0.0
 31
0.0
 73
2
 44
0.9
  1
SCALE  .500
 40
0.08
 41
0.704
  0
LINE
  5
225
100
AcDbEntity
  8
0
100
AcDbLine
 62
7
  6
CONTINUOUS
 10
0.0
 20
0.0
 11
0.0
 21
8.5
  0
LINE
  5
226
100
AcDbEntity
  8
0
100
AcDbLine
 62
7
  6
CONTINUOUS
 10
0.0
 20
0.0
 11
11.0
 21
0.0
  0
LINE
  5
227
100
AcDbEntity
  8
0
100
AcDbLine
 62
7
  6
CONTINUOUS
 10
0.0
 20
8.5
 11
11.0
 21
8.5
  0
LINE
  5
228
100
AcDbEntity
  8
0
100
AcDbLine
 62
7
  6
CONTINUOUS
 10
11.0
 20
0.0
 11
11.0
 21
8.5
  0
LINE
  5
229
100
AcDbEntity
  8
02___PRT_ALL_AXES
100
AcDbLine
 62
7
  6
CONTINUOUS
 10
3.8964906832
 20
4.0147897554
 11
3.8964906832
 21
3.9693496055
  0
LINE
  5
22A
100
AcDbEntity
  8
0
100
AcDbLine
 62
7
  6
CONTINUOUS
 10
3.8964906832
 20
3.9693496055
 11
3.8964906841
 21
3.9693545977
  0
LINE
  5
22B
100
AcDbEntity
  8
0
100
AcDbLine
 62
7
  6
CONTINUOUS
 10
3.9489906832
 20
4.6410094284
 11
3.9489906832
 21
4.0775094284
  0
LINE
  5
22C
100
AcDbEntity
  8
0
100
AcDbLine
 62
7
  6
CONTINUOUS
 10
4.6989906832
 20
4.6410094284
 11
4.6989906832
 21
4.0775094284
  0
LINE
  5
22D
100
AcDbEntity
  8
02___PRT_ALL_AXES
100
AcDbLine
 62
7
  6
CONTINUOUS
 10
4.7514906832
 20
4.0147897554
 11
4.7514906832
 21
3.9693496055
  0
ARC
  5
22E
100
AcDbEntity
  8
0
100
AcDbCircle
 62
7
  6
CONTINUOUS
 10
4.3253533481
 20
1.9165108925
 40
2.1863700559
100
AcDbArc
 50
86.4654265898
 51
90.0357098519
  0
ARC
  5
22F
100
AcDbEntity
  8
0
100
AcDbCircle
 62
7
  6
CONTINUOUS
 10
4.3226280146
 20
1.916511045
 40
2.1863699034
100
AcDbArc
 50
89.964290046
 51
93.5345747208
  0
ARC
  5
230
100
AcDbEntity
  8
02___PRT_ALL_AXES
100
AcDbCircle
 62
7
  6
CONTINUOUS
 10
4.3239906832
 20
4.6410094284
 40
0.75
100
AcDbArc
 50
304.6015927367
 51
235.3983777979
  0
ARC
  5
231
100
AcDbEntity
  8
02___PRT_ALL_AXES
100
AcDbCircle
 62
7
  6
CONTINUOUS
 10
4.3239906832
 20
4.6410094284
 40
0.66
100
AcDbArc
 50
304.6287636435
 51
235.3712363565
  0
ARC
  5
232
100
AcDbEntity
  8
02___PRT_ALL_AXES
100
AcDbCircle
 62
7
  6
CONTINUOUS
 10
4.3239906832
 20
4.6410094284
 40
0.57
100
AcDbArc
 50
311.1452992312
 51
228.8547007688
  0
ARC
  5
233
100
AcDbEntity
  8
02___PRT_ALL_AXES
100
AcDbCircle
 62
7
  6
CONTINUOUS
 10
4.3239906832
 20
4.6410094284
 40
0.53
100
AcDbArc
 50
315.0514083495
 51
224.9485916505
  0
ARC
  5
234
100
AcDbEntity
  8
02___PRT_ALL_AXES
100
AcDbCircle
 62
7
  6
CONTINUOUS
 10
4.3239906832
 20
4.6410094284
 40
0.4375
100
AcDbArc
 50
329.0044754448
 51
210.9955245552
  0
ARC
  5
235
100
AcDbEntity
  8
0
100
AcDbCircle
 62
7
  6
CONTINUOUS
 10
4.3239906832
 20
4.6410094284
 40
0.375
100
AcDbArc
 50
0.0
 51
180.0
  0
SPLINE
  5
236
100
AcDbEntity
  8
0
100
AcDbSpline
 62
7
  6
CONTINUOUS
 70
0
 71
3
 72
34
 73
30
 74
0
 42
0.0000001
 43
0.0000001
 44
0.0000000001
 40
0.0
 40
0.0
 40
0.0
 40
0.0
 40
0.0075822617
 40
0.0150972649
 40
0.0224960544
 40
0.0298230586
 40
0.0445579947
 40
0.0520686488
 40
0.0596835255
 40
0.0674186395
 40
0.0753260366
 40
0.0918527721
 40
0.1096223384
 40
0.1288715323
 40
0.1496840157
 40
0.172110591
 40
0.1961869731
 40
0.2219146583
 40
0.2492772733
 40
0.2782539391
 40
0.3408998572
 40
0.4094246679
 40
0.4833001289
 40
0.5619027463
 40
0.6445428031
 40
0.7304647115
 40
0.8189013946
 40
0.9090603462
 40
1.0
 40
1.0
 40
1.0
 40
1.0
 10
3.8966094573
 20
3.9693564982
 30
0.0
 10
3.8966086233
 20
3.9682125857
 30
0.0
 10
3.8967377376
 20
3.9659326701
 30
0.0
 10
3.8973232614
 20
3.9625815879
 30
0.0
 10
3.8983146845
 20
3.9593660836
 30
0.0
 10
3.9001485533
 20
3.9553068989
 30
0.0
 10
3.9026599228
 20
3.9515778157
 30
0.0
 10
3.9056267919
 20
3.9481853533
 30
0.0
 10
3.9080747659
 20
3.9457517969
 30
0.0
 10
3.9107096012
 20
3.9434318184
 30
0.0
 10
3.9145305373
 20
3.9404356369
 30
0.0
 10
3.9198426646
 20
3.9369068928
 30
0.0
 10
3.9269153561
 20
3.9329914396
 30
0.0
 10
3.9347943652
 20
3.9292335374
 30
0.0
 10
3.9435043523
 20
3.9256171672
 30
0.0
 10
3.9530455247
 20
3.9221304346
 30
0.0
 10
3.9634125903
 20
3.9187661423
 30
0.0
 10
3.9745950315
 20
3.9155218634
 30
0.0
 10
3.9865771855
 20
3.9123984035
 30
0.0
 10
4.0040531068
 20
3.9082899742
 30
0.0
 10
4.0277471963
 20
3.9035288499
 30
0.0
 10
4.0582725741
 20
3.898483759
 30
0.0
 10
4.0913180008
 20
3.8940145438
 30
0.0
 10
4.126582771
 20
3.8901587428
 30
0.0
 10
4.1637366124
 20
3.8869525041
 30
0.0
 10
4.2024294221
 20
3.8844259004
 30
0.0
 10
4.2422971803
 20
3.8826031327
 30
0.0
 10
4.2829484573
 20
3.8815039067
 30
0.0
 10
4.3102708926
 20
3.8812581686
 30
0.0
 10
4.3239906832
 20
3.8812581686
 30
0.0
  0
SPLINE
  5
237
100
AcDbEntity
  8
0
100
AcDbSpline
 62
7
  6
CONTINUOUS
 70
0
 71
3
 72
34
 73
30
 74
0
 42
0.0000001
 43
0.0000001
 44
0.0000000001
 40
0.0
 40
0.0
 40
0.0
 40
0.0
 40
0.0909352425
 40
0.1810899528
 40
0.269522742
 40
0.3554412681
 40
0.4380786082
 40
0.516679312
 40
0.5905537873
 40
0.6590786377
 40
0.7217256347
 40
0.7507032401
 40
0.7780670812
 40
0.8037962195
 40
0.8278742103
 40
0.8503025869
 40
0.8711169126
 40
0.8903677964
 40
0.9081395766
 40
0.9246697641
 40
0.9325786849
 40
0.9403146527
 40
0.9479285897
 40
0.9554354159
 40
0.9701624728
 40
0.977490303
 40
0.9848953856
 40
0.9924159482
 40
1.0
 40
1.0
 40
1.0
 40
1.0
 10
4.3239906832
 20
3.8812581686
 30
0.0
 10
4.3377093657
 20
3.8812581686
 30
0.0
 10
4.3650296141
 20
3.8815038671
 30
0.0
 10
4.4056776896
 20
3.8826029171
 30
0.0
 10
4.4455424323
 20
3.8844253958
 30
0.0
 10
4.4842325031
 20
3.8869515989
 30
0.0
 10
4.5213839665
 20
3.890157334
 30
0.0
 10
4.5566467959
 20
3.8940125541
 30
0.0
 10
4.5896907895
 20
3.8984811075
 30
0.0
 10
4.6202153046
 20
3.903525406
 30
0.0
 10
4.6439090595
 20
3.9082858084
 30
0.0
 10
4.6613850079
 20
3.91239373
 30
0.0
 10
4.6733674096
 20
3.9155168161
 30
0.0
 10
4.6845502659
 20
3.9187606311
 30
0.0
 10
4.6949179352
 20
3.922124288
 30
0.0
 10
4.7044599006
 20
3.9256101986
 30
0.0
 10
4.7131707428
 20
3.9292258099
 30
0.0
 10
4.7210507036
 20
3.9329830902
 30
0.0
 10
4.7281242359
 20
3.9368988277
 30
0.0
 10
4.7334371335
 20
3.9404279292
 30
0.0
 10
4.7372594745
 20
3.9434234614
 30
0.0
 10
4.7398955891
 20
3.9457421079
 30
0.0
 10
4.7423450715
 20
3.9481731422
 30
0.0
 10
4.7453128453
 20
3.9515621155
 30
0.0
 10
4.7478242845
 20
3.9552891646
 30
0.0
 10
4.7496578282
 20
3.9593482641
 30
0.0
 10
4.7506493881
 20
3.9625655333
 30
0.0
 10
4.7512385659
 20
3.9659178177
 30
0.0
 10
4.751371075
 20
3.9681985669
 30
0.0
 10
4.7513719091
 20
3.9693427127
 30
0.0
  0
SPLINE
  5
238
100
AcDbEntity
  8
0
100
AcDbSpline
 62
7
  6
CONTINUOUS
 70
0
 71
3
 72
18
 73
14
 74
0
 42
0.0000001
 43
0.0000001
 44
0.0000000001
 40
0.0
 40
0.0
 40
0.0
 40
0.0
 40
0.1566142435
 40
0.3066621558
 40
0.4486077658
 40
0.5812512802
 40
0.7035087602
 40
0.7604345064
 40
0.8144301196
 40
0.8654288195
 40
0.9133701017
 40
0.9582219145
 40
1.0
 40
1.0
 40
1.0
 40
1.0
 10
4.1878291094
 20
4.0987215015
 30
0.0
 10
4.174933057
 20
4.0979108901
 30
0.0
 10
4.1496965063
 20
4.0960725982
 30
0.0
 10
4.1128457793
 20
4.0925833282
 30
0.0
 10
4.0780525318
 20
4.0884431823
 30
0.0
 10
4.045652793
 20
4.0836920501
 30
0.0
 10
4.020321935
 20
4.0791593505
 30
0.0
 10
4.001489777
 20
4.0752204358
 30
0.0
 10
3.9884735408
 20
4.0722074384
 30
0.0
 10
3.9762507113
 20
4.0690689987
 30
0.0
 10
3.9648423507
 20
4.065807954
 30
0.0
 10
3.9542653765
 20
4.0624252801
 30
0.0
 10
3.94753876
 20
4.0600024432
 30
0.0
 10
3.9443223007
 20
4.0587632501
 30
0.0
  0
SPLINE
  5
239
100
AcDbEntity
  8
0
100
AcDbSpline
 62
7
  6
CONTINUOUS
 70
0
 71
3
 72
19
 73
15
 74
0
 42
0.0000001
 43
0.0000001
 44
0.0000000001
 40
0.0
 40
0.0
 40
0.0
 40
0.0
 40
0.1562234466
 40
0.2990841957
 40
0.4301805688
 40
0.4920028493
 40
0.5517304587
 40
0.6658659189
 40
0.7210815743
 40
0.7757400128
 40
0.8304081119
 40
0.8854978678
 40
0.9416872326
 40
1.0
 40
1.0
 40
1.0
 40
1.0
 10
3.9443223007
 20
4.0587632501
 30
0.0
 10
3.9409771271
 20
4.0574744677
 30
0.0
 10
3.9346274771
 20
4.05486035
 30
0.0
 10
3.9257260848
 20
4.0505783616
 30
0.0
 10
3.9190478223
 20
4.0467135731
 30
0.0
 10
3.9142571179
 20
4.0434436205
 30
0.0
 10
3.9099582533
 20
4.0401603737
 30
0.0
 10
3.9060804591
 20
4.036575803
 30
0.0
 10
3.9027953288
 20
4.0326132765
 30
0.0
 10
3.9006776462
 20
4.0294793348
 30
0.0
 10
3.8989081409
 20
4.0261378604
 30
0.0
 10
3.8975528204
 20
4.0225671948
 30
0.0
 10
3.8966863951
 20
4.0187599788
 30
0.0
 10
3.8964906832
 20
4.0161278548
 30
0.0
 10
3.8964906832
 20
4.0147897554
 30
0.0
  0
SPLINE
  5
23A
100
AcDbEntity
  8
0
100
AcDbSpline
 62
7
  6
CONTINUOUS
 70
0
 71
3
 72
19
 73
15
 74
0
 42
0.0000001
 43
0.0000001
 44
0.0000000001
 40
0.0
 40
0.0
 40
0.0
 40
0.0
 40
0.0583017003
 40
0.1144797272
 40
0.1695587129
 40
0.2242169029
 40
0.2788662061
 40
0.3340738841
 40
0.4481993735
 40
0.5079260862
 40
0.5697505971
 40
0.700860072
 40
0.8437441708
 40
1.0
 40
1.0
 40
1.0
 40
1.0
 10
4.7514906832
 20
4.0147897554
 30
0.0
 10
4.7514906832
 20
4.0161286456
 30
0.0
 10
4.7512947419
 20
4.0187623152
 30
0.0
 10
4.7504273079
 20
4.0225716594
 30
0.0
 10
4.7490704667
 20
4.0261441599
 30
0.0
 10
4.7472990605
 20
4.0294871979
 30
0.0
 10
4.7451792028
 20
4.0326224873
 30
0.0
 10
4.7418907231
 20
4.0365866531
 30
0.0
 10
4.7380090672
 20
4.0401724858
 30
0.0
 10
4.7337059765
 20
4.043456828
 30
0.0
 10
4.7289102736
 20
4.0467280781
 30
0.0
 10
4.7222249458
 20
4.0505944491
 30
0.0
 10
4.7133140838
 20
4.0548781845
 30
0.0
 10
4.7069576645
 20
4.0574933027
 30
0.0
 10
4.7036088853
 20
4.0587825813
 30
0.0
  0
SPLINE
  5
23B
100
AcDbEntity
  8
0
100
AcDbSpline
 62
7
  6
CONTINUOUS
 70
0
 71
3
 72
18
 73
14
 74
0
 42
0.0000001
 43
0.0000001
 44
0.0000000001
 40
0.0
 40
0.0
 40
0.0
 40
0.0
 40
0.0417891342
 40
0.0866507294
 40
0.1346002871
 40
0.1856056854
 40
0.2396063596
 40
0.2965354826
 40
0.4187948463
 40
0.5514341236
 40
0.6933699967
 40
0.8434035193
 40
1.0
 40
1.0
 40
1.0
 40
1.0
 10
4.7036088853
 20
4.0587825813
 30
0.0
 10
4.7003919865
 20
4.0600210861
 30
0.0
 10
4.6936647245
 20
4.0624426048
 30
0.0
 10
4.6830872135
 20
4.0658235529
 30
0.0
 10
4.6716789424
 20
4.0690829534
 30
0.0
 10
4.6594568353
 20
4.072219823
 30
0.0
 10
4.6464419507
 20
4.0752313214
 30
0.0
 10
4.6276127725
 20
4.0791682237
 30
0.0
 10
4.6022871083
 20
4.0836986585
 30
0.0
 10
4.5698952371
 20
4.0884475228
 30
0.0
 10
4.5351117862
 20
4.0925857647
 30
0.0
 10
4.4982724663
 20
4.0960735425
 30
0.0
 10
4.4730440372
 20
4.0979111587
 30
0.0
 10
4.4601522478
 20
4.0987215021
 30
0.0
  0
SPLINE
  5
23C
100
AcDbEntity
  8
02___PRT_ALL_AXES
100
AcDbSpline
 62
7
  6
CONTINUOUS
 70
0
 71
3
 72
11
 73
7
 74
0
 42
0.0000001
 43
0.0000001
 44
0.0000000001
 40
0.0
 40
0.0
 40
0.0
 40
0.0
 40
0.2946272017
 40
0.5643289203
 40
0.8020192069
 40
1.0
 40
1.0
 40
1.0
 40
1.0
 10
4.6989906832
 20
4.0775094284
 30
0.0
 10
4.6989906832
 20
4.0755479238
 30
0.0
 10
4.6992918887
 20
4.0717845332
 30
0.0
 10
4.700492856
 20
4.0665654828
 30
0.0
 10
4.7021532188
 20
4.0621572693
 30
0.0
 10
4.7035391067
 20
4.0595986927
 30
0.0
 10
4.7042411909
 20
4.0584831681
 30
0.0
  0
SPLINE
  5
23D
100
AcDbEntity
  8
02___PRT_ALL_AXES
100
AcDbSpline
 62
7
  6
CONTINUOUS
 70
0
 71
3
 72
11
 73
7
 74
0
 42
0.0000001
 43
0.0000001
 44
0.0000000001
 40
0.0
 40
0.0
 40
0.0
 40
0.0
 40
0.1981784299
 40
0.4358752463
 40
0.70550006
 40
1.0
 40
1.0
 40
1.0
 40
1.0
 10
3.9437362868
 20
4.0584793117
 30
0.0
 10
3.9444392869
 20
4.0595962439
 30
0.0
 10
3.9458276404
 20
4.0621558717
 30
0.0
 10
3.9474905382
 20
4.0665655754
 30
0.0
 10
3.9486901258
 20
4.0717851938
 30
0.0
 10
3.9489906832
 20
4.0755482309
 30
0.0
 10
3.9489906832
 20
4.0775094284
 30
0.0
  0
SPLINE
  5
23E
100
AcDbEntity
  8
0
100
AcDbSpline
 62
7
  6
CONTINUOUS
 70
0
 71
3
 72
20
 73
16
 74
0
 42
0.0000001
 43
0.0000001
 44
0.0000000001
 40
0.0
 40
0.0
 40
0.0
 40
0.0
 40
0.1525706155
 40
0.3023745785
 40
0.44658578
 40
0.5157903137
 40
0.5826315301
 40
0.6468067991
 40
0.7080350001
 40
0.7660439023
 40
0.8205900803
 40
0.8714442983
 40
0.9184039177
 40
0.9613031754
 40
1.0
 40
1.0
 40
1.0
 40
1.0
 10
4.3239906832
 20
4.0926580428
 30
0.0
 10
4.3436075113
 20
4.0926580428
 30
0.0
 10
4.3824873239
 20
4.0921723506
 30
0.0
 10
4.4398719418
 20
4.089996905
 30
0.0
 10
4.4864821514
 20
4.0869746413
 30
0.0
 10
4.5223804859
 20
4.0838348911
 30
0.0
 10
4.5479884793
 20
4.0811853823
 30
0.0
 10
4.5725293711
 20
4.0782214455
 30
0.0
 10
4.5958864444
 20
4.0749589622
 30
0.0
 10
4.6179491399
 20
4.0714118974
 30
0.0
 10
4.6386128861
 20
4.0675992975
 30
0.0
 10
4.6577799338
 20
4.0635394064
 30
0.0
 10
4.6753601576
 20
4.0592512504
 30
0.0
 10
4.6912709136
 20
4.0547585626
 30
0.0
 10
4.7012382524
 20
4.0514683012
 30
0.0
 10
4.7059162537
 20
4.0497737501
 30
0.0
  0
SPLINE
  5
23F
100
AcDbEntity
  8
0
100
AcDbSpline
 62
7
  6
CONTINUOUS
 70
0
 71
3
 72
20
 73
16
 74
0
 42
0.0000001
 43
0.0000001
 44
0.0000000001
 40
0.0
 40
0.0
 40
0.0
 40
0.0
 40
0.1875343048
 40
0.3554192889
 40
0.5037542441
 40
0.5707642798
 40
0.633135836
 40
0.6910254658
 40
0.7446434349
 40
0.7942733436
 40
0.8402991014
 40
0.8832118953
 40
0.9236230841
 40
0.9622698257
 40
1.0
 40
1.0
 40
1.0
 40
1.0
 10
4.7059162537
 20
4.0497737501
 30
0.0
 10
4.709459514
 20
4.0484902456
 30
0.0
 10
4.7161237442
 20
4.0459109235
 30
0.0
 10
4.7253487594
 20
4.0417283526
 30
0.0
 10
4.7321277356
 20
4.0380532841
 30
0.0
 10
4.7368323885
 20
4.0350472537
 30
0.0
 10
4.7398917307
 20
4.0328521373
 30
0.0
 10
4.7426006882
 20
4.0306410628
 30
0.0
 10
4.744956846
 20
4.0284150172
 30
0.0
 10
4.7469577529
 20
4.0261745671
 30
0.0
 10
4.7486017211
 20
4.0239205739
 30
0.0
 10
4.7498866624
 20
4.0216536228
 30
0.0
 10
4.7508094453
 20
4.0193743067
 30
0.0
 10
4.7513659941
 20
4.0170854725
 30
0.0
 10
4.7514906834
 20
4.0155479559
 30
0.0
 10
4.7514906832
 20
4.0147897554
 30
0.0
  0
SPLINE
  5
240
100
AcDbEntity
  8
0
100
AcDbSpline
 62
7
  6
CONTINUOUS
 70
0
 71
3
 72
31
 73
27
 74
0
 42
0.0000001
 43
0.0000001
 44
0.0000000001
 40
0.0
 40
0.0
 40
0.0
 40
0.0
 40
0.0939244783
 40
0.187041334
 40
0.2783822249
 40
0.3671276788
 40
0.4524779647
 40
0.5336402119
 40
0.6098805114
 40
0.6805194071
 40
0.7449539612
 40
0.7746750295
 40
0.8026560613
 40
0.8288477278
 40
0.8532055063
 40
0.8756993699
 40
0.8963123337
 40
0.9150379212
 40
0.9318887726
 40
0.9469105085
 40
0.9601844518
 40
0.9718453771
 40
0.9821158758
 40
0.9913365698
 40
0.9957055534
 40
1.0
 40
1.0
 40
1.0
 40
1.0
 10
4.3239906832
 20
4.0472178928
 30
0.0
 10
4.3379541148
 20
4.0472178928
 30
0.0
 10
4.365761551
 20
4.0469694812
 30
0.0
 10
4.4071349317
 20
4.0458580938
 30
0.0
 10
4.447711757
 20
4.0440155235
 30
0.0
 10
4.4870932177
 20
4.0414619092
 30
0.0
 10
4.5249060391
 20
4.0382229096
 30
0.0
 10
4.5607880287
 20
4.0343294744
 30
0.0
 10
4.5943934643
 20
4.0298221622
 30
0.0
 10
4.6254003533
 20
4.0247437668
 30
0.0
 10
4.6494355437
 20
4.0199625197
 30
0.0
 10
4.6671219667
 20
4.015846563
 30
0.0
 10
4.679200572
 20
4.0127327117
 30
0.0
 10
4.6904253403
 20
4.0095165166
 30
0.0
 10
4.7007692042
 20
4.0062047901
 30
0.0
 10
4.7102081438
 20
4.0028059747
 30
0.0
 10
4.7187211163
 20
3.9993290693
 30
0.0
 10
4.726288912
 20
3.9957820926
 30
0.0
 10
4.7328948197
 20
3.9921717559
 30
0.0
 10
4.7385269369
 20
3.9885060349
 30
0.0
 10
4.7431765464
 20
3.9847901919
 30
0.0
 10
4.7468346211
 20
3.9810217413
 30
0.0
 10
4.7494899795
 20
3.9771965104
 30
0.0
 10
4.7508698894
 20
3.9738893281
 30
0.0
 10
4.75140275
 20
3.9712777024
 30
0.0
 10
4.7514906832
 20
3.9699880462
 30
0.0
 10
4.7514906832
 20
3.9693496055
 30
0.0
  0
SPLINE
  5
241
100
AcDbEntity
  8
0
100
AcDbSpline
 62
7
  6
CONTINUOUS
 70
0
 71
3
 72
31
 73
27
 74
0
 42
0.0000001
 43
0.0000001
 44
0.0000000001
 40
0.0
 40
0.0
 40
0.0
 40
0.0
 40
0.0042944171
 40
0.0086635537
 40
0.0178850142
 40
0.0281567033
 40
0.0398190506
 40
0.0530944987
 40
0.068117731
 40
0.0849700157
 40
0.1036969338
 40
0.1243110956
 40
0.1468060132
 40
0.1711646949
 40
0.1973571019
 40
0.2253387092
 40
0.2550601908
 40
0.3194950866
 40
0.3901336997
 40
0.4663731374
 40
0.5475340049
 40
0.6328824589
 40
0.7216257118
 40
0.8129641205
 40
0.9060782983
 40
1.0
 40
1.0
 40
1.0
 40
1.0
 10
3.8964906841
 20
3.9693545977
 30
0.0
 10
3.8964909094
 20
3.9699930269
 30
0.0
 10
3.8965792955
 20
3.9712826553
 30
0.0
 10
3.8971130465
 20
3.973894202
 30
0.0
 10
3.898494023
 20
3.9772012185
 30
0.0
 10
3.9011504822
 20
3.9810262141
 30
0.0
 10
3.9048095615
 20
3.9847944467
 30
0.0
 10
3.9094600841
 20
3.9885100834
 30
0.0
 10
3.915093027
 20
3.9921755999
 30
0.0
 10
3.9216996711
 20
3.9957857292
 30
0.0
 10
3.9292681108
 20
3.9993324958
 30
0.0
 10
3.9377816329
 20
4.00280919
 30
0.0
 10
3.9472210279
 20
4.0062077922
 30
0.0
 10
3.9575652538
 20
4.0095193042
 30
0.0
 10
3.9687902903
 20
4.0127352865
 30
0.0
 10
3.9808690714
 20
4.0158489269
 30
0.0
 10
3.9985555585
 20
4.0199645859
 30
0.0
 10
4.0225906095
 20
4.0247454854
 30
0.0
 10
4.0535970821
 20
4.0298235111
 30
0.0
 10
4.0872018021
 20
4.0343304859
 30
0.0
 10
4.1230828096
 20
4.0382236222
 30
0.0
 10
4.1608944198
 20
4.0414623691
 30
0.0
 10
4.2002744817
 20
4.0440157807
 30
0.0
 10
4.2408497643
 20
4.0458582036
 30
0.0
 10
4.2822215051
 20
4.0469695012
 30
0.0
 10
4.3100278202
 20
4.0472178928
 30
0.0
 10
4.3239906832
 20
4.0472178928
 30
0.0
  0
SPLINE
  5
242
100
AcDbEntity
  8
0
100
AcDbSpline
 62
7
  6
CONTINUOUS
 70
0
 71
3
 72
20
 73
16
 74
0
 42
0.0000001
 43
0.0000001
 44
0.0000000001
 40
0.0
 40
0.0
 40
0.0
 40
0.0
 40
0.0372146796
 40
0.0753767052
 40
0.1153594261
 40
0.1579176642
 40
0.2036729166
 40
0.253120762
 40
0.3066438154
 40
0.364521635
 40
0.426960585
 40
0.4941129952
 40
0.642941423
 40
0.811553433
 40
1.0
 40
1.0
 40
1.0
 40
1.0
 10
3.8964906832
 20
4.0147897554
 30
0.0
 10
3.8964906834
 20
4.0155663998
 30
0.0
 10
3.8966216563
 20
4.0171423504
 30
0.0
 10
3.8972059792
 20
4.0194873592
 30
0.0
 10
3.8981744656
 20
4.0218219241
 30
0.0
 10
3.8995226177
 20
4.0241430917
 30
0.0
 10
3.9012470576
 20
4.0264503569
 30
0.0
 10
3.9033455971
 20
4.0287431129
 30
0.0
 10
3.9058163036
 20
4.0310205344
 30
0.0
 10
3.9086565152
 20
4.0332820331
 30
0.0
 10
3.9118636718
 20
4.0355264807
 30
0.0
 10
3.9167971605
 20
4.0386002382
 30
0.0
 10
3.9239028953
 20
4.0423540638
 30
0.0
 10
3.9335662376
 20
4.0466207837
 30
0.0
 10
3.9405431892
 20
4.0492483242
 30
0.0
 10
3.9442524774
 20
4.0505551111
 30
0.0
  0
SPLINE
  5
243
100
AcDbEntity
  8
0
100
AcDbSpline
 62
7
  6
CONTINUOUS
 70
0
 71
3
 72
20
 73
16
 74
0
 42
0.0000001
 43
0.0000001
 44
0.0000000001
 40
0.0
 40
0.0
 40
0.0
 40
0.0
 40
0.0392030248
 40
0.0825297233
 40
0.1298363074
 40
0.1809578955
 40
0.2356914284
 40
0.2938122037
 40
0.3550798783
 40
0.4192271214
 40
0.4859789243
 40
0.555037804
 40
0.6988194533
 40
0.8480614929
 40
1.0
 40
1.0
 40
1.0
 40
1.0
 10
3.9442524774
 20
4.0505551111
 30
0.0
 10
3.9489779949
 20
4.052219917
 30
0.0
 10
3.9590226846
 20
4.0554527606
 30
0.0
 10
3.9750203829
 20
4.0598716948
 30
0.0
 10
3.9926428926
 20
4.0640870392
 30
0.0
 10
4.0118089244
 20
4.0680757408
 30
0.0
 10
4.0324300679
 20
4.0718201333
 30
0.0
 10
4.0544106901
 20
4.0753020554
 30
0.0
 10
4.0776487294
 20
4.078503593
 30
0.0
 10
4.1020364075
 20
4.0814112698
 30
0.0
 10
4.1274600148
 20
4.0840096113
 30
0.0
 10
4.1630606855
 20
4.087087283
 30
0.0
 10
4.2092471519
 20
4.0900496703
 30
0.0
 10
4.2660796403
 20
4.0921819886
 30
0.0
 10
4.3045727387
 20
4.0926580428
 30
0.0
 10
4.3239906832
 20
4.0926580428
 30
0.0
  0
SPLINE
  5
244
100
AcDbEntity
  8
02___PRT_ALL_AXES
100
AcDbSpline
 62
7
  6
CONTINUOUS
 70
0
 71
3
 72
31
 73
27
 74
0
 42
0.0000001
 43
0.0000001
 44
0.0000000001
 40
0.0
 40
0.0
 40
0.0
 40
0.0
 40
0.0939168447
 40
0.1870395429
 40
0.2783850789
 40
0.3671285524
 40
0.4524761251
 40
0.533640576
 40
0.6098799173
 40
0.6805198768
 40
0.7449534142
 40
0.7746767793
 40
0.8026562953
 40
0.8288462259
 40
0.8532061712
 40
0.8757013263
 40
0.8963116322
 40
0.9150363503
 40
0.9318902819
 40
0.9469117627
 40
0.9601830624
 40
0.9718447217
 40
0.982117127
 40
0.9913369688
 40
0.9957055814
 40
1.0
 40
1.0
 40
1.0
 40
1.0
 10
4.3239906832
 20
4.1458149437
 30
0.0
 10
4.3117430596
 20
4.1458149437
 30
0.0
 10
4.2873508183
 20
4.1455968709
 30
0.0
 10
4.2510580136
 20
4.1446222416
 30
0.0
 10
4.2154632221
 20
4.1430057513
 30
0.0
 10
4.1809180769
 20
4.1407660503
 30
0.0
 10
4.1477493312
 20
4.1379242317
 30
0.0
 10
4.1162740227
 20
4.1345096709
 30
0.0
 10
4.0867953839
 20
4.1305551563
 30
0.0
 10
4.0595963519
 20
4.1261011998
 30
0.0
 10
4.0385127435
 20
4.1219062012
 30
0.0
 10
4.0229981777
 20
4.1182965714
 30
0.0
 10
4.0124031094
 20
4.1155648295
 30
0.0
 10
4.0025571134
 20
4.1127431388
 30
0.0
 10
3.9934831947
 20
4.1098385282
 30
0.0
 10
3.9852031477
 20
4.106857547
 30
0.0
 10
3.9777361591
 20
4.1038070648
 30
0.0
 10
3.9710980532
 20
4.100695233
 30
0.0
 10
3.9653026045
 20
4.0975292285
 30
0.0
 10
3.9603620046
 20
4.0943137639
 30
0.0
 10
3.9562845043
 20
4.0910532872
 30
0.0
 10
3.9530757284
 20
4.0877477962
 30
0.0
 10
3.9507445605
 20
4.0843932901
 30
0.0
 10
3.9495348624
 20
4.0814916507
 30
0.0
 10
3.9490686589
 20
4.0792006817
 30
0.0
 10
3.9489918328
 20
4.0780694603
 30
0.0
 10
3.9489918328
 20
4.0775094284
 30
0.0
  0
SPLINE
  5
245
100
AcDbEntity
  8
0
100
AcDbSpline
 62
7
  6
CONTINUOUS
 70
0
 71
3
 72
55
 73
51
 74
0
 42
0.0000001
 43
0.0000001
 44
0.0000000001
 40
0.0
 40
0.0
 40
0.0
 40
0.0
 40
0.0469622363
 40
0.0935206182
 40
0.1391909983
 40
0.1835637249
 40
0.2262389224
 40
0.2668200632
 40
0.3049402003
 40
0.3402596557
 40
0.3724769505
 40
0.3873374894
 40
0.4013280084
 40
0.4144238437
 40
0.426602735
 40
0.4378496704
 40
0.4481561561
 40
0.4575189529
 40
0.4659443809
 40
0.4734552509
 40
0.480092224
 40
0.4859226877
 40
0.4910579378
 40
0.4956682854
 40
0.4978527774
 40
0.5000000009
 40
0.5021472245
 40
0.5043317165
 40
0.5089420643
 40
0.5140773147
 40
0.5199077785
 40
0.5265447519
 40
0.5340556223
 40
0.5424810507
 40
0.5518438478
 40
0.5621503343
 40
0.5733972702
 40
0.5855761617
 40
0.5986719972
 40
0.6126625165
 40
0.6275230559
 40
0.6597403524
 40
0.6950598081
 40
0.7331799425
 40
0.7737610839
 40
0.8164362868
 40
0.8608090133
 40
0.9064793866
 40
0.9530377639
 40
1.0
 40
1.0
 40
1.0
 40
1.0
 10
4.3239906832
 20
4.0326501534
 30
0.0
 10
4.3375458264
 20
4.0326501534
 30
0.0
 10
4.3645401655
 20
4.0324090301
 30
0.0
 10
4.404703766
 20
4.0313301576
 30
0.0
 10
4.4440940996
 20
4.0295414097
 30
0.0
 10
4.4823240503
 20
4.0270624402
 30
0.0
 10
4.5190312571
 20
4.0239181845
 30
0.0
 10
4.553864084
 20
4.0201386014
 30
0.0
 10
4.586486906
 20
4.0157630675
 30
0.0
 10
4.6165871641
 20
4.0108331634
 30
0.0
 10
4.639919581
 20
4.0061917245
 30
0.0
 10
4.6570888647
 20
4.0021961174
 30
0.0
 10
4.6688142973
 20
3.9991733143
 30
0.0
 10
4.6797108579
 20
3.9960511594
 30
0.0
 10
4.6897522717
 20
3.9928362663
 30
0.0
 10
4.6989152217
 20
3.9895368316
 30
0.0
 10
4.7071792802
 20
3.9861615903
 30
0.0
 10
4.7145257982
 20
3.9827183265
 30
0.0
 10
4.7209385529
 20
3.9792135542
 30
0.0
 10
4.7264059902
 20
3.97565502
 30
0.0
 10
4.7309196476
 20
3.9720478201
 30
0.0
 10
4.7344707619
 20
3.9683895795
 30
0.0
 10
4.7370484788
 20
3.9646761291
 30
0.0
 10
4.738388041
 20
3.9614658329
 30
0.0
 10
4.738905321
 20
3.9589302193
 30
0.0
 10
4.7390329969
 20
3.9570587166
 30
0.0
 10
4.7389053209
 20
3.9551872138
 30
0.0
 10
4.7383880405
 20
3.9526516002
 30
0.0
 10
4.7370484779
 20
3.9494413041
 30
0.0
 10
4.7344707604
 20
3.9457278538
 30
0.0
 10
4.730919646
 20
3.9420696131
 30
0.0
 10
4.7264059882
 20
3.9384624133
 30
0.0
 10
4.7209385504
 20
3.9349038792
 30
0.0
 10
4.7145257953
 20
3.9313991069
 30
0.0
 10
4.7071792769
 20
3.9279558431
 30
0.0
 10
4.6989152179
 20
3.9245806019
 30
0.0
 10
4.6897522674
 20
3.9212811673
 30
0.0
 10
4.6797108533
 20
3.9180662741
 30
0.0
 10
4.6688142925
 20
3.9149441191
 30
0.0
 10
4.6570888596
 20
3.911921316
 30
0.0
 10
4.6399195752
 20
3.907925709
 30
0.0
 10
4.6165871574
 20
3.9032842709
 30
0.0
 10
4.5864868995
 20
3.898354367
 30
0.0
 10
4.5538640783
 20
3.8939788314
 30
0.0
 10
4.5190312502
 20
3.8901992492
 30
0.0
 10
4.4823240414
 20
3.8870549973
 30
0.0
 10
4.4440940914
 20
3.8845760259
 30
0.0
 10
4.4047037613
 20
3.8827872727
 30
0.0
 10
4.364540164
 20
3.881708401
 30
0.0
 10
4.3375458263
 20
3.8814672796
 30
0.0
 10
4.3239906832
 20
3.8814672796
 30
0.0
  0
SPLINE
  5
246
100
AcDbEntity
  8
02___PRT_ALL_AXES
100
AcDbSpline
 62
7
  6
CONTINUOUS
 70
0
 71
3
 72
31
 73
27
 74
0
 42
0.0000001
 43
0.0000001
 44
0.0000000001
 40
0.0
 40
0.0
 40
0.0
 40
0.0
 40
0.0042944186
 40
0.0086630312
 40
0.017882873
 40
0.0281552783
 40
0.0398169376
 40
0.0530882373
 40
0.0681097181
 40
0.0849636497
 40
0.1036883678
 40
0.1242986737
 40
0.1467938288
 40
0.1711537741
 40
0.1973437047
 40
0.2253232207
 40
0.2550465858
 40
0.3194801232
 40
0.3901200827
 40
0.466359424
 40
0.5475238749
 40
0.6328714476
 40
0.7216149211
 40
0.8129604571
 40
0.9060831553
 40
1.0
 40
1.0
 40
1.0
 40
1.0
 10
4.6989895337
 20
4.0775094284
 30
0.0
 10
4.6989895337
 20
4.0780694603
 30
0.0
 10
4.6989127075
 20
4.0792006817
 30
0.0
 10
4.698446504
 20
4.0814916507
 30
0.0
 10
4.6972368059
 20
4.0843932901
 30
0.0
 10
4.694905638
 20
4.0877477962
 30
0.0
 10
4.6916968622
 20
4.0910532872
 30
0.0
 10
4.6876193619
 20
4.0943137639
 30
0.0
 10
4.682678762
 20
4.0975292285
 30
0.0
 10
4.6768833132
 20
4.100695233
 30
0.0
 10
4.6702452073
 20
4.1038070648
 30
0.0
 10
4.6627782188
 20
4.106857547
 30
0.0
 10
4.6544981718
 20
4.1098385282
 30
0.0
 10
4.6454242531
 20
4.1127431388
 30
0.0
 10
4.6355782571
 20
4.1155648295
 30
0.0
 10
4.6249831887
 20
4.1182965714
 30
0.0
 10
4.6094686229
 20
4.1219062012
 30
0.0
 10
4.5883850146
 20
4.1261011998
 30
0.0
 10
4.5611859825
 20
4.1305551563
 30
0.0
 10
4.5317073438
 20
4.1345096709
 30
0.0
 10
4.5002320352
 20
4.1379242317
 30
0.0
 10
4.4670632895
 20
4.1407660503
 30
0.0
 10
4.4325181444
 20
4.1430057513
 30
0.0
 10
4.3969233528
 20
4.1446222416
 30
0.0
 10
4.3606305482
 20
4.1455968709
 30
0.0
 10
4.3362383068
 20
4.1458149437
 30
0.0
 10
4.3239906832
 20
4.1458149437
 30
0.0
  0
SPLINE
  5
247
100
AcDbEntity
  8
0
100
AcDbSpline
 62
7
  6
CONTINUOUS
 70
0
 71
3
 72
55
 73
51
 74
0
 42
0.0000001
 43
0.0000001
 44
0.0000000001
 40
0.0
 40
0.0
 40
0.0
 40
0.0
 40
0.0469622363
 40
0.0935206182
 40
0.1391909983
 40
0.1835637249
 40
0.2262389224
 40
0.2668200632
 40
0.3049402003
 40
0.3402596557
 40
0.3724769505
 40
0.3873374894
 40
0.4013280084
 40
0.4144238437
 40
0.426602735
 40
0.4378496704
 40
0.4481561561
 40
0.4575189529
 40
0.4659443809
 40
0.4734552509
 40
0.480092224
 40
0.4859226877
 40
0.4910579378
 40
0.4956682854
 40
0.4978527774
 40
0.5000000009
 40
0.5021472245
 40
0.5043317165
 40
0.5089420643
 40
0.5140773147
 40
0.5199077785
 40
0.5265447519
 40
0.5340556223
 40
0.5424810507
 40
0.5518438478
 40
0.5621503343
 40
0.5733972702
 40
0.5855761617
 40
0.5986719972
 40
0.6126625165
 40
0.6275230559
 40
0.6597403524
 40
0.6950598081
 40
0.7331799425
 40
0.7737610839
 40
0.8164362868
 40
0.8608090133
 40
0.9064793866
 40
0.9530377639
 40
1.0
 40
1.0
 40
1.0
 40
1.0
 10
4.3239906832
 20
3.8814672796
 30
0.0
 10
4.3104355401
 20
3.8814672796
 30
0.0
 10
4.283441201
 20
3.8817084029
 30
0.0
 10
4.2432776005
 20
3.8827872754
 30
0.0
 10
4.2038872668
 20
3.8845760233
 30
0.0
 10
4.1656573161
 20
3.8870549928
 30
0.0
 10
4.1289501094
 20
3.8901992485
 30
0.0
 10
4.0941172824
 20
3.8939788316
 30
0.0
 10
4.0614944605
 20
3.8983543655
 30
0.0
 10
4.0313942024
 20
3.9032842696
 30
0.0
 10
4.0080617854
 20
3.9079257085
 30
0.0
 10
3.9908925018
 20
3.9119213156
 30
0.0
 10
3.9791670692
 20
3.9149441187
 30
0.0
 10
3.9682705086
 20
3.9180662736
 30
0.0
 10
3.9582290948
 20
3.9212811667
 30
0.0
 10
3.9490661447
 20
3.9245806014
 30
0.0
 10
3.9408020862
 20
3.9279558427
 30
0.0
 10
3.9334555683
 20
3.9313991065
 30
0.0
 10
3.9270428136
 20
3.9349038788
 30
0.0
 10
3.9215753763
 20
3.938462413
 30
0.0
 10
3.9170617188
 20
3.9420696129
 30
0.0
 10
3.9135106046
 20
3.9457278535
 30
0.0
 10
3.9109328876
 20
3.9494413039
 30
0.0
 10
3.9095933255
 20
3.9526516001
 30
0.0
 10
3.9090760455
 20
3.9551872137
 30
0.0
 10
3.9089483696
 20
3.9570587164
 30
0.0
 10
3.9090760456
 20
3.9589302192
 30
0.0
 10
3.9095933259
 20
3.9614658328
 30
0.0
 10
3.9109328886
 20
3.9646761289
 30
0.0
 10
3.9135106061
 20
3.9683895792
 30
0.0
 10
3.9170617204
 20
3.9720478199
 30
0.0
 10
3.9215753783
 20
3.9756550197
 30
0.0
 10
3.927042816
 20
3.9792135538
 30
0.0
 10
3.9334555711
 20
3.982718326
 30
0.0
 10
3.9408020895
 20
3.9861615899
 30
0.0
 10
3.9490661486
 20
3.9895368311
 30
0.0
 10
3.9582290991
 20
3.9928362657
 30
0.0
 10
3.9682705132
 20
3.9960511589
 30
0.0
 10
3.9791670739
 20
3.9991733139
 30
0.0
 10
3.9908925068
 20
4.002196117
 30
0.0
 10
4.0080617912
 20
4.006191724
 30
0.0
 10
4.0313942091
 20
4.0108331621
 30
0.0
 10
4.061494467
 20
4.015763066
 30
0.0
 10
4.0941172882
 20
4.0201386016
 30
0.0
 10
4.1289501162
 20
4.0239181838
 30
0.0
 10
4.165657325
 20
4.0270624357
 30
0.0
 10
4.2038872751
 20
4.0295414071
 30
0.0
 10
4.2432776052
 20
4.0313301603
 30
0.0
 10
4.2834412024
 20
4.032409032
 30
0.0
 10
4.3104355401
 20
4.0326501534
 30
0.0
 10
4.3239906832
 20
4.0326501534
 30
0.0
  0
ENDSEC
  0
SECTION
  2
OBJECTS
  0
DICTIONARY
  5
C
100
AcDbDictionary
280
0
281
1
  3
ACAD_GROUP
350
D
  3
ACAD_MLINESTYLE
350
17
  3
ACAD_LAYOUT
350
1A
  3
ACAD_PLOTSETTINGS
350
19
  3
ACAD_PLOTSTYLENAME
350
E
  0
DICTIONARY
  5
D
102
{ACAD_REACTORS
330
C
102
}
100
AcDbDictionary
280
0
281
1
  0
ACDBDICTIONARYWDFLT
  5
E
102
{ACAD_REACTORS
330
C
102
}
100
AcDbDictionary
281
1
  3
Normal
350
F
100
AcDbDictionaryWithDefault
340
F
  0
DICTIONARY
  5
17
102
{ACAD_REACTORS
330
C
102
}
100
AcDbDictionary
280
0
281
1
  3
Standard
350
18
  0
DICTIONARY
  5
19
102
{ACAD_REACTORS
330
C
102
}
100
AcDbDictionary
281
1
  0
DICTIONARY
  5
1A
102
{ACAD_REACTORS
330
C
102
}
100
AcDbDictionary
281
1
  3
Model
350
248
  3
Layout1
350
249
  0
ACDBPLACEHOLDER
  5
F
102
{ACAD_REACTORS
330
E
102
}
  0
MLINESTYLE
  5
18
102
{ACAD_REACTORS
330
17
102
}
100
AcDbMlineStyle
  2
STANDARD
 70
0
  3

 62
256
 51
90.0
 52
90.0
 71
2
 49
0.5
 62
256
  6
BYLAYER
 49
-0.5
 62
256
  6
BYLAYER
  0
LAYOUT
  5
248
102
{ACAD_REACTORS
330
1A
102
}
100
AcDbPlotSettings
  1

  2
none_device
  4
ANSI_A_(11.00_x_8.50_Inches)
  6

 40
0.0
 41
0.0
 42
0.0
 43
0.0
 44
279.4
 45
215.9
 46
0.0
 47
0.0
 48
0.0
 49
0.0
140
0.0
141
0.0
142
1.0
143
1.0
 70
1024
 72
0
 73
0
 74
0
  7

 75
0
147
1.0
148
0.0
149
0.0
100
AcDbLayout
  1
Model
 70
0
 71
0
 10
0.0
 20
0.0
 11
11.0
 21
8.5
 12
0.0
 22
0.0
 32
0.0
 14
0.0
 24
0.0
 34
0.0
 15
0.0
 25
0.0
 35
0.0
146
0.0
 13
0.0
 23
0.0
 33
0.0
 16
1.0
 26
0.0
 36
0.0
 17
0.0
 27
1.0
 37
0.0
 76
0
330
21D
345
0
346
0
  0
LAYOUT
  5
249
102
{ACAD_REACTORS
330
1A
102
}
100
AcDbPlotSettings
  1

  2
none_device
  4
ANSI_A_(11.00_x_8.50_Inches)
  6

 40
0.0
 41
0.0
 42
0.0
 43
0.0
 44
279.4
 45
215.9
 46
0.0
 47
0.0
 48
0.0
 49
0.0
140
0.0
141
0.0
142
1.0
143
1.0
 70
0
 72
0
 73
0
 74
0
  7

 75
0
147
1.0
148
0.0
149
0.0
100
AcDbLayout
  1
Layout1
 70
0
 71
1
 10
0.0
 20
0.0
 11
11.0
 21
8.5
 12
0.0
 22
0.0
 32
0.0
 14
0.0
 24
0.0
 34
0.0
 15
0.0
 25
0.0
 35
0.0
146
0.0
 13
0.0
 23
0.0
 33
0.0
 16
1.0
 26
0.0
 36
0.0
 17
0.0
 27
1.0
 37
0.0
 76
0
330
21E
345
0
346
0
  0
ENDSEC
  0
EOF
