999
DXF file: 3-427_top.dxf
999
Pro/ENGINEER 2018400 by Parametric Technology Corporation
  0
SECTION
  2
HEADER
  9
$ACADVER
  1
AC1027
  9
$DWGCODEPAGE
  3
ANSI_1252
  9
$EXTMAX
 10
11.0
 20
8.5
 30
0.0
  9
$EXTMIN
 10
0.0
 20
0.0
 30
0.0
  9
$LIMMIN
 10
0.0
 20
0.0
  9
$LIMMAX
 10
11.0
 20
8.5
  9
$VIEWCTR
 10
5.5
 20
4.25
  9
$VIEWSIZE
 40
8.5
  9
$CLAYER
  8
0
  9
$LTSCALE
 40
0.605
  9
$CELTYPE
  6
BYLAYER
  9
$DIMSCALE
 40
1.0
  9
$DIMASZ
 40
0.1
  9
$DIMEXO
 40
0.0625
  9
$DIMDLI
 40
0.418
  9
$DIMEXE
 40
0.125
  9
$DIMCEN
 40
0.099
  9
$DIMLFAC
 40
1.0
  9
$DIMBLK
  1
_FILLED
  9
$DIMALT
 70
1
  9
$DIMALTD
 70
2
  9
$DIMALTTD
 70
2
  9
$DIMALTF
 40
25.4
  9
$DIMTXT
 40
0.08
  9
$DIMTOL
 70
1
  9
$DIMLIM
 70
0
  9
$DIMTFAC
 40
1.0
  9
$DIMTP
 40
0.001
  9
$DIMTM
 40
0.001
  9
$DIMGAP
 40
0.09
  9
$DIMDSEP
 70
46
  9
$AUNITS
 70
0
  9
$PDMODE
 70
3
  9
$PDSIZE
 40
0.3125
  9
$HANDSEED
  5
252
  9
$TILEMODE
 70
1
  9
$MEASUREMENT
 70
0
  9
$INSUNITS
 70
1
  0
ENDSEC
  0
SECTION
  2
CLASSES
  0
CLASS
  1
ACDBDICTIONARYWDFLT
  2
AcDbDictionaryWithDefault
  3
AutoCAD 2000
 90
0
 91
1
280
0
281
0
  0
CLASS
  1
ACDBPLACEHOLDER
  2
AcDbPlaceHolder
  3
AutoCAD 2000
 90
0
 91
1
280
0
281
0
  0
CLASS
  1
LAYOUT
  2
AcDbLayout
  3
AutoCAD 2000
 90
0
 91
0
280
0
281
0
  0
ENDSEC
  0
SECTION
  2
TABLES
  0
TABLE
  2
VPORT
  5
8
100
AcDbSymbolTable
 70
2
  0
VPORT
  5
1F4
100
AcDbSymbolTableRecord
100
AcDbViewportTableRecord
  2
*ACTIVE
 70
0
 10
0.0
 20
0.0
 11
1.0
 21
1.0
 12
5.5
 22
4.25
 13
0.0
 23
0.0
 14
1.0
 24
1.0
 15
0.0
 25
0.0
 16
0.0
 26
0.0
 36
1.0
 17
0.0
 27
0.0
 37
0.0
 40
8.5
 41
1.2941176471
 42
50.0
 43
0.0
 44
0.0
 50
0.0
 51
0.0
 71
0
 72
100
 73
1
 74
1
 75
0
 76
0
 77
0
 78
0
  0
ENDTAB
  0
TABLE
  2
LTYPE
  5
5
100
AcDbSymbolTable
 70
6
  0
LTYPE
  5
14
100
AcDbSymbolTableRecord
100
AcDbLinetypeTableRecord
  2
BYBLOCK
 70
0
  3

 72
65
 73
0
 40
0.0
  0
LTYPE
  5
15
100
AcDbSymbolTableRecord
100
AcDbLinetypeTableRecord
  2
BYLAYER
 70
0
  3

 72
65
 73
0
 40
0.0
  0
LTYPE
  5
16
100
AcDbSymbolTableRecord
100
AcDbLinetypeTableRecord
  2
CONTINUOUS
 70
64
  3
Solid line
 72
65
 73
0
 40
0.0
  0
LTYPE
  5
1F5
100
AcDbSymbolTableRecord
100
AcDbLinetypeTableRecord
  2
CENTER
 70
64
  3
____ _ ____ _ ____ _ ____ _ ____ _ ____ _ ____
 72
65
 73
4
 40
0.6
 49
0.375
 74
0
 49
-0.075
 74
0
 49
0.075
 74
0
 49
-0.075
 74
0
  0
LTYPE
  5
1F6
100
AcDbSymbolTableRecord
100
AcDbLinetypeTableRecord
  2
HIDDEN
 70
64
  3
- - - - - - - - - - - - - - - - - - - -
 72
65
 73
2
 40
0.2
 49
0.1
 74
0
 49
-0.1
 74
0
  0
LTYPE
  5
1F7
100
AcDbSymbolTableRecord
100
AcDbLinetypeTableRecord
  2
PHANTOM
 70
64
  3
_____ _ _ _____ _ _ _____ _ _ _____
 72
65
 73
6
 40
0.8
 49
0.45
 74
0
 49
-0.05
 74
0
 49
0.1
 74
0
 49
-0.05
 74
0
 49
0.1
 74
0
 49
-0.05
 74
0
  0
LTYPE
  5
1F8
100
AcDbSymbolTableRecord
100
AcDbLinetypeTableRecord
  2
DOT
 70
64
  3
. . . . . . . . . . . . . . . . . . . .
 72
65
 73
2
 40
0.2
 49
0.1
 74
0
 49
-0.1
 74
0
  0
LTYPE
  5
1F9
100
AcDbSymbolTableRecord
100
AcDbLinetypeTableRecord
  2
DASHED
 70
64
  3
- - - - - - - - - - - - - - - - - - - -
 72
65
 73
2
 40
0.2
 49
0.1
 74
0
 49
-0.1
 74
0
  0
ENDTAB
  0
TABLE
  2
LAYER
  5
2
100
AcDbSymbolTable
 70
36
  0
LAYER
  5
10
100
AcDbSymbolTableRecord
100
AcDbLayerTableRecord
  2
0
 70
0
 62
7
  6
CONTINUOUS
370
-3
390
F
  0
LAYER
  5
1FA
100
AcDbSymbolTableRecord
100
AcDbLayerTableRecord
  2
DEFAULT_1
 70
0
 62
7
  6
CENTER
370
-3
390
F
  0
LAYER
  5
1FB
100
AcDbSymbolTableRecord
100
AcDbLayerTableRecord
  2
DEFAULT_2
 70
0
 62
8
  6
HIDDEN
370
-3
390
F
  0
LAYER
  5
1FC
100
AcDbSymbolTableRecord
100
AcDbLayerTableRecord
  2
DEFAULT_3
 70
0
 62
7
  6
PHANTOM
370
-3
390
F
  0
LAYER
  5
1FD
100
AcDbSymbolTableRecord
100
AcDbLayerTableRecord
  2
01_ALL_DTM_PLN
 70
0
 62
7
  6
CONTINUOUS
370
-3
390
F
  0
LAYER
  5
1FE
100
AcDbSymbolTableRecord
100
AcDbLayerTableRecord
  2
01__ASM_ALL_DTM_PLN
 70
0
 62
7
  6
CONTINUOUS
370
-3
390
F
  0
LAYER
  5
1FF
100
AcDbSymbolTableRecord
100
AcDbLayerTableRecord
  2
01__ASM_DEF_DTM_PLN
 70
0
 62
7
  6
CONTINUOUS
370
-3
390
F
  0
LAYER
  5
200
100
AcDbSymbolTableRecord
100
AcDbLayerTableRecord
  2
01___PRT_ALL_DTM_PLN
 70
0
 62
7
  6
CONTINUOUS
370
-3
390
F
  0
LAYER
  5
201
100
AcDbSymbolTableRecord
100
AcDbLayerTableRecord
  2
01___PRT_DEF_DTM_PLN
 70
0
 62
7
  6
CONTINUOUS
370
-3
390
F
  0
LAYER
  5
202
100
AcDbSymbolTableRecord
100
AcDbLayerTableRecord
  2
02_ALL_AXES
 70
0
 62
7
  6
CONTINUOUS
370
-3
390
F
  0
LAYER
  5
203
100
AcDbSymbolTableRecord
100
AcDbLayerTableRecord
  2
02__ASM_ALL_AXES
 70
0
 62
7
  6
CONTINUOUS
370
-3
390
F
  0
LAYER
  5
204
100
AcDbSymbolTableRecord
100
AcDbLayerTableRecord
  2
02___PRT_ALL_AXES
 70
0
 62
7
  6
CONTINUOUS
370
-3
390
F
  0
LAYER
  5
205
100
AcDbSymbolTableRecord
100
AcDbLayerTableRecord
  2
03_ALL_CURVES
 70
0
 62
7
  6
CONTINUOUS
370
-3
390
F
  0
LAYER
  5
206
100
AcDbSymbolTableRecord
100
AcDbLayerTableRecord
  2
03__ASM_ALL_CURVES
 70
0
 62
7
  6
CONTINUOUS
370
-3
390
F
  0
LAYER
  5
207
100
AcDbSymbolTableRecord
100
AcDbLayerTableRecord
  2
03___PRT_ALL_CURVES
 70
0
 62
7
  6
CONTINUOUS
370
-3
390
F
  0
LAYER
  5
208
100
AcDbSymbolTableRecord
100
AcDbLayerTableRecord
  2
04_ALL_DTM_PNT
 70
0
 62
7
  6
CONTINUOUS
370
-3
390
F
  0
LAYER
  5
209
100
AcDbSymbolTableRecord
100
AcDbLayerTableRecord
  2
04__ASM_ALL_DTM_PNT
 70
0
 62
7
  6
CONTINUOUS
370
-3
390
F
  0
LAYER
  5
20A
100
AcDbSymbolTableRecord
100
AcDbLayerTableRecord
  2
04___PRT_ALL_DTM_PNT
 70
0
 62
7
  6
CONTINUOUS
370
-3
390
F
  0
LAYER
  5
20B
100
AcDbSymbolTableRecord
100
AcDbLayerTableRecord
  2
05_ALL_DTM_CSYS
 70
0
 62
7
  6
CONTINUOUS
370
-3
390
F
  0
LAYER
  5
20C
100
AcDbSymbolTableRecord
100
AcDbLayerTableRecord
  2
05__ASM_ALL_DTM_CSYS
 70
0
 62
7
  6
CONTINUOUS
370
-3
390
F
  0
LAYER
  5
20D
100
AcDbSymbolTableRecord
100
AcDbLayerTableRecord
  2
05__ASM_DEF_DTM_CSYS
 70
0
 62
7
  6
CONTINUOUS
370
-3
390
F
  0
LAYER
  5
20E
100
AcDbSymbolTableRecord
100
AcDbLayerTableRecord
  2
05___PRT_ALL_DTM_CSYS
 70
0
 62
7
  6
CONTINUOUS
370
-3
390
F
  0
LAYER
  5
20F
100
AcDbSymbolTableRecord
100
AcDbLayerTableRecord
  2
05___PRT_DEF_DTM_CSYS
 70
0
 62
7
  6
CONTINUOUS
370
-3
390
F
  0
LAYER
  5
210
100
AcDbSymbolTableRecord
100
AcDbLayerTableRecord
  2
06_ALL_SURFS
 70
0
 62
7
  6
CONTINUOUS
370
-3
390
F
  0
LAYER
  5
211
100
AcDbSymbolTableRecord
100
AcDbLayerTableRecord
  2
06__ASM_ALL_SURFS
 70
0
 62
7
  6
CONTINUOUS
370
-3
390
F
  0
LAYER
  5
212
100
AcDbSymbolTableRecord
100
AcDbLayerTableRecord
  2
06___PRT_ALL_SURFS
 70
0
 62
7
  6
CONTINUOUS
370
-3
390
F
  0
LAYER
  5
213
100
AcDbSymbolTableRecord
100
AcDbLayerTableRecord
  2
07__ASM_ALL_SKELETONS
 70
0
 62
7
  6
CONTINUOUS
370
-3
390
F
  0
LAYER
  5
214
100
AcDbSymbolTableRecord
100
AcDbLayerTableRecord
  2
ALL_FEATURES
 70
0
 62
7
  6
CONTINUOUS
370
-3
390
F
  0
LAYER
  5
215
100
AcDbSymbolTableRecord
100
AcDbLayerTableRecord
  2
AXES_FEATURES
 70
0
 62
7
  6
CONTINUOUS
370
-3
390
F
  0
LAYER
  5
216
100
AcDbSymbolTableRecord
100
AcDbLayerTableRecord
  2
DEFAULT_COORDINATE_SYSTEM
 70
0
 62
7
  6
CONTINUOUS
370
-3
390
F
  0
LAYER
  5
217
100
AcDbSymbolTableRecord
100
AcDbLayerTableRecord
  2
DEFAULT_DATUM_AXES
 70
0
 62
7
  6
CONTINUOUS
370
-3
390
F
  0
LAYER
  5
218
100
AcDbSymbolTableRecord
100
AcDbLayerTableRecord
  2
DEFAULT_DATUM_PLANES
 70
0
 62
7
  6
CONTINUOUS
370
-3
390
F
  0
LAYER
  5
219
100
AcDbSymbolTableRecord
100
AcDbLayerTableRecord
  2
DEFAULT_SURFACES
 70
0
 62
7
  6
CONTINUOUS
370
-3
390
F
  0
LAYER
  5
21A
100
AcDbSymbolTableRecord
100
AcDbLayerTableRecord
  2
DIMENSIONS
 70
0
 62
7
  6
CONTINUOUS
370
-3
390
F
  0
ENDTAB
  0
TABLE
  2
STYLE
  5
3
100
AcDbSymbolTable
 70
1
  0
STYLE
  5
11
100
AcDbSymbolTableRecord
100
AcDbTextStyleTableRecord
  2
STANDARD
 70
0
 40
0.0
 41
0.8
 50
0.0
 71
0
 42
0.2
  3
txt
  4

  0
STYLE
  5
21B
100
AcDbSymbolTableRecord
100
AcDbTextStyleTableRecord
  2
TEXTSTYLE_1
 70
0
 40
0.0
 41
0.8
 50
0.0
 71
0
 42
0.2
  3
gdt
  4

  0
ENDTAB
  0
TABLE
  2
VIEW
  5
6
100
AcDbSymbolTable
 70
0
  0
ENDTAB
  0
TABLE
  2
UCS
  5
7
100
AcDbSymbolTable
 70
0
  0
ENDTAB
  0
TABLE
  2
APPID
  5
9
100
AcDbSymbolTable
 70
1
  0
APPID
  5
21C
100
AcDbSymbolTableRecord
100
AcDbRegAppTableRecord
  2
ACAD
 70
0
  0
ENDTAB
  0
TABLE
  2
BLOCK_RECORD
  5
1
100
AcDbSymbolTable
 70
0
  0
BLOCK_RECORD
  5
21D
100
AcDbSymbolTableRecord
100
AcDbBlockTableRecord
  2
*Model_Space
  0
BLOCK_RECORD
  5
21E
100
AcDbSymbolTableRecord
100
AcDbBlockTableRecord
  2
*Paper_Space
  0
BLOCK_RECORD
  5
21F
100
AcDbSymbolTableRecord
100
AcDbBlockTableRecord
  2
_FILLED
  0
ENDTAB
  0
TABLE
  2
DIMSTYLE
  5
A
100
AcDbSymbolTable
 70
1
100
AcDbDimStyleTable
 71
0
  0
DIMSTYLE
105
220
100
AcDbSymbolTableRecord
100
AcDbDimStyleTableRecord
  2
STANDARD
 70
0
  3

  4

 40
1.0
 41
0.1
 42
0.0625
 43
0.38
 44
0.125
 45
0.0
 46
0.0
 47
0.001
 48
0.001
140
0.08
141
0.09
142
0.0
143
25.4
144
1.0
145
0.0
146
1.0
147
0.09
 71
1.0
 72
0.0
 73
1
 74
1
 75
0
 76
0
 77
0
 78
4
 79
1
170
1
171
2
172
0
173
0
174
0
175
0
176
0
177
0
178
0
270
2
179
3
271
3
272
3
273
2
274
2
275
0
280
0
281
0
282
0
283
1
284
4
285
0
286
0
287
3
288
0
340
11
278
46
341
21F
342
21F
343
21F
344
21F
  0
ENDTAB
  0
ENDSEC
  0
SECTION
  2
BLOCKS
  0
BLOCK
  5
20
100
AcDbEntity
  8
0
100
AcDbBlockBegin
  2
*Model_Space
 70
0
 10
0.0
 20
0.0
 30
0.0
  3
*Model_Space
  1

  0
ENDBLK
  5
21
100
AcDbEntity
  8
0
100
AcDbBlockEnd
  0
BLOCK
  5
1C
100
AcDbEntity
  8
0
100
AcDbBlockBegin
  2
*Paper_Space
 70
0
 10
0.0
 20
0.0
 30
0.0
  3
*Paper_Space
  1

  0
ENDBLK
  5
1D
100
AcDbEntity
  8
0
100
AcDbBlockEnd
  0
BLOCK
  5
221
100
AcDbEntity
  8
0
100
AcDbBlockBegin
  2
_FILLED
 70
64
 10
0.0
 20
0.0
  3
_FILLED
  1

  0
SOLID
  5
222
100
AcDbEntity
  8
0
  6
BYBLOCK
 62
0
100
AcDbTrace
 10
0.0
 20
0.0
 11
-1.0
 21
0.2
 12
-1.0
 22
-0.2
 13
-1.0
 23
-0.2
  0
ENDBLK
  5
223
100
AcDbEntity
  8
0
  6
BYBLOCK
 62
0
100
AcDbBlockEnd
  0
ENDSEC
  0
SECTION
  2
ENTITIES
  0
MTEXT
  5
224
100
AcDbEntity
  8
0
100
AcDbMText
 62
2
  6
CONTINUOUS
  7
STANDARD
 71
3
 72
1
 10
4.8036180124
 20
1.7528317246
 30
0.0
 11
1.0
 21
0.0
 31
0.0
 73
2
 44
0.9
  1
SCALE  .500
 40
0.08
 41
0.704
  0
LINE
  5
225
100
AcDbEntity
  8
0
100
AcDbLine
 62
7
  6
CONTINUOUS
 10
0.0
 20
0.0
 11
0.0
 21
8.5
  0
LINE
  5
226
100
AcDbEntity
  8
0
100
AcDbLine
 62
7
  6
CONTINUOUS
 10
0.0
 20
0.0
 11
11.0
 21
0.0
  0
LINE
  5
227
100
AcDbEntity
  8
0
100
AcDbLine
 62
7
  6
CONTINUOUS
 10
0.0
 20
8.5
 11
11.0
 21
8.5
  0
LINE
  5
228
100
AcDbEntity
  8
0
100
AcDbLine
 62
7
  6
CONTINUOUS
 10
11.0
 20
0.0
 11
11.0
 21
8.5
  0
LINE
  5
229
100
AcDbEntity
  8
02___PRT_ALL_AXES
100
AcDbLine
 62
7
  6
CONTINUOUS
 10
3.6639906832
 20
6.2689306977
 11
3.6639906832
 21
6.2289306977
  0
LINE
  5
22A
100
AcDbEntity
  8
02___PRT_ALL_AXES
100
AcDbLine
 62
7
  6
CONTINUOUS
 10
3.6989906832
 20
6.3589306977
 11
3.6989906832
 21
6.3639306977
  0
LINE
  5
22B
100
AcDbEntity
  8
0
100
AcDbLine
 62
7
  6
CONTINUOUS
 10
4.6989906832
 20
4.026404498
 11
3.9489906832
 21
4.026404498
  0
LINE
  5
22C
100
AcDbEntity
  8
02___PRT_ALL_AXES
100
AcDbLine
 62
7
  6
CONTINUOUS
 10
3.8864906832
 20
6.0856826421
 11
3.8864906832
 21
5.8489306977
  0
LINE
  5
22D
100
AcDbEntity
  8
02___PRT_ALL_AXES
100
AcDbLine
 62
7
  6
CONTINUOUS
 10
3.8964906832
 20
3.3373120654
 11
3.8964906832
 21
3.3288944133
  0
LINE
  5
22E
100
AcDbEntity
  8
0
100
AcDbLine
 62
7
  6
CONTINUOUS
 10
3.9489906832
 20
5.8489306977
 11
3.9489906832
 21
3.3489306977
  0
LINE
  5
22F
100
AcDbEntity
  8
0
100
AcDbLine
 62
7
  6
CONTINUOUS
 10
4.6989906832
 20
5.8489306977
 11
4.6989906832
 21
3.3489306977
  0
LINE
  5
230
100
AcDbEntity
  8
02___PRT_ALL_AXES
100
AcDbLine
 62
7
  6
CONTINUOUS
 10
4.7514906832
 20
3.3373120654
 11
4.7514906832
 21
3.3288944133
  0
LINE
  5
231
100
AcDbEntity
  8
02___PRT_ALL_AXES
100
AcDbLine
 62
7
  6
CONTINUOUS
 10
4.7614906832
 20
6.0856826421
 11
4.7614906832
 21
5.8489306977
  0
LINE
  5
232
100
AcDbEntity
  8
02___PRT_ALL_AXES
100
AcDbLine
 62
7
  6
CONTINUOUS
 10
4.9489906832
 20
6.3589306977
 11
4.9489906832
 21
6.3639306977
  0
LINE
  5
233
100
AcDbEntity
  8
02___PRT_ALL_AXES
100
AcDbLine
 62
7
  6
CONTINUOUS
 10
4.9839906832
 20
6.2689306977
 11
4.9839906832
 21
6.2289306977
  0
LINE
  5
234
100
AcDbEntity
  8
02___PRT_ALL_AXES
100
AcDbLine
 62
7
  6
CONTINUOUS
 10
4.7614906832
 20
5.8489306977
 11
3.8864906832
 21
5.8489306977
  0
LINE
  5
235
100
AcDbEntity
  8
02___PRT_ALL_AXES
100
AcDbLine
 62
7
  6
CONTINUOUS
 10
3.8864906832
 20
6.0856826421
 11
4.7614906832
 21
6.0856826421
  0
LINE
  5
236
100
AcDbEntity
  8
02___PRT_ALL_AXES
100
AcDbLine
 62
7
  6
CONTINUOUS
 10
4.8939906832
 20
6.1389306977
 11
3.7539906832
 21
6.1389306977
  0
LINE
  5
237
100
AcDbEntity
  8
02___PRT_ALL_AXES
100
AcDbLine
 62
7
  6
CONTINUOUS
 10
4.9839906832
 20
6.2289306977
 11
3.6639906832
 21
6.2289306977
  0
LINE
  5
238
100
AcDbEntity
  8
02___PRT_ALL_AXES
100
AcDbLine
 62
7
  6
CONTINUOUS
 10
4.9839906832
 20
6.2689306977
 11
3.6639906832
 21
6.2689306977
  0
LINE
  5
239
100
AcDbEntity
  8
02___PRT_ALL_AXES
100
AcDbLine
 62
7
  6
CONTINUOUS
 10
5.0739906832
 20
6.3589306977
 11
3.5739906832
 21
6.3589306977
  0
LINE
  5
23A
100
AcDbEntity
  8
02___PRT_ALL_AXES
100
AcDbLine
 62
7
  6
CONTINUOUS
 10
3.6989980065
 20
6.3639306977
 11
4.94898336
 21
6.3639306977
  0
ARC
  5
23B
100
AcDbEntity
  8
02___PRT_ALL_AXES
100
AcDbCircle
 62
7
  6
CONTINUOUS
 10
4.3244375867
 20
6.953430595
 40
0.972
100
AcDbArc
 50
236.9256234729
 51
243.2202107746
  0
ARC
  5
23C
100
AcDbEntity
  8
02___PRT_ALL_AXES
100
AcDbCircle
 62
7
  6
CONTINUOUS
 10
4.3235437798
 20
6.953430595
 40
0.972
100
AcDbArc
 50
296.7797892254
 51
303.0743765271
  0
ARC
  5
23D
100
AcDbEntity
  8
0
100
AcDbCircle
 62
7
  6
CONTINUOUS
 10
4.3116615663
 20
3.3371390722
 40
0.4151751356
100
AcDbArc
 50
150.9144878818
 51
179.9761260149
  0
ARC
  5
23E
100
AcDbEntity
  8
0
100
AcDbCircle
 62
7
  6
CONTINUOUS
 10
4.3365088285
 20
3.3371891268
 40
0.4149822459
100
AcDbArc
 50
0.0169739179
 51
29.0921563664
  0
ARC
  5
23F
100
AcDbEntity
  8
0
100
AcDbCircle
 62
7
  6
CONTINUOUS
 10
4.3096867311
 20
3.3289043832
 40
0.413196048
100
AcDbArc
 50
180.0013824802
 51
183.3934873245
  0
ARC
  5
240
100
AcDbEntity
  8
0
100
AcDbCircle
 62
7
  6
CONTINUOUS
 10
4.3091004034
 20
3.3373132958
 40
0.4126097201
100
AcDbArc
 50
180.0001708541
 51
181.1685396815
  0
ARC
  5
241
100
AcDbEntity
  8
0
100
AcDbCircle
 62
7
  6
CONTINUOUS
 10
4.3388831006
 20
3.3373132557
 40
0.4126075826
100
AcDbArc
 50
358.8314079878
 51
359.9998347154
  0
ARC
  5
242
100
AcDbEntity
  8
02___PRT_ALL_AXES
100
AcDbCircle
 62
7
  6
CONTINUOUS
 10
4.9839906832
 20
6.3589306977
 40
0.09
100
AcDbArc
 50
270.0
 51
360.0
  0
ARC
  5
243
100
AcDbEntity
  8
02___PRT_ALL_AXES
100
AcDbCircle
 62
7
  6
CONTINUOUS
 10
3.6639906832
 20
6.3589306977
 40
0.09
100
AcDbArc
 50
180.0
 51
270.0
  0
ARC
  5
244
100
AcDbEntity
  8
02___PRT_ALL_AXES
100
AcDbCircle
 62
7
  6
CONTINUOUS
 10
4.9839906832
 20
6.1389306977
 40
0.09
100
AcDbArc
 50
90.0
 51
180.0
  0
ARC
  5
245
100
AcDbEntity
  8
02___PRT_ALL_AXES
100
AcDbCircle
 62
7
  6
CONTINUOUS
 10
3.6639906832
 20
6.1389306977
 40
0.09
100
AcDbArc
 50
0.0
 51
90.0
  0
SPLINE
  5
246
100
AcDbEntity
  8
0
100
AcDbSpline
 62
7
  6
CONTINUOUS
 70
0
 71
3
 72
28
 73
24
 74
0
 42
0.0000001
 43
0.0000001
 44
0.0000000001
 40
0.0
 40
0.0
 40
0.0
 40
0.0
 40
0.0629667485
 40
0.12595899
 40
0.1888907444
 40
0.2517628261
 40
0.2831860762
 40
0.3145913794
 40
0.3459762548
 40
0.3773392754
 40
0.4399778711
 40
0.50252121
 40
0.5649675092
 40
0.6273183013
 40
0.6584688963
 40
0.6895978333
 40
0.7207066095
 40
0.7517965272
 40
0.7828689791
 40
0.8139259233
 40
0.8759820667
 40
0.9380005076
 40
1.0
 40
1.0
 40
1.0
 40
1.0
 10
4.3239906833
 20
2.9083368993
 30
0.0
 10
4.3100148128
 20
2.9083368993
 30
0.0
 10
4.2820390328
 20
2.9096919393
 30
0.0
 10
4.2404899006
 20
2.9157466563
 30
0.0
 10
4.1997389821
 20
2.9257859741
 30
0.0
 10
4.1667639974
 20
2.9373894
 30
0.0
 10
4.141180901
 20
2.9485438658
 30
0.0
 10
4.1224320173
 20
2.9578237111
 30
0.0
 10
4.1041683554
 20
2.9679982048
 30
0.0
 10
4.0805379389
 20
2.9827166277
 30
0.0
 10
4.0524143201
 20
3.0032238053
 30
0.0
 10
4.0212784455
 20
3.0309790069
 30
0.0
 10
3.9930504011
 20
3.0616003983
 30
0.0
 10
3.9721738804
 20
3.0892863971
 30
0.0
 10
3.9571919788
 20
3.1125515316
 30
0.0
 10
3.9468419325
 20
3.130520978
 30
0.0
 10
3.9374013166
 20
3.1489687356
 30
0.0
 10
3.9288906036
 20
3.1678497555
 30
0.0
 10
3.9213314454
 20
3.1871197506
 30
0.0
 10
3.9125532408
 20
3.2132580399
 30
0.0
 10
3.9040357689
 20
3.2466853439
 30
0.0
 10
3.8978684627
 20
3.2875868918
 30
0.0
 10
3.8964906737
 20
3.3151334246
 30
0.0
 10
3.8964906832
 20
3.3288946064
 30
0.0
  0
SPLINE
  5
247
100
AcDbEntity
  8
0
100
AcDbSpline
 62
7
  6
CONTINUOUS
 70
0
 71
3
 72
28
 73
24
 74
0
 42
0.0000001
 43
0.0000001
 44
0.0000000001
 40
0.0
 40
0.0
 40
0.0
 40
0.0
 40
0.0619994791
 40
0.1240179099
 40
0.1860740496
 40
0.2171309928
 40
0.2482034457
 40
0.2792933653
 40
0.3104021435
 40
0.3415310834
 40
0.3726816826
 40
0.4350324831
 40
0.4974787925
 40
0.5600221401
 40
0.6226607447
 40
0.654023769
 40
0.6854086477
 40
0.716813953
 40
0.7482372038
 40
0.8111092841
 40
0.8740410361
 40
0.9370332681
 40
1.0
 40
1.0
 40
1.0
 40
1.0
 10
4.7514906832
 20
3.3288942202
 30
0.0
 10
4.7514906737
 20
3.3151330493
 30
0.0
 10
4.7501128734
 20
3.2875865386
 30
0.0
 10
4.7439455256
 20
3.2466850271
 30
0.0
 10
4.7354280445
 20
3.21325775
 30
0.0
 10
4.7266498253
 20
3.1871194831
 30
0.0
 10
4.7190906525
 20
3.1678495062
 30
0.0
 10
4.7105799364
 20
3.1489685
 30
0.0
 10
4.7011393174
 20
3.1305207555
 30
0.0
 10
4.6907892595
 20
3.1125513274
 30
0.0
 10
4.6758073528
 20
3.0892862113
 30
0.0
 10
4.6549308297
 20
3.061600233
 30
0.0
 10
4.6267027798
 20
3.0309788713
 30
0.0
 10
4.5955669075
 20
3.0032236944
 30
0.0
 10
4.5674432931
 20
2.9827165371
 30
0.0
 10
4.5438128828
 20
2.9679981282
 30
0.0
 10
4.5255492248
 20
2.9578236479
 30
0.0
 10
4.5068003484
 20
2.9485438125
 30
0.0
 10
4.4812172641
 20
2.9373893588
 30
0.0
 10
4.4482422959
 20
2.9257859492
 30
0.0
 10
4.4074914023
 20
2.9157466447
 30
0.0
 10
4.3659422998
 20
2.9096919373
 30
0.0
 10
4.3379665419
 20
2.9083368993
 30
0.0
 10
4.3239906832
 20
2.9083368993
 30
0.0
  0
SPLINE
  5
248
100
AcDbEntity
  8
0
100
AcDbSpline
 62
7
  6
CONTINUOUS
 70
0
 71
3
 72
35
 73
31
 74
0
 42
0.0000001
 43
0.0000001
 44
0.0000000001
 40
0.0
 40
0.0
 40
0.0
 40
0.0
 40
0.031130375
 40
0.062236891
 40
0.0933230469
 40
0.1243922687
 40
0.1554481608
 40
0.1864950845
 40
0.2175369387
 40
0.248577959
 40
0.2796226571
 40
0.3106749026
 40
0.3727868017
 40
0.403885715
 40
0.4350073549
 40
0.4661545258
 40
0.4973295893
 40
0.5597404497
 40
0.6222820634
 40
0.6536183614
 40
0.6849873803
 40
0.7163884368
 40
0.7478200946
 40
0.7792804808
 40
0.8107655708
 40
0.8422707347
 40
0.8737951184
 40
0.905340885
 40
0.9369085353
 40
1.0
 40
1.0
 40
1.0
 40
1.0
 10
3.948888402
 20
3.5195775594
 30
0.0
 10
3.9450288526
 20
3.5118024125
 30
0.0
 10
3.9378064753
 20
3.4960072321
 30
0.0
 10
3.9285163253
 20
3.4716816912
 30
0.0
 10
3.9208112694
 20
3.4468253518
 30
0.0
 10
3.9147169523
 20
3.4215406524
 30
0.0
 10
3.9102630414
 20
3.3959269569
 30
0.0
 10
3.9074661906
 20
3.3700876188
 30
0.0
 10
3.9063336314
 20
3.3441260139
 30
0.0
 10
3.9068764431
 20
3.3181463547
 30
0.0
 10
3.9090882921
 20
3.2922510542
 30
0.0
 10
3.9142472098
 20
3.2579849033
 30
0.0
 10
3.9227144878
 20
3.2242680315
 30
0.0
 10
3.9343533864
 20
3.1915923824
 30
0.0
 10
3.9446508569
 20
3.1676603528
 30
0.0
 10
3.9564637842
 20
3.1444157894
 30
0.0
 10
3.9741797971
 20
3.1144623181
 30
0.0
 10
3.9998906019
 20
3.0791755732
 30
0.0
 10
4.0298991464
 20
3.047402998
 30
0.0
 10
4.0561846809
 20
3.0243792755
 30
0.0
 10
4.0769907135
 20
3.0083595354
 30
0.0
 10
4.0987831929
 20
2.993664358
 30
0.0
 10
4.1214774462
 20
2.9803531162
 30
0.0
 10
4.1449835141
 20
2.9684826922
 30
0.0
 10
4.16920333
 20
2.958094409
 30
0.0
 10
4.1940418331
 20
2.9492334574
 30
0.0
 10
4.2194007007
 20
2.9419358255
 30
0.0
 10
4.2451835641
 20
2.9362265947
 30
0.0
 10
4.2799650645
 20
2.9307751031
 30
0.0
 10
4.306398283
 20
2.9291252714
 30
0.0
 10
4.3239906832
 20
2.9291252714
 30
0.0
  0
SPLINE
  5
249
100
AcDbEntity
  8
0
100
AcDbSpline
 62
7
  6
CONTINUOUS
 70
0
 71
3
 72
29
 73
25
 74
0
 42
0.0000001
 43
0.0000001
 44
0.0000000001
 40
0.0
 40
0.0
 40
0.0
 40
0.0
 40
0.0629885878
 40
0.1260021875
 40
0.1574956052
 40
0.1889723826
 40
0.2204338018
 40
0.2518810033
 40
0.2833125399
 40
0.31472558
 40
0.3461174881
 40
0.3774866144
 40
0.4401350184
 40
0.5026838224
 40
0.5651310953
 40
0.6274776237
 40
0.6586239142
 40
0.6897471273
 40
0.7208487329
 40
0.7519301514
 40
0.8140195914
 40
0.8760495543
 40
0.9380365334
 40
1.0
 40
1.0
 40
1.0
 40
1.0
 10
4.3239906832
 20
2.9169636625
 30
0.0
 10
4.3377916904
 20
2.9169636625
 30
0.0
 10
4.3654157206
 20
2.9182842339
 30
0.0
 10
4.3996260414
 20
2.9232035667
 30
0.0
 10
4.4266052281
 20
2.9290833076
 30
0.0
 10
4.4465957945
 20
2.9344500502
 30
0.0
 10
4.4662974215
 20
2.9407617731
 30
0.0
 10
4.4856649906
 20
2.9480063265
 30
0.0
 10
4.504654115
 20
2.9561647725
 30
0.0
 10
4.5232203756
 20
2.9652166241
 30
0.0
 10
4.5413194404
 20
2.9751425883
 30
0.0
 10
4.5647549643
 20
2.9895047127
 30
0.0
 10
4.592684819
 20
3.0095216377
 30
0.0
 10
4.6236806928
 20
3.0366281662
 30
0.0
 10
4.6518692283
 20
3.0665529884
 30
0.0
 10
4.6728036175
 20
3.093629958
 30
0.0
 10
4.6878887361
 20
3.1163988174
 30
0.0
 10
4.6983459176
 20
3.1339920021
 30
0.0
 10
4.7079224523
 20
3.1520635354
 30
0.0
 10
4.7194855355
 20
3.1767246976
 30
0.0
 10
4.7316420958
 20
3.208546115
 30
0.0
 10
4.7424024941
 20
3.2479447405
 30
0.0
 10
4.7492344007
 20
3.2881809253
 30
0.0
 10
4.751128017
 20
3.3153248097
 30
0.0
 10
4.7514048664
 20
3.3288983864
 30
0.0
  0
SPLINE
  5
24A
100
AcDbEntity
  8
0
100
AcDbSpline
 62
7
  6
CONTINUOUS
 70
0
 71
3
 72
35
 73
31
 74
0
 42
0.0000001
 43
0.0000001
 44
0.0000000001
 40
0.0
 40
0.0
 40
0.0
 40
0.0
 40
0.0630914702
 40
0.094659123
 40
0.1262048931
 40
0.1577292811
 40
0.1892344486
 40
0.2207195391
 40
0.2521799199
 40
0.2836115653
 40
0.3150126069
 40
0.3463816157
 40
0.3777179132
 40
0.440259528
 40
0.50267037
 40
0.5338454309
 40
0.5649926067
 40
0.596114251
 40
0.6272131622
 40
0.68932505
 40
0.7203773007
 40
0.7514220076
 40
0.782463033
 40
0.8135048855
 40
0.8445518062
 40
0.875607702
 40
0.9066769355
 40
0.9377631031
 40
0.9688696245
 40
1.0
 40
1.0
 40
1.0
 40
1.0
 10
4.3239906832
 20
2.9291252714
 30
0.0
 10
4.3415831067
 20
2.9291252714
 30
0.0
 10
4.3680163605
 20
2.9307751015
 30
0.0
 10
4.402797906
 20
2.9362266082
 30
0.0
 10
4.428580801
 20
2.9419358613
 30
0.0
 10
4.4539396981
 20
2.9492335199
 30
0.0
 10
4.4787782291
 20
2.9580944966
 30
0.0
 10
4.5029980704
 20
2.9684828021
 30
0.0
 10
4.526504158
 20
2.9803532486
 30
0.0
 10
4.5491984237
 20
2.9936645155
 30
0.0
 10
4.570990911
 20
3.008359721
 30
0.0
 10
4.5917969477
 20
3.0243794973
 30
0.0
 10
4.6180824912
 20
3.0474032709
 30
0.0
 10
4.6480910417
 20
3.0791759076
 30
0.0
 10
4.6738018408
 20
3.1144627176
 30
0.0
 10
4.691517828
 20
3.1444162489
 30
0.0
 10
4.7033307421
 20
3.1676608569
 30
0.0
 10
4.7136281955
 20
3.1915929313
 30
0.0
 10
4.7252670578
 20
3.224268636
 30
0.0
 10
4.733734296
 20
3.2579855602
 30
0.0
 10
4.7388931534
 20
3.2922517643
 30
0.0
 10
4.7411049646
 20
3.3181471055
 30
0.0
 10
4.7416477259
 20
3.3441268014
 30
0.0
 10
4.7405151161
 20
3.3700884363
 30
0.0
 10
4.7377182124
 20
3.3959278009
 30
0.0
 10
4.7332642321
 20
3.4215415205
 30
0.0
 10
4.7271698509
 20
3.446826245
 30
0.0
 10
4.7194647287
 20
3.4716826062
 30
0.0
 10
4.7101745047
 20
3.4960081584
 30
0.0
 10
4.7029520812
 20
3.511803343
 30
0.0
 10
4.6990925077
 20
3.5195784902
 30
0.0
  0
SPLINE
  5
24B
100
AcDbEntity
  8
02___PRT_ALL_AXES
100
AcDbSpline
 62
7
  6
CONTINUOUS
 70
0
 71
3
 72
26
 73
22
 74
0
 42
0.0000001
 43
0.0000001
 44
0.0000000001
 40
0.0
 40
0.0
 40
0.0
 40
0.0
 40
0.0629944783
 40
0.1260222136
 40
0.1889865881
 40
0.2518832745
 40
0.3147143477
 40
0.3461087858
 40
0.3774799712
 40
0.4401305054
 40
0.4714270918
 40
0.5026980075
 40
0.5651441814
 40
0.5963382032
 40
0.6275074079
 40
0.6897562126
 40
0.7519182862
 40
0.8140072264
 40
0.8760380638
 40
0.9380292471
 40
1.0
 40
1.0
 40
1.0
 40
1.0
 10
4.3239906832
 20
2.9802040285
 30
0.0
 10
4.3117292411
 20
2.9802040285
 30
0.0
 10
4.2871837441
 20
2.9813935609
 30
0.0
 10
4.2507290889
 20
2.9867029135
 30
0.0
 10
4.2149733424
 20
2.9955103734
 30
0.0
 10
4.1802737382
 20
3.0077157702
 30
0.0
 10
4.1524960323
 20
3.0206347639
 30
0.0
 10
4.1311304832
 20
3.0325327114
 30
0.0
 10
4.110401136
 20
3.045439591
 30
0.0
 10
4.090654839
 20
3.0598381395
 30
0.0
 10
4.07206031
 20
3.0756073138
 30
0.0
 10
4.0542912373
 20
3.0922429007
 30
0.0
 10
4.0377796568
 20
3.110152556
 30
0.0
 10
4.0226710664
 20
3.1291862024
 30
0.0
 10
4.008543388
 20
3.1489124728
 30
0.0
 10
3.9927494734
 20
3.1748130081
 30
0.0
 10
3.9769890204
 20
3.2075789007
 30
0.0
 10
3.9645652378
 20
3.2417063375
 30
0.0
 10
3.9556092048
 20
3.2768696008
 30
0.0
 10
3.9501958378
 20
3.3127226668
 30
0.0
 10
3.9489918328
 20
3.3368685167
 30
0.0
 10
3.9489918328
 20
3.3489306977
 30
0.0
  0
SPLINE
  5
24C
100
AcDbEntity
  8
0
100
AcDbSpline
 62
7
  6
CONTINUOUS
 70
0
 71
3
 72
26
 73
22
 74
0
 42
0.0000001
 43
0.0000001
 44
0.0000000001
 40
0.0
 40
0.0
 40
0.0
 40
0.0
 40
0.0619603051
 40
0.1239505791
 40
0.18598862
 40
0.2480898397
 40
0.310267583
 40
0.3725325962
 40
0.4348920783
 40
0.4973506226
 40
0.5599078371
 40
0.6225618126
 40
0.6539320022
 40
0.6853240889
 40
0.7167361838
 40
0.7481657309
 40
0.8110515835
 40
0.8425254841
 40
0.8740158964
 40
0.9370219437
 40
1.0
 40
1.0
 40
1.0
 40
1.0
 10
3.8972151965
 20
3.3044461085
 30
0.0
 10
3.8979989902
 20
3.2912254847
 30
0.0
 10
3.9008381451
 20
3.264835382
 30
0.0
 10
3.9088810785
 20
3.2258435586
 30
0.0
 10
3.9206270468
 20
3.1877676942
 30
0.0
 10
3.9359812925
 20
3.1509561891
 30
0.0
 10
3.9547956905
 20
3.1157321736
 30
0.0
 10
3.9769120469
 20
3.0824159394
 30
0.0
 10
4.0021235472
 20
3.0512991702
 30
0.0
 10
4.0302124021
 20
3.0226650173
 30
0.0
 10
4.060920061
 20
2.996764783
 30
0.0
 10
4.0884646435
 20
2.9776582923
 30
0.0
 10
4.111516993
 20
2.9639595239
 30
0.0
 10
4.129292202
 20
2.9544966672
 30
0.0
 10
4.1475018566
 20
2.9458696012
 30
0.0
 10
4.1723047801
 20
2.9355053755
 30
0.0
 10
4.1978226724
 20
2.9268875321
 30
0.0
 10
4.2238547825
 20
2.9200792145
 30
0.0
 10
4.250201761
 20
2.9144829593
 30
0.0
 10
4.2835851591
 20
2.909802638
 30
0.0
 10
4.3105293045
 20
2.9085460104
 30
0.0
 10
4.3239906832
 20
2.9085460104
 30
0.0
  0
SPLINE
  5
24D
100
AcDbEntity
  8
0
100
AcDbSpline
 62
7
  6
CONTINUOUS
 70
0
 71
3
 72
29
 73
25
 74
0
 42
0.0000001
 43
0.0000001
 44
0.0000000001
 40
0.0
 40
0.0
 40
0.0
 40
0.0
 40
0.0619634484
 40
0.1239504207
 40
0.185980394
 40
0.2480698302
 40
0.2791512414
 40
0.3102528417
 40
0.3413760564
 40
0.3725223544
 40
0.4348688965
 40
0.4973161639
 40
0.5598649678
 40
0.6225133961
 40
0.6538825348
 40
0.6852744505
 40
0.7166874928
 40
0.7481190283
 40
0.7795662264
 40
0.8110276411
 40
0.8425044135
 40
0.8739978264
 40
0.9370114186
 40
1.0
 40
1.0
 40
1.0
 40
1.0
 10
3.8965764929
 20
3.3288987597
 30
0.0
 10
3.89685333
 20
3.3153251791
 30
0.0
 10
3.8987469158
 20
3.2881812823
 30
0.0
 10
3.9055788043
 20
3.247945074
 30
0.0
 10
3.9163391698
 20
3.2085464158
 30
0.0
 10
3.9284957159
 20
3.1767249722
 30
0.0
 10
3.9400587838
 20
3.1520637897
 30
0.0
 10
3.9496353109
 20
3.1339922419
 30
0.0
 10
3.9600924925
 20
3.1163990428
 30
0.0
 10
3.9751776077
 20
3.0936301567
 30
0.0
 10
3.9961119941
 20
3.0665531559
 30
0.0
 10
4.0243005298
 20
3.0366282992
 30
0.0
 10
4.0552964161
 20
3.0095217429
 30
0.0
 10
4.0832262862
 20
2.9895047923
 30
0.0
 10
4.1066618263
 20
2.9751426458
 30
0.0
 10
4.124760903
 20
2.9652166689
 30
0.0
 10
4.1433271739
 20
2.9561648074
 30
0.0
 10
4.1623163074
 20
2.9480063538
 30
0.0
 10
4.1816838844
 20
2.940761794
 30
0.0
 10
4.201385519
 20
2.9344500656
 30
0.0
 10
4.2213760931
 20
2.9290833184
 30
0.0
 10
4.2483552909
 20
2.9232035724
 30
0.0
 10
4.2825656268
 20
2.9182842352
 30
0.0
 10
4.3101896697
 20
2.9169636625
 30
0.0
 10
4.3239906832
 20
2.9169636625
 30
0.0
  0
SPLINE
  5
24E
100
AcDbEntity
  8
02___PRT_ALL_AXES
100
AcDbSpline
 62
7
  6
CONTINUOUS
 70
0
 71
3
 72
26
 73
22
 74
0
 42
0.0000001
 43
0.0000001
 44
0.0000000001
 40
0.0
 40
0.0
 40
0.0
 40
0.0
 40
0.0619707529
 40
0.1239619362
 40
0.1859927736
 40
0.2480817138
 40
0.3102437874
 40
0.3724925921
 40
0.4036617968
 40
0.4348558186
 40
0.4973019925
 40
0.5285729082
 40
0.5598694946
 40
0.6225200288
 40
0.6538912142
 40
0.6852856523
 40
0.7481167255
 40
0.8110134119
 40
0.8739777864
 40
0.9370055217
 40
1.0
 40
1.0
 40
1.0
 40
1.0
 10
4.6989895337
 20
3.3489306977
 30
0.0
 10
4.6989895337
 20
3.3368685167
 30
0.0
 10
4.6977855286
 20
3.3127226668
 30
0.0
 10
4.6923721617
 20
3.2768696008
 30
0.0
 10
4.6834161286
 20
3.2417063375
 30
0.0
 10
4.6709923461
 20
3.2075789007
 30
0.0
 10
4.6552318931
 20
3.1748130081
 30
0.0
 10
4.6394379785
 20
3.1489124728
 30
0.0
 10
4.6253103001
 20
3.1291862024
 30
0.0
 10
4.6102017096
 20
3.110152556
 30
0.0
 10
4.5936901291
 20
3.0922429007
 30
0.0
 10
4.5759210565
 20
3.0756073138
 30
0.0
 10
4.5573265274
 20
3.0598381395
 30
0.0
 10
4.5375802305
 20
3.045439591
 30
0.0
 10
4.5168508833
 20
3.0325327114
 30
0.0
 10
4.4954853341
 20
3.0206347639
 30
0.0
 10
4.4677076283
 20
3.0077157702
 30
0.0
 10
4.4330080241
 20
2.9955103734
 30
0.0
 10
4.3972522776
 20
2.9867029135
 30
0.0
 10
4.3607976223
 20
2.9813935609
 30
0.0
 10
4.3362521254
 20
2.9802040285
 30
0.0
 10
4.3239906832
 20
2.9802040285
 30
0.0
  0
SPLINE
  5
24F
100
AcDbEntity
  8
0
100
AcDbSpline
 62
7
  6
CONTINUOUS
 70
0
 71
3
 72
28
 73
24
 74
0
 42
0.0000001
 43
0.0000001
 44
0.0000000001
 40
0.0
 40
0.0
 40
0.0
 40
0.0
 40
0.0629971738
 40
0.126018724
 40
0.1889774923
 40
0.2518733956
 40
0.2833070756
 40
0.3147216753
 40
0.346114604
 40
0.3774843472
 40
0.440132164
 40
0.5026787416
 40
0.5651222064
 40
0.6274641917
 40
0.6586082571
 40
0.6897293172
 40
0.7208289446
 40
0.7519085321
 40
0.7829695616
 40
0.8140140885
 40
0.8760429082
 40
0.9380315631
 40
1.0
 40
1.0
 40
1.0
 40
1.0
 10
4.3239906832
 20
2.9085460104
 30
0.0
 10
4.3379698582
 20
2.9085460104
 30
0.0
 10
4.3659519929
 20
2.9099010203
 30
0.0
 10
4.4075101467
 20
2.9159554915
 30
0.0
 10
4.4482688787
 20
2.9259941615
 30
0.0
 10
4.481249483
 20
2.9375966012
 30
0.0
 10
4.5068361589
 20
2.9487498135
 30
0.0
 10
4.5255868772
 20
2.9580282169
 30
0.0
 10
4.543851792
 20
2.9682008434
 30
0.0
 10
4.5674825642
 20
2.9829157781
 30
0.0
 10
4.5956051936
 20
3.0034169607
 30
0.0
 10
4.6267385415
 20
3.0311627469
 30
0.0
 10
4.6549622918
 20
3.0617715882
 30
0.0
 10
4.6758347001
 20
3.0894449287
 30
0.0
 10
4.6908128228
 20
3.1126982541
 30
0.0
 10
4.7011596818
 20
3.1306576017
 30
0.0
 10
4.7105971273
 20
3.1490944212
 30
0.0
 10
4.7191047433
 20
3.1679637128
 30
0.0
 10
4.7266609434
 20
3.1872212397
 30
0.0
 10
4.7354353963
 20
3.2133416383
 30
0.0
 10
4.7439490571
 20
3.2467452119
 30
0.0
 10
4.7501135346
 20
3.2876170863
 30
0.0
 10
4.7514906768
 20
3.3151433236
 30
0.0
 10
4.7514906832
 20
3.3288942202
 30
0.0
  0
ENDSEC
  0
SECTION
  2
OBJECTS
  0
DICTIONARY
  5
C
100
AcDbDictionary
280
0
281
1
  3
ACAD_GROUP
350
D
  3
ACAD_MLINESTYLE
350
17
  3
ACAD_LAYOUT
350
1A
  3
ACAD_PLOTSETTINGS
350
19
  3
ACAD_PLOTSTYLENAME
350
E
  0
DICTIONARY
  5
D
102
{ACAD_REACTORS
330
C
102
}
100
AcDbDictionary
280
0
281
1
  0
ACDBDICTIONARYWDFLT
  5
E
102
{ACAD_REACTORS
330
C
102
}
100
AcDbDictionary
281
1
  3
Normal
350
F
100
AcDbDictionaryWithDefault
340
F
  0
DICTIONARY
  5
17
102
{ACAD_REACTORS
330
C
102
}
100
AcDbDictionary
280
0
281
1
  3
Standard
350
18
  0
DICTIONARY
  5
19
102
{ACAD_REACTORS
330
C
102
}
100
AcDbDictionary
281
1
  0
DICTIONARY
  5
1A
102
{ACAD_REACTORS
330
C
102
}
100
AcDbDictionary
281
1
  3
Model
350
250
  3
Layout1
350
251
  0
ACDBPLACEHOLDER
  5
F
102
{ACAD_REACTORS
330
E
102
}
  0
MLINESTYLE
  5
18
102
{ACAD_REACTORS
330
17
102
}
100
AcDbMlineStyle
  2
STANDARD
 70
0
  3

 62
256
 51
90.0
 52
90.0
 71
2
 49
0.5
 62
256
  6
BYLAYER
 49
-0.5
 62
256
  6
BYLAYER
  0
LAYOUT
  5
250
102
{ACAD_REACTORS
330
1A
102
}
100
AcDbPlotSettings
  1

  2
none_device
  4
ANSI_A_(11.00_x_8.50_Inches)
  6

 40
0.0
 41
0.0
 42
0.0
 43
0.0
 44
279.4
 45
215.9
 46
0.0
 47
0.0
 48
0.0
 49
0.0
140
0.0
141
0.0
142
1.0
143
1.0
 70
1024
 72
0
 73
0
 74
0
  7

 75
0
147
1.0
148
0.0
149
0.0
100
AcDbLayout
  1
Model
 70
0
 71
0
 10
0.0
 20
0.0
 11
11.0
 21
8.5
 12
0.0
 22
0.0
 32
0.0
 14
0.0
 24
0.0
 34
0.0
 15
0.0
 25
0.0
 35
0.0
146
0.0
 13
0.0
 23
0.0
 33
0.0
 16
1.0
 26
0.0
 36
0.0
 17
0.0
 27
1.0
 37
0.0
 76
0
330
21D
345
0
346
0
  0
LAYOUT
  5
251
102
{ACAD_REACTORS
330
1A
102
}
100
AcDbPlotSettings
  1

  2
none_device
  4
ANSI_A_(11.00_x_8.50_Inches)
  6

 40
0.0
 41
0.0
 42
0.0
 43
0.0
 44
279.4
 45
215.9
 46
0.0
 47
0.0
 48
0.0
 49
0.0
140
0.0
141
0.0
142
1.0
143
1.0
 70
0
 72
0
 73
0
 74
0
  7

 75
0
147
1.0
148
0.0
149
0.0
100
AcDbLayout
  1
Layout1
 70
0
 71
1
 10
0.0
 20
0.0
 11
11.0
 21
8.5
 12
0.0
 22
0.0
 32
0.0
 14
0.0
 24
0.0
 34
0.0
 15
0.0
 25
0.0
 35
0.0
146
0.0
 13
0.0
 23
0.0
 33
0.0
 16
1.0
 26
0.0
 36
0.0
 17
0.0
 27
1.0
 37
0.0
 76
0
330
21E
345
0
346
0
  0
ENDSEC
  0
EOF
