999
DXF file: 3-447_Right.dxf
999
Pro/ENGINEER 2023134 by Parametric Technology Corporation
  0
SECTION
  2
HEADER
  9
$ACADVER
  1
AC1032
  9
$DWGCODEPAGE
  3
ANSI_1252
  9
$EXTMAX
 10
11.0
 20
8.5
 30
0.0
  9
$EXTMIN
 10
0.0
 20
0.0
 30
0.0
  9
$LIMMIN
 10
0.0
 20
0.0
  9
$LIMMAX
 10
11.0
 20
8.5
  9
$VIEWCTR
 10
5.5
 20
4.25
  9
$VIEWSIZE
 40
8.5
  9
$CLAYER
  8
0
  9
$LTSCALE
 40
0.605
  9
$CELTYPE
  6
BYLAYER
  9
$DIMSCALE
 40
1.0
  9
$DIMASZ
 40
0.1
  9
$DIMEXO
 40
0.0625
  9
$DIMDLI
 40
0.418
  9
$DIMEXE
 40
0.125
  9
$DIMCEN
 40
0.099
  9
$DIMLFAC
 40
1.0
  9
$DIMBLK
  1
_FILLED
  9
$DIMALT
 70
1
  9
$DIMALTD
 70
2
  9
$DIMALTTD
 70
2
  9
$DIMALTF
 40
25.4
  9
$DIMTXT
 40
0.08
  9
$DIMTOL
 70
1
  9
$DIMLIM
 70
0
  9
$DIMTFAC
 40
1.0
  9
$DIMTP
 40
0.001
  9
$DIMTM
 40
0.001
  9
$DIMGAP
 40
0.09
  9
$DIMDSEP
 70
46
  9
$AUNITS
 70
0
  9
$PDMODE
 70
3
  9
$PDSIZE
 40
0.3125
  9
$HANDSEED
  5
2B2
  9
$TILEMODE
 70
1
  9
$MEASUREMENT
 70
0
  9
$INSUNITS
 70
1
  0
ENDSEC
  0
SECTION
  2
CLASSES
  0
CLASS
  1
ACDBDICTIONARYWDFLT
  2
AcDbDictionaryWithDefault
  3
AutoCAD 2000
 90
0
 91
1
280
0
281
0
  0
CLASS
  1
ACDBPLACEHOLDER
  2
AcDbPlaceHolder
  3
AutoCAD 2000
 90
0
 91
1
280
0
281
0
  0
CLASS
  1
LAYOUT
  2
AcDbLayout
  3
AutoCAD 2000
 90
0
 91
0
280
0
281
0
  0
ENDSEC
  0
SECTION
  2
TABLES
  0
TABLE
  2
VPORT
  5
8
100
AcDbSymbolTable
 70
2
  0
VPORT
  5
1F4
100
AcDbSymbolTableRecord
100
AcDbViewportTableRecord
  2
*ACTIVE
 70
0
 10
0.0
 20
0.0
 11
1.0
 21
1.0
 12
5.5
 22
4.25
 13
0.0
 23
0.0
 14
1.0
 24
1.0
 15
0.0
 25
0.0
 16
0.0
 26
0.0
 36
1.0
 17
0.0
 27
0.0
 37
0.0
 40
8.5
 41
1.2941176471
 42
50.0
 43
0.0
 44
0.0
 50
0.0
 51
0.0
 71
0
 72
100
 73
1
 74
1
 75
0
 76
0
 77
0
 78
0
  0
ENDTAB
  0
TABLE
  2
LTYPE
  5
5
100
AcDbSymbolTable
 70
6
  0
LTYPE
  5
14
100
AcDbSymbolTableRecord
100
AcDbLinetypeTableRecord
  2
BYBLOCK
 70
0
  3

 72
65
 73
0
 40
0.0
  0
LTYPE
  5
15
100
AcDbSymbolTableRecord
100
AcDbLinetypeTableRecord
  2
BYLAYER
 70
0
  3

 72
65
 73
0
 40
0.0
  0
LTYPE
  5
16
100
AcDbSymbolTableRecord
100
AcDbLinetypeTableRecord
  2
CONTINUOUS
 70
64
  3
Solid line
 72
65
 73
0
 40
0.0
  0
LTYPE
  5
1F5
100
AcDbSymbolTableRecord
100
AcDbLinetypeTableRecord
  2
CENTER
 70
64
  3
____ _ ____ _ ____ _ ____ _ ____ _ ____ _ ____
 72
65
 73
4
 40
0.6
 49
0.375
 74
0
 49
-0.075
 74
0
 49
0.075
 74
0
 49
-0.075
 74
0
  0
LTYPE
  5
1F6
100
AcDbSymbolTableRecord
100
AcDbLinetypeTableRecord
  2
HIDDEN
 70
64
  3
- - - - - - - - - - - - - - - - - - - -
 72
65
 73
2
 40
0.2
 49
0.1
 74
0
 49
-0.1
 74
0
  0
LTYPE
  5
1F7
100
AcDbSymbolTableRecord
100
AcDbLinetypeTableRecord
  2
PHANTOM
 70
64
  3
_____ _ _ _____ _ _ _____ _ _ _____
 72
65
 73
6
 40
0.8
 49
0.45
 74
0
 49
-0.05
 74
0
 49
0.1
 74
0
 49
-0.05
 74
0
 49
0.1
 74
0
 49
-0.05
 74
0
  0
LTYPE
  5
1F8
100
AcDbSymbolTableRecord
100
AcDbLinetypeTableRecord
  2
DOT
 70
64
  3
. . . . . . . . . . . . . . . . . . . .
 72
65
 73
2
 40
0.2
 49
0.1
 74
0
 49
-0.1
 74
0
  0
LTYPE
  5
1F9
100
AcDbSymbolTableRecord
100
AcDbLinetypeTableRecord
  2
DASHED
 70
64
  3
- - - - - - - - - - - - - - - - - - - -
 72
65
 73
2
 40
0.2
 49
0.1
 74
0
 49
-0.1
 74
0
  0
ENDTAB
  0
TABLE
  2
LAYER
  5
2
100
AcDbSymbolTable
 70
36
  0
LAYER
  5
10
100
AcDbSymbolTableRecord
100
AcDbLayerTableRecord
  2
0
 70
0
 62
7
  6
CONTINUOUS
370
-3
390
F
  0
LAYER
  5
1FA
100
AcDbSymbolTableRecord
100
AcDbLayerTableRecord
  2
DEFAULT_1
 70
0
 62
7
  6
CENTER
370
-3
390
F
  0
LAYER
  5
1FB
100
AcDbSymbolTableRecord
100
AcDbLayerTableRecord
  2
DEFAULT_2
 70
0
 62
8
  6
HIDDEN
370
-3
390
F
  0
LAYER
  5
1FC
100
AcDbSymbolTableRecord
100
AcDbLayerTableRecord
  2
DEFAULT_3
 70
0
 62
7
  6
PHANTOM
370
-3
390
F
  0
LAYER
  5
1FD
100
AcDbSymbolTableRecord
100
AcDbLayerTableRecord
  2
DEFAULT_COORDINATE_SYSTEM
 70
0
 62
7
  6
CONTINUOUS
370
-3
390
F
  0
LAYER
  5
1FE
100
AcDbSymbolTableRecord
100
AcDbLayerTableRecord
  2
DEFAULT_DATUM_AXES
 70
0
 62
7
  6
CONTINUOUS
370
-3
390
F
  0
LAYER
  5
1FF
100
AcDbSymbolTableRecord
100
AcDbLayerTableRecord
  2
DEFAULT_DATUM_CURVES
 70
0
 62
7
  6
CONTINUOUS
370
-3
390
F
  0
LAYER
  5
200
100
AcDbSymbolTableRecord
100
AcDbLayerTableRecord
  2
DEFAULT_DATUM_PLANES
 70
0
 62
7
  6
CONTINUOUS
370
-3
390
F
  0
ENDTAB
  0
TABLE
  2
STYLE
  5
3
100
AcDbSymbolTable
 70
1
  0
STYLE
  5
11
100
AcDbSymbolTableRecord
100
AcDbTextStyleTableRecord
  2
STANDARD
 70
0
 40
0.0
 41
0.8
 50
0.0
 71
0
 42
0.2
  3
txt
  4

  0
STYLE
  5
201
100
AcDbSymbolTableRecord
100
AcDbTextStyleTableRecord
  2
TEXTSTYLE_1
 70
0
 40
0.0
 41
0.8
 50
0.0
 71
0
 42
0.2
  3
gdt
  4

  0
ENDTAB
  0
TABLE
  2
VIEW
  5
6
100
AcDbSymbolTable
 70
0
  0
ENDTAB
  0
TABLE
  2
UCS
  5
7
100
AcDbSymbolTable
 70
0
  0
ENDTAB
  0
TABLE
  2
APPID
  5
9
100
AcDbSymbolTable
 70
1
  0
APPID
  5
202
100
AcDbSymbolTableRecord
100
AcDbRegAppTableRecord
  2
ACAD
 70
0
  0
ENDTAB
  0
TABLE
  2
BLOCK_RECORD
  5
1
100
AcDbSymbolTable
 70
0
  0
BLOCK_RECORD
  5
203
100
AcDbSymbolTableRecord
100
AcDbBlockTableRecord
  2
*Model_Space
  0
BLOCK_RECORD
  5
204
100
AcDbSymbolTableRecord
100
AcDbBlockTableRecord
  2
*Paper_Space
  0
BLOCK_RECORD
  5
205
100
AcDbSymbolTableRecord
100
AcDbBlockTableRecord
  2
_FILLED
  0
ENDTAB
  0
TABLE
  2
DIMSTYLE
  5
A
100
AcDbSymbolTable
 70
1
100
AcDbDimStyleTable
 71
0
  0
DIMSTYLE
105
206
100
AcDbSymbolTableRecord
100
AcDbDimStyleTableRecord
  2
STANDARD
 70
0
  3

  4

 40
1.0
 41
0.1
 42
0.0625
 43
0.38
 44
0.125
 45
0.0
 46
0.0
 47
0.001
 48
0.001
140
0.08
141
0.09
142
0.0
143
25.4
144
1.0
145
0.0
146
1.0
147
0.09
 71
1
 72
0
 73
1
 74
1
 75
0
 76
0
 77
0
 78
4
 79
1
170
1
171
2
172
0
173
0
174
0
175
0
176
0
177
0
178
0
270
2
179
3
271
3
272
3
273
2
274
2
275
0
280
0
281
0
282
0
283
1
284
4
285
0
286
0
287
3
288
0
340
11
278
46
341
205
342
205
343
205
344
205
  0
ENDTAB
  0
ENDSEC
  0
SECTION
  2
BLOCKS
  0
BLOCK
  5
20
100
AcDbEntity
  8
0
100
AcDbBlockBegin
  2
*Model_Space
 70
0
 10
0.0
 20
0.0
 30
0.0
  3
*Model_Space
  1

  0
ENDBLK
  5
21
100
AcDbEntity
  8
0
100
AcDbBlockEnd
  0
BLOCK
  5
1C
100
AcDbEntity
  8
0
100
AcDbBlockBegin
  2
*Paper_Space
 70
0
 10
0.0
 20
0.0
 30
0.0
  3
*Paper_Space
  1

  0
ENDBLK
  5
1D
100
AcDbEntity
  8
0
100
AcDbBlockEnd
  0
BLOCK
  5
207
100
AcDbEntity
  8
0
100
AcDbBlockBegin
  2
_FILLED
 70
64
 10
0.0
 20
0.0
  3
_FILLED
  1

  0
SOLID
  5
208
100
AcDbEntity
  8
0
  6
BYBLOCK
 62
0
100
AcDbTrace
 10
0.0
 20
0.0
 11
-1.0
 21
0.2
 12
-1.0
 22
-0.2
 13
-1.0
 23
-0.2
  0
ENDBLK
  5
209
100
AcDbEntity
  8
0
  6
BYBLOCK
 62
0
100
AcDbBlockEnd
  0
ENDSEC
  0
SECTION
  2
ENTITIES
  0
LINE
  5
20A
100
AcDbEntity
  8
0
100
AcDbLine
 62
7
  6
CONTINUOUS
 10
0.0
 20
0.0
 11
0.0
 21
8.5
  0
LINE
  5
20B
100
AcDbEntity
  8
0
100
AcDbLine
 62
7
  6
CONTINUOUS
 10
0.0
 20
0.0
 11
11.0
 21
0.0
  0
LINE
  5
20C
100
AcDbEntity
  8
0
100
AcDbLine
 62
7
  6
CONTINUOUS
 10
0.0
 20
8.5
 11
11.0
 21
8.5
  0
LINE
  5
20D
100
AcDbEntity
  8
0
100
AcDbLine
 62
7
  6
CONTINUOUS
 10
11.0
 20
0.0
 11
11.0
 21
8.5
  0
LINE
  5
20E
100
AcDbEntity
  8
0
100
AcDbLine
 62
7
  6
CONTINUOUS
 10
7.0342772542
 20
2.6670245998
 11
4.4134772542
 21
2.6670245998
  0
LINE
  5
20F
100
AcDbEntity
  8
0
100
AcDbLine
 62
7
  6
CONTINUOUS
 10
7.1488772542
 20
2.6850245998
 11
4.2988772542
 21
2.6850245998
  0
LINE
  5
210
100
AcDbEntity
  8
0
100
AcDbLine
 62
7
  6
CONTINUOUS
 10
4.2988772542
 20
2.6850245998
 11
4.2988772542
 21
3.0531212911
  0
LINE
  5
211
100
AcDbEntity
  8
0
100
AcDbLine
 62
7
  6
CONTINUOUS
 10
5.1298772542
 20
5.6790674559
 11
5.1079170904
 21
5.6541610093
  0
LINE
  5
212
100
AcDbEntity
  8
0
100
AcDbLine
 62
7
  6
CONTINUOUS
 10
5.1319605907
 20
5.7122071538
 11
5.1099643345
 21
5.6873156573
  0
LINE
  5
213
100
AcDbEntity
  8
0
100
AcDbLine
 62
7
  6
CONTINUOUS
 10
5.4446947001
 20
6.0249412633
 11
5.1319605907
 21
5.7122071538
  0
LINE
  5
214
100
AcDbEntity
  8
0
100
AcDbLine
 62
7
  6
CONTINUOUS
 10
5.4778343981
 20
6.0270245998
 11
5.1298772542
 21
5.6790674559
  0
LINE
  5
215
100
AcDbEntity
  8
0
100
AcDbLine
 62
7
  6
CONTINUOUS
 10
5.4446947001
 20
6.0249412633
 11
5.4695861967
 21
6.0469375195
  0
LINE
  5
216
100
AcDbEntity
  8
0
100
AcDbLine
 62
7
  6
CONTINUOUS
 10
5.4778343981
 20
6.0270245998
 11
5.5027408447
 21
6.0489847636
  0
LINE
  5
217
100
AcDbEntity
  8
0
100
AcDbLine
 62
7
  6
CONTINUOUS
 10
5.5145105883
 20
5.9024804439
 11
5.25442141
 21
5.6423912656
  0
LINE
  5
218
100
AcDbEntity
  8
0
100
AcDbLine
 62
7
  6
CONTINUOUS
 10
5.5310282889
 20
5.8859627434
 11
5.2709391106
 21
5.6258735651
  0
LINE
  5
219
100
AcDbEntity
  8
0
100
AcDbLine
 62
7
  6
CONTINUOUS
 10
4.3202232797
 20
3.0711463519
 11
7.1275312286
 21
3.0711463519
  0
LINE
  5
21A
100
AcDbEntity
  8
0
100
AcDbLine
 62
7
  6
CONTINUOUS
 10
5.2709391106
 20
5.2401756345
 11
5.25442141
 21
5.223657934
  0
LINE
  5
21B
100
AcDbEntity
  8
0
100
AcDbLine
 62
7
  6
CONTINUOUS
 10
5.9167262195
 20
5.8859627434
 11
5.93324392
 21
5.9024804439
  0
LINE
  5
21C
100
AcDbEntity
  8
0
100
AcDbLine
 62
7
  6
CONTINUOUS
 10
5.7112368103
 20
5.4330245998
 11
5.2672368103
 21
5.2491137781
  0
LINE
  5
21D
100
AcDbEntity
  8
0
100
AcDbLine
 62
7
  6
CONTINUOUS
 10
5.7328153978
 20
5.4419627434
 11
6.1768153978
 21
5.6258735651
  0
LINE
  5
21E
100
AcDbEntity
  8
0
100
AcDbLine
 62
7
  6
CONTINUOUS
 10
5.7149391106
 20
5.4240864562
 11
5.2709391106
 21
5.2401756345
  0
LINE
  5
21F
100
AcDbEntity
  8
0
100
AcDbLine
 62
7
  6
CONTINUOUS
 10
5.7365176981
 20
5.4330245998
 11
6.1805176981
 21
5.6169354215
  0
LINE
  5
220
100
AcDbEntity
  8
0
100
AcDbLine
 62
7
  6
CONTINUOUS
 10
5.1079170904
 20
5.6541610093
 11
5.1079170904
 21
5.2118881903
  0
LINE
  5
221
100
AcDbEntity
  8
0
100
AcDbLine
 62
7
  6
CONTINUOUS
 10
5.1298772542
 20
5.6790674559
 11
5.1298772542
 21
5.1869817438
  0
LINE
  5
222
100
AcDbEntity
  8
0
100
AcDbLine
 62
7
  6
CONTINUOUS
 10
5.1358772542
 20
5.0574245998
 11
5.1358772542
 21
5.1499253823
  0
LINE
  5
223
100
AcDbEntity
  8
0
100
AcDbLine
 62
7
  6
CONTINUOUS
 10
5.1358772542
 20
5.7161238173
 11
5.1358772542
 21
5.8074245998
  0
LINE
  5
224
100
AcDbEntity
  8
0
100
AcDbLine
 62
7
  6
CONTINUOUS
 10
5.1079170904
 20
5.6541610093
 11
5.1099643345
 21
5.6873156573
  0
LINE
  5
225
100
AcDbEntity
  8
0
100
AcDbLine
 62
7
  6
CONTINUOUS
 10
5.1298772542
 20
5.6790674559
 11
5.1319605907
 21
5.7122071538
  0
LINE
  5
226
100
AcDbEntity
  8
0
100
AcDbLine
 62
7
  6
CONTINUOUS
 10
5.0310569311
 20
4.5174245998
 11
4.9264272334
 21
4.0460548195
  0
LINE
  5
227
100
AcDbEntity
  8
0
100
AcDbLine
 62
7
  6
CONTINUOUS
 10
5.5310282889
 20
4.9800864562
 11
5.5145105883
 21
4.9635687557
  0
LINE
  5
228
100
AcDbEntity
  8
0
100
AcDbLine
 62
7
  6
CONTINUOUS
 10
6.1768153978
 20
5.6258735651
 11
6.1933330983
 21
5.6423912656
  0
LINE
  5
229
100
AcDbEntity
  8
0
100
AcDbLine
 62
7
  6
CONTINUOUS
 10
5.1298772542
 20
5.1869817438
 11
5.1319605907
 21
5.1538420458
  0
LINE
  5
22A
100
AcDbEntity
  8
0
100
AcDbLine
 62
7
  6
CONTINUOUS
 10
5.1079170904
 20
5.2118881903
 11
5.1099643345
 21
5.1787335424
  0
LINE
  5
22B
100
AcDbEntity
  8
0
100
AcDbLine
 62
7
  6
CONTINUOUS
 10
5.2078772542
 20
4.5174245998
 11
5.2078772542
 21
4.6614245998
  0
LINE
  5
22C
100
AcDbEntity
  8
0
100
AcDbLine
 62
7
  6
CONTINUOUS
 10
5.2438772542
 20
5.6169354215
 11
5.2438772542
 21
5.2491137781
  0
LINE
  5
22D
100
AcDbEntity
  8
0
100
AcDbLine
 62
7
  6
CONTINUOUS
 10
5.2672368103
 20
5.6169354215
 11
5.2672368103
 21
5.2491137781
  0
LINE
  5
22E
100
AcDbEntity
  8
0
100
AcDbLine
 62
7
  6
CONTINUOUS
 10
5.3488772542
 20
4.6854245998
 11
5.3488772542
 21
4.9369253823
  0
LINE
  5
22F
100
AcDbEntity
  8
0
100
AcDbLine
 62
7
  6
CONTINUOUS
 10
5.3774670926
 20
4.5174245998
 11
5.3251522438
 21
4.0460548195
  0
LINE
  5
230
100
AcDbEntity
  8
0
100
AcDbLine
 62
7
  6
CONTINUOUS
 10
5.7149391106
 20
5.4240864562
 11
5.5310282889
 21
4.9800864562
  0
LINE
  5
231
100
AcDbEntity
  8
0
100
AcDbLine
 62
7
  6
CONTINUOUS
 10
5.7238772542
 20
5.4456650437
 11
5.9077880759
 21
5.8896650437
  0
LINE
  5
232
100
AcDbEntity
  8
0
100
AcDbLine
 62
7
  6
CONTINUOUS
 10
5.7238772542
 20
5.4203841559
 11
5.5399664325
 21
4.9763841559
  0
LINE
  5
233
100
AcDbEntity
  8
0
100
AcDbLine
 62
7
  6
CONTINUOUS
 10
5.7328153978
 20
5.4419627434
 11
5.9167262195
 21
5.8859627434
  0
LINE
  5
234
100
AcDbEntity
  8
0
100
AcDbLine
 62
7
  6
CONTINUOUS
 10
5.9167262195
 20
4.9800864562
 11
6.1768153978
 21
5.2401756345
  0
LINE
  5
235
100
AcDbEntity
  8
0
100
AcDbLine
 62
7
  6
CONTINUOUS
 10
5.93324392
 20
4.9635687557
 11
6.1933330983
 21
5.223657934
  0
LINE
  5
236
100
AcDbEntity
  8
0
100
AcDbLine
 62
7
  6
CONTINUOUS
 10
4.9264272334
 20
4.0460548195
 11
6.521327275
 21
4.0460548195
  0
LINE
  5
237
100
AcDbEntity
  8
0
100
AcDbLine
 62
7
  6
CONTINUOUS
 10
5.5399664325
 20
4.9763841559
 11
5.5399664325
 21
4.9530245998
  0
LINE
  5
238
100
AcDbEntity
  8
0
100
AcDbLine
 62
7
  6
CONTINUOUS
 10
5.5399664325
 20
5.8896650437
 11
5.5399664325
 21
5.9130245998
  0
LINE
  5
239
100
AcDbEntity
  8
0
100
AcDbLine
 62
7
  6
CONTINUOUS
 10
5.9699201102
 20
4.8390245998
 11
6.3178772542
 21
5.1869817438
  0
LINE
  5
23A
100
AcDbEntity
  8
0
100
AcDbLine
 62
7
  6
CONTINUOUS
 10
6.0030598082
 20
4.8411079363
 11
6.3157939177
 21
5.1538420458
  0
LINE
  5
23B
100
AcDbEntity
  8
0
100
AcDbLine
 62
7
  6
CONTINUOUS
 10
6.0030598082
 20
4.8411079363
 11
5.9781683116
 21
4.8191116801
  0
LINE
  5
23C
100
AcDbEntity
  8
0
100
AcDbLine
 62
7
  6
CONTINUOUS
 10
5.9699201102
 20
4.8390245998
 11
5.9450136637
 21
4.817064436
  0
LINE
  5
23D
100
AcDbEntity
  8
0
100
AcDbLine
 62
7
  6
CONTINUOUS
 10
6.3178772542
 20
5.1869817438
 11
6.339837418
 21
5.2118881903
  0
LINE
  5
23E
100
AcDbEntity
  8
0
100
AcDbLine
 62
7
  6
CONTINUOUS
 10
6.3157939177
 20
5.1538420458
 11
6.3377901739
 21
5.1787335424
  0
LINE
  5
23F
100
AcDbEntity
  8
0
100
AcDbLine
 62
7
  6
CONTINUOUS
 10
7.1275312286
 20
3.0711463519
 11
7.1488772542
 21
3.0531212911
  0
LINE
  5
240
100
AcDbEntity
  8
0
100
AcDbLine
 62
7
  6
CONTINUOUS
 10
6.4257042414
 20
3.0711463519
 11
6.4363772542
 21
3.0531212911
  0
LINE
  5
241
100
AcDbEntity
  8
0
100
AcDbLine
 62
7
  6
CONTINUOUS
 10
5.0220502669
 20
3.0711463519
 11
5.0113772542
 21
3.0531212911
  0
LINE
  5
242
100
AcDbEntity
  8
0
100
AcDbLine
 62
7
  6
CONTINUOUS
 10
4.3202232797
 20
3.0711463519
 11
4.2988772542
 21
3.0531212911
  0
LINE
  5
243
100
AcDbEntity
  8
0
100
AcDbLine
 62
7
  6
CONTINUOUS
 10
5.0310569311
 20
4.5174245998
 11
6.4166975772
 21
4.5174245998
  0
LINE
  5
244
100
AcDbEntity
  8
0
100
AcDbLine
 62
7
  6
CONTINUOUS
 10
5.1319605907
 20
5.1538420458
 11
5.4446947001
 21
4.8411079363
  0
LINE
  5
245
100
AcDbEntity
  8
0
100
AcDbLine
 62
7
  6
CONTINUOUS
 10
5.1298772542
 20
5.1869817438
 11
5.4778343981
 21
4.8390245998
  0
LINE
  5
246
100
AcDbEntity
  8
0
100
AcDbLine
 62
7
  6
CONTINUOUS
 10
5.1319605907
 20
5.1538420458
 11
5.1099643345
 21
5.1787335424
  0
LINE
  5
247
100
AcDbEntity
  8
0
100
AcDbLine
 62
7
  6
CONTINUOUS
 10
5.1298772542
 20
5.1869817438
 11
5.1079170904
 21
5.2118881903
  0
LINE
  5
248
100
AcDbEntity
  8
0
100
AcDbLine
 62
7
  6
CONTINUOUS
 10
5.9077880759
 20
4.9763841559
 11
5.9077880759
 21
4.9530245998
  0
LINE
  5
249
100
AcDbEntity
  8
0
100
AcDbLine
 62
7
  6
CONTINUOUS
 10
5.9077880759
 20
5.8896650437
 11
5.9077880759
 21
5.9130245998
  0
LINE
  5
24A
100
AcDbEntity
  8
0
100
AcDbLine
 62
7
  6
CONTINUOUS
 10
6.2398772542
 20
4.6614245998
 11
5.2078772542
 21
4.6614245998
  0
LINE
  5
24B
100
AcDbEntity
  8
0
100
AcDbLine
 62
7
  6
CONTINUOUS
 10
5.4778343981
 20
4.8390245998
 11
5.5027408447
 21
4.817064436
  0
LINE
  5
24C
100
AcDbEntity
  8
0
100
AcDbLine
 62
7
  6
CONTINUOUS
 10
5.4446947001
 20
4.8411079363
 11
5.4695861967
 21
4.8191116801
  0
LINE
  5
24D
100
AcDbEntity
  8
0
100
AcDbLine
 62
7
  6
CONTINUOUS
 10
5.25442141
 20
5.223657934
 11
5.5145105883
 21
4.9635687557
  0
LINE
  5
24E
100
AcDbEntity
  8
0
100
AcDbLine
 62
7
  6
CONTINUOUS
 10
5.2709391106
 20
5.2401756345
 11
5.5310282889
 21
4.9800864562
  0
LINE
  5
24F
100
AcDbEntity
  8
0
100
AcDbLine
 62
7
  6
CONTINUOUS
 10
6.0988772542
 20
4.6854245998
 11
6.0988772542
 21
4.9369253823
  0
LINE
  5
250
100
AcDbEntity
  8
0
100
AcDbLine
 62
7
  6
CONTINUOUS
 10
6.1805176981
 20
5.2491137781
 11
6.1805176981
 21
5.6169354215
  0
LINE
  5
251
100
AcDbEntity
  8
0
100
AcDbLine
 62
7
  6
CONTINUOUS
 10
5.9781683116
 20
4.8191116801
 11
5.9450136637
 21
4.817064436
  0
LINE
  5
252
100
AcDbEntity
  8
0
100
AcDbLine
 62
7
  6
CONTINUOUS
 10
5.3488772542
 20
4.6854245998
 11
6.0988772542
 21
4.6854245998
  0
LINE
  5
253
100
AcDbEntity
  8
0
100
AcDbLine
 62
7
  6
CONTINUOUS
 10
5.5027408447
 20
4.817064436
 11
5.9450136637
 21
4.817064436
  0
LINE
  5
254
100
AcDbEntity
  8
0
100
AcDbLine
 62
7
  6
CONTINUOUS
 10
5.4695861967
 20
4.8191116801
 11
5.5027408447
 21
4.817064436
  0
LINE
  5
255
100
AcDbEntity
  8
0
100
AcDbLine
 62
7
  6
CONTINUOUS
 10
5.7238772542
 20
5.4203841559
 11
5.9077880759
 21
4.9763841559
  0
LINE
  5
256
100
AcDbEntity
  8
0
100
AcDbLine
 62
7
  6
CONTINUOUS
 10
5.7149391106
 20
5.4419627434
 11
5.5310282889
 21
5.8859627434
  0
LINE
  5
257
100
AcDbEntity
  8
0
100
AcDbLine
 62
7
  6
CONTINUOUS
 10
5.7328153978
 20
5.4240864562
 11
5.9167262195
 21
4.9800864562
  0
LINE
  5
258
100
AcDbEntity
  8
0
100
AcDbLine
 62
7
  6
CONTINUOUS
 10
5.7238772542
 20
5.4456650437
 11
5.5399664325
 21
5.8896650437
  0
LINE
  5
259
100
AcDbEntity
  8
0
100
AcDbLine
 62
7
  6
CONTINUOUS
 10
6.0702874157
 20
4.5174245998
 11
6.1226022646
 21
4.0460548195
  0
LINE
  5
25A
100
AcDbEntity
  8
0
100
AcDbLine
 62
7
  6
CONTINUOUS
 10
6.2038772542
 20
5.2491137781
 11
6.2038772542
 21
5.6169354215
  0
LINE
  5
25B
100
AcDbEntity
  8
0
100
AcDbLine
 62
7
  6
CONTINUOUS
 10
6.2398772542
 20
4.5174245998
 11
6.2398772542
 21
4.6614245998
  0
LINE
  5
25C
100
AcDbEntity
  8
0
100
AcDbLine
 62
7
  6
CONTINUOUS
 10
6.3118772542
 20
5.0574245998
 11
6.3118772542
 21
5.1499253823
  0
LINE
  5
25D
100
AcDbEntity
  8
0
100
AcDbLine
 62
7
  6
CONTINUOUS
 10
6.3118772542
 20
5.7161238173
 11
6.3118772542
 21
5.8074245998
  0
LINE
  5
25E
100
AcDbEntity
  8
0
100
AcDbLine
 62
7
  6
CONTINUOUS
 10
6.3178772542
 20
5.1869817438
 11
6.3178772542
 21
5.6790674559
  0
LINE
  5
25F
100
AcDbEntity
  8
0
100
AcDbLine
 62
7
  6
CONTINUOUS
 10
6.339837418
 20
5.2118881903
 11
6.3377901739
 21
5.1787335424
  0
LINE
  5
260
100
AcDbEntity
  8
0
100
AcDbLine
 62
7
  6
CONTINUOUS
 10
6.3178772542
 20
5.1869817438
 11
6.3157939177
 21
5.1538420458
  0
LINE
  5
261
100
AcDbEntity
  8
0
100
AcDbLine
 62
7
  6
CONTINUOUS
 10
5.9699201102
 20
4.8390245998
 11
6.0030598082
 21
4.8411079363
  0
LINE
  5
262
100
AcDbEntity
  8
0
100
AcDbLine
 62
7
  6
CONTINUOUS
 10
5.4778343981
 20
4.8390245998
 11
5.9699201102
 21
4.8390245998
  0
LINE
  5
263
100
AcDbEntity
  8
0
100
AcDbLine
 62
7
  6
CONTINUOUS
 10
5.5399664325
 20
4.9530245998
 11
5.9077880759
 21
4.9530245998
  0
LINE
  5
264
100
AcDbEntity
  8
0
100
AcDbLine
 62
7
  6
CONTINUOUS
 10
5.4778343981
 20
4.8390245998
 11
5.4446947001
 21
4.8411079363
  0
LINE
  5
265
100
AcDbEntity
  8
0
100
AcDbLine
 62
7
  6
CONTINUOUS
 10
5.9167262195
 20
4.9800864562
 11
5.93324392
 21
4.9635687557
  0
LINE
  5
266
100
AcDbEntity
  8
0
100
AcDbLine
 62
7
  6
CONTINUOUS
 10
5.2709391106
 20
5.6258735651
 11
5.25442141
 21
5.6423912656
  0
LINE
  5
267
100
AcDbEntity
  8
0
100
AcDbLine
 62
7
  6
CONTINUOUS
 10
6.3178772542
 20
5.6790674559
 11
6.3157939177
 21
5.7122071538
  0
LINE
  5
268
100
AcDbEntity
  8
0
100
AcDbLine
 62
7
  6
CONTINUOUS
 10
6.339837418
 20
5.6541610093
 11
6.3377901739
 21
5.6873156573
  0
LINE
  5
269
100
AcDbEntity
  8
0
100
AcDbLine
 62
7
  6
CONTINUOUS
 10
6.339837418
 20
5.2118881903
 11
6.339837418
 21
5.6541610093
  0
LINE
  5
26A
100
AcDbEntity
  8
0
100
AcDbLine
 62
7
  6
CONTINUOUS
 10
5.5399664325
 20
4.9763841559
 11
5.9077880759
 21
4.9763841559
  0
LINE
  5
26B
100
AcDbEntity
  8
0
100
AcDbLine
 62
7
  6
CONTINUOUS
 10
6.3118772542
 20
5.0574245998
 11
6.2193764717
 21
5.0574245998
  0
LINE
  5
26C
100
AcDbEntity
  8
0
100
AcDbLine
 62
7
  6
CONTINUOUS
 10
5.1358772542
 20
5.0574245998
 11
5.2283780366
 21
5.0574245998
  0
LINE
  5
26D
100
AcDbEntity
  8
0
100
AcDbLine
 62
7
  6
CONTINUOUS
 10
6.4166975772
 20
4.5174245998
 11
6.521327275
 21
4.0460548195
  0
LINE
  5
26E
100
AcDbEntity
  8
0
100
AcDbLine
 62
7
  6
CONTINUOUS
 10
5.2672368103
 20
5.2491137781
 11
5.2438772542
 21
5.2491137781
  0
LINE
  5
26F
100
AcDbEntity
  8
0
100
AcDbLine
 62
7
  6
CONTINUOUS
 10
6.1805176981
 20
5.2491137781
 11
6.2038772542
 21
5.2491137781
  0
LINE
  5
270
100
AcDbEntity
  8
0
100
AcDbLine
 62
7
  6
CONTINUOUS
 10
5.7112368103
 20
5.4330245998
 11
5.2672368103
 21
5.6169354215
  0
LINE
  5
271
100
AcDbEntity
  8
0
100
AcDbLine
 62
7
  6
CONTINUOUS
 10
5.7328153978
 20
5.4240864562
 11
6.1768153978
 21
5.2401756345
  0
LINE
  5
272
100
AcDbEntity
  8
0
100
AcDbLine
 62
7
  6
CONTINUOUS
 10
5.7149391106
 20
5.4419627434
 11
5.2709391106
 21
5.6258735651
  0
LINE
  5
273
100
AcDbEntity
  8
0
100
AcDbLine
 62
7
  6
CONTINUOUS
 10
5.7365176981
 20
5.4330245998
 11
6.1805176981
 21
5.2491137781
  0
LINE
  5
274
100
AcDbEntity
  8
0
100
AcDbLine
 62
7
  6
CONTINUOUS
 10
6.1768153978
 20
5.2401756345
 11
6.1933330983
 21
5.223657934
  0
LINE
  5
275
100
AcDbEntity
  8
0
100
AcDbLine
 62
7
  6
CONTINUOUS
 10
5.5310282889
 20
5.8859627434
 11
5.5145105883
 21
5.9024804439
  0
LINE
  5
276
100
AcDbEntity
  8
0
100
AcDbLine
 62
7
  6
CONTINUOUS
 10
5.2672368103
 20
5.6169354215
 11
5.2438772542
 21
5.6169354215
  0
LINE
  5
277
100
AcDbEntity
  8
0
100
AcDbLine
 62
7
  6
CONTINUOUS
 10
6.1805176981
 20
5.6169354215
 11
6.2038772542
 21
5.6169354215
  0
LINE
  5
278
100
AcDbEntity
  8
0
100
AcDbLine
 62
7
  6
CONTINUOUS
 10
6.1768153978
 20
5.6258735651
 11
5.9167262195
 21
5.8859627434
  0
LINE
  5
279
100
AcDbEntity
  8
0
100
AcDbLine
 62
7
  6
CONTINUOUS
 10
6.1933330983
 20
5.6423912656
 11
5.93324392
 21
5.9024804439
  0
LINE
  5
27A
100
AcDbEntity
  8
0
100
AcDbLine
 62
7
  6
CONTINUOUS
 10
6.3157939177
 20
5.7122071538
 11
6.3377901739
 21
5.6873156573
  0
LINE
  5
27B
100
AcDbEntity
  8
0
100
AcDbLine
 62
7
  6
CONTINUOUS
 10
6.3178772542
 20
5.6790674559
 11
6.339837418
 21
5.6541610093
  0
LINE
  5
27C
100
AcDbEntity
  8
0
100
AcDbLine
 62
7
  6
CONTINUOUS
 10
7.1488772542
 20
2.6850245998
 11
7.1488772542
 21
3.0531212911
  0
LINE
  5
27D
100
AcDbEntity
  8
0
100
AcDbLine
 62
7
  6
CONTINUOUS
 10
6.3118772542
 20
5.8074245998
 11
6.2205764717
 21
5.8074245998
  0
LINE
  5
27E
100
AcDbEntity
  8
0
100
AcDbLine
 62
7
  6
CONTINUOUS
 10
5.1358772542
 20
5.8074245998
 11
5.2271780366
 21
5.8074245998
  0
LINE
  5
27F
100
AcDbEntity
  8
0
100
AcDbLine
 62
7
  6
CONTINUOUS
 10
5.9699201102
 20
6.0270245998
 11
5.9450136637
 21
6.0489847636
  0
LINE
  5
280
100
AcDbEntity
  8
0
100
AcDbLine
 62
7
  6
CONTINUOUS
 10
6.0030598082
 20
6.0249412633
 11
5.9781683116
 21
6.0469375195
  0
LINE
  5
281
100
AcDbEntity
  8
0
100
AcDbLine
 62
7
  6
CONTINUOUS
 10
6.3178772542
 20
5.6790674559
 11
5.9699201102
 21
6.0270245998
  0
LINE
  5
282
100
AcDbEntity
  8
0
100
AcDbLine
 62
7
  6
CONTINUOUS
 10
6.3157939177
 20
5.7122071538
 11
6.0030598082
 21
6.0249412633
  0
LINE
  5
283
100
AcDbEntity
  8
0
100
AcDbLine
 62
7
  6
CONTINUOUS
 10
5.9077880759
 20
5.8896650437
 11
5.5399664325
 21
5.8896650437
  0
LINE
  5
284
100
AcDbEntity
  8
0
100
AcDbLine
 62
7
  6
CONTINUOUS
 10
5.9077880759
 20
5.9130245998
 11
5.5399664325
 21
5.9130245998
  0
LINE
  5
285
100
AcDbEntity
  8
0
100
AcDbLine
 62
7
  6
CONTINUOUS
 10
5.4778343981
 20
6.0270245998
 11
5.4446947001
 21
6.0249412633
  0
LINE
  5
286
100
AcDbEntity
  8
0
100
AcDbLine
 62
7
  6
CONTINUOUS
 10
5.4695861967
 20
6.0469375195
 11
5.5027408447
 21
6.0489847636
  0
LINE
  5
287
100
AcDbEntity
  8
0
100
AcDbLine
 62
7
  6
CONTINUOUS
 10
5.9699201102
 20
6.0270245998
 11
5.4778343981
 21
6.0270245998
  0
LINE
  5
288
100
AcDbEntity
  8
0
100
AcDbLine
 62
7
  6
CONTINUOUS
 10
5.9450136637
 20
6.0489847636
 11
5.5027408447
 21
6.0489847636
  0
LINE
  5
289
100
AcDbEntity
  8
0
100
AcDbLine
 62
7
  6
CONTINUOUS
 10
5.9781683116
 20
6.0469375195
 11
5.9450136637
 21
6.0489847636
  0
LINE
  5
28A
100
AcDbEntity
  8
0
100
AcDbLine
 62
7
  6
CONTINUOUS
 10
5.9699201102
 20
6.0270245998
 11
6.0030598082
 21
6.0249412633
  0
ARC
  5
28B
100
AcDbEntity
  8
0
100
AcDbCircle
 62
7
  6
CONTINUOUS
 10
5.7238772542
 20
4.1061732956
 40
1.8
100
AcDbArc
 50
70.9334198993
 51
75.2909342941
  0
ARC
  5
28C
100
AcDbEntity
  8
0
100
AcDbCircle
 62
7
  6
CONTINUOUS
 10
5.7238772542
 20
4.1061732956
 40
1.8
100
AcDbArc
 50
104.7090657059
 51
109.0665801007
  0
CIRCLE
  5
28D
100
AcDbEntity
  8
0
100
AcDbCircle
 62
7
  6
CONTINUOUS
 10
5.7238772542
 20
5.4330245998
 40
0.588
  0
CIRCLE
  5
28E
100
AcDbEntity
  8
0
100
AcDbCircle
 62
7
  6
CONTINUOUS
 10
5.7238772542
 20
5.4330245998
 40
0.552
  0
ARC
  5
28F
100
AcDbEntity
  8
0
100
AcDbCircle
 62
7
  6
CONTINUOUS
 10
5.7612802751
 20
5.5233234803
 40
0.1095239592
100
AcDbArc
 50
244.9686225363
 51
250.0313774637
  0
ARC
  5
290
100
AcDbEntity
  8
0
100
AcDbCircle
 62
7
  6
CONTINUOUS
 10
5.8141761346
 20
5.4704276208
 40
0.1095239592
100
AcDbArc
 50
199.9686225363
 51
205.0313774637
  0
ARC
  5
291
100
AcDbEntity
  8
0
100
AcDbCircle
 62
7
  6
CONTINUOUS
 10
5.8141761346
 20
5.3956215789
 40
0.1095239592
100
AcDbArc
 50
154.9686225363
 51
160.0313774637
  0
ARC
  5
292
100
AcDbEntity
  8
0
100
AcDbCircle
 62
7
  6
CONTINUOUS
 10
5.7612802751
 20
5.3427257194
 40
0.1095239592
100
AcDbArc
 50
109.9686225363
 51
115.0313774637
  0
ARC
  5
293
100
AcDbEntity
  8
0
100
AcDbCircle
 62
7
  6
CONTINUOUS
 10
6.0775783737
 20
5.2865167991
 40
0.1095239592
100
AcDbArc
 50
334.9686225363
 51
340.0313774637
  0
ARC
  5
294
100
AcDbEntity
  8
0
100
AcDbCircle
 62
7
  6
CONTINUOUS
 10
5.6864742332
 20
5.3427257194
 40
0.1095239592
100
AcDbArc
 50
64.9686225363
 51
70.0313774637
  0
ARC
  5
295
100
AcDbEntity
  8
0
100
AcDbCircle
 62
7
  6
CONTINUOUS
 10
5.6335783737
 20
5.3956215789
 40
0.1095239592
100
AcDbArc
 50
19.9686225363
 51
25.0313774637
  0
ARC
  5
296
100
AcDbEntity
  8
0
100
AcDbCircle
 62
7
  6
CONTINUOUS
 10
5.6864742332
 20
5.5233234803
 40
0.1095239592
100
AcDbArc
 50
289.9686225363
 51
295.0313774637
  0
ARC
  5
297
100
AcDbEntity
  8
0
100
AcDbCircle
 62
7
  6
CONTINUOUS
 10
5.6335783737
 20
5.4704276208
 40
0.1095239592
100
AcDbArc
 50
334.9686225363
 51
340.0313774636
  0
ARC
  5
298
100
AcDbEntity
  8
0
100
AcDbCircle
 62
7
  6
CONTINUOUS
 10
5.5773694534
 20
5.7867257194
 40
0.1095239592
100
AcDbArc
 50
109.9686225363
 51
115.0313774637
  0
ARC
  5
299
100
AcDbEntity
  8
0
100
AcDbCircle
 62
7
  6
CONTINUOUS
 10
5.8703850549
 20
5.0793234803
 40
0.1095239592
100
AcDbArc
 50
289.9686225363
 51
295.0313774637
  0
ARC
  5
29A
100
AcDbEntity
  8
0
100
AcDbCircle
 62
7
  6
CONTINUOUS
 10
6.0775783737
 20
5.5795324006
 40
0.1095239592
100
AcDbArc
 50
19.9686225363
 51
25.0313774637
  0
ARC
  5
29B
100
AcDbEntity
  8
0
100
AcDbCircle
 62
7
  6
CONTINUOUS
 10
5.5773694534
 20
5.0793234803
 40
0.1095239592
100
AcDbArc
 50
244.9686225363
 51
250.0313774637
  0
ARC
  5
29C
100
AcDbEntity
  8
0
100
AcDbCircle
 62
7
  6
CONTINUOUS
 10
5.3701761346
 20
5.5795324006
 40
0.1095239592
100
AcDbArc
 50
154.9686225363
 51
160.0313774637
  0
ARC
  5
29D
100
AcDbEntity
  8
0
100
AcDbCircle
 62
7
  6
CONTINUOUS
 10
5.8703850549
 20
5.7867257194
 40
0.1095239592
100
AcDbArc
 50
64.9686225363
 51
70.0313774637
  0
ARC
  5
29E
100
AcDbEntity
  8
0
100
AcDbCircle
 62
7
  6
CONTINUOUS
 10
5.3701761346
 20
5.2865167991
 40
0.1095239592
100
AcDbArc
 50
199.9686225363
 51
205.0313774637
  0
ARC
  5
29F
100
AcDbEntity
  8
0
100
AcDbCircle
 62
7
  6
CONTINUOUS
 10
7.0342772542
 20
2.7090245998
 40
0.042
100
AcDbArc
 50
270.0
 51
325.150095421
  0
ARC
  5
2A0
100
AcDbEntity
  8
0
100
AcDbCircle
 62
7
  6
CONTINUOUS
 10
4.4134772542
 20
2.7090245998
 40
0.042
100
AcDbArc
 50
214.849904579
 51
270.0
  0
ARC
  5
2A1
100
AcDbEntity
  8
0
100
AcDbCircle
 62
7
  6
CONTINUOUS
 10
5.2798772542
 20
5.6169354215
 40
0.036
100
AcDbArc
 50
135.0
 51
180.0
  0
ARC
  5
2A2
100
AcDbEntity
  8
0
100
AcDbCircle
 62
7
  6
CONTINUOUS
 10
5.2798772542
 20
5.2491137781
 40
0.036
100
AcDbArc
 50
180.0
 51
225.0
  0
ARC
  5
2A3
100
AcDbEntity
  8
0
100
AcDbCircle
 62
7
  6
CONTINUOUS
 10
5.5399664325
 20
4.9890245998
 40
0.036
100
AcDbArc
 50
225.0
 51
270.0
  0
ARC
  5
2A4
100
AcDbEntity
  8
0
100
AcDbCircle
 62
7
  6
CONTINUOUS
 10
5.9077880759
 20
4.9890245998
 40
0.036
100
AcDbArc
 50
270.0
 51
315.0
  0
ARC
  5
2A5
100
AcDbEntity
  8
0
100
AcDbCircle
 62
7
  6
CONTINUOUS
 10
6.1678772542
 20
5.2491137781
 40
0.036
100
AcDbArc
 50
315.0
 51
360.0
  0
ARC
  5
2A6
100
AcDbEntity
  8
0
100
AcDbCircle
 62
7
  6
CONTINUOUS
 10
6.1678772542
 20
5.6169354215
 40
0.036
100
AcDbArc
 50
0.0
 51
45.0
  0
ARC
  5
2A7
100
AcDbEntity
  8
0
100
AcDbCircle
 62
7
  6
CONTINUOUS
 10
5.9077880759
 20
5.8770245998
 40
0.036
100
AcDbArc
 50
45.0
 51
90.0
  0
ARC
  5
2A8
100
AcDbEntity
  8
0
100
AcDbCircle
 62
7
  6
CONTINUOUS
 10
5.5399664325
 20
5.8770245998
 40
0.036
100
AcDbArc
 50
90.0
 51
135.0
  0
SPLINE
  5
2A9
100
AcDbEntity
  8
0
100
AcDbSpline
 62
7
  6
CONTINUOUS
 70
0
 71
3
 72
37
 73
33
 74
0
 42
0.0000001
 43
0.0000001
 44
0.0000000001
 40
0.0
 40
0.0
 40
0.0
 40
0.0
 40
0.0312500646
 40
0.0625002352
 40
0.0937503143
 40
0.1250004421
 40
0.1562505575
 40
0.1875006828
 40
0.2187508116
 40
0.2500009445
 40
0.2812510809
 40
0.3125012224
 40
0.3437513696
 40
0.3750015223
 40
0.40625168
 40
0.4375018416
 40
0.4687520078
 40
0.5000021794
 40
0.5312523565
 40
0.5625025391
 40
0.5937527264
 40
0.6250029174
 40
0.6562531133
 40
0.6875033147
 40
0.7187535215
 40
0.7500037323
 40
0.8125013372
 40
0.8749990496
 40
0.9062492912
 40
0.9374994717
 40
0.9687498447
 40
1.0
 40
1.0
 40
1.0
 40
1.0
 10
4.9264272334
 20
4.0460548195
 30
0.0
 10
4.9237894293
 20
4.0341711848
 30
0.0
 10
4.9182473602
 20
4.0104621236
 30
0.0
 10
4.9091428002
 20
3.9750936469
 30
0.0
 10
4.8992543057
 20
3.9399360926
 30
0.0
 10
4.8885902707
 20
3.9050060623
 30
0.0
 10
4.8771594998
 20
3.8703193738
 30
0.0
 10
4.8649713548
 20
3.8358915428
 30
0.0
 10
4.8520356448
 20
3.8017375956
 30
0.0
 10
4.8383626247
 20
3.7678721097
 30
0.0
 10
4.8239629536
 20
3.7343091839
 30
0.0
 10
4.8088476634
 20
3.7010624337
 30
0.0
 10
4.7930281239
 20
3.6681449848
 30
0.0
 10
4.776516011
 20
3.635569469
 30
0.0
 10
4.7593232748
 20
3.6033480219
 30
0.0
 10
4.7414621067
 20
3.5714922815
 30
0.0
 10
4.7229449122
 20
3.5400133888
 30
0.0
 10
4.7037842807
 20
3.5089219901
 30
0.0
 10
4.6839929544
 20
3.4782282449
 30
0.0
 10
4.6635838022
 20
3.4479418326
 30
0.0
 10
4.6425697921
 20
3.4180719594
 30
0.0
 10
4.6209639704
 20
3.3886273694
 30
0.0
 10
4.5987794293
 20
3.3596163395
 30
0.0
 10
4.576029326
 20
3.3310467425
 30
0.0
 10
4.5527266922
 20
3.3029258786
 30
0.0
 10
4.5209385575
 20
3.2660404251
 30
0.0
 10
4.4798855255
 20
3.2210870589
 30
0.0
 10
4.4371653901
 20
3.1777157417
 30
0.0
 10
4.4020424707
 20
3.1439906239
 30
0.0
 10
4.375237697
 20
3.1191856044
 30
0.0
 10
4.3479841262
 20
3.0948750087
 30
0.0
 10
4.3295238456
 20
3.0789999575
 30
0.0
 10
4.3202232797
 20
3.0711463519
 30
0.0
  0
SPLINE
  5
2AA
100
AcDbEntity
  8
0
100
AcDbSpline
 62
7
  6
CONTINUOUS
 70
0
 71
3
 72
37
 73
33
 74
0
 42
0.0000001
 43
0.0000001
 44
0.0000000001
 40
0.0
 40
0.0
 40
0.0
 40
0.0
 40
0.0312500646
 40
0.0625002352
 40
0.0937503143
 40
0.1250004421
 40
0.1562505575
 40
0.1875006828
 40
0.2187508116
 40
0.2500009445
 40
0.2812510809
 40
0.3125012224
 40
0.3437513696
 40
0.3750015223
 40
0.40625168
 40
0.4375018416
 40
0.4687520078
 40
0.5000021794
 40
0.5312523565
 40
0.5625025391
 40
0.5937527264
 40
0.6250029174
 40
0.6562531133
 40
0.6875033147
 40
0.7187535215
 40
0.7500037323
 40
0.8125013372
 40
0.8749990496
 40
0.9062492912
 40
0.9374994717
 40
0.9687498447
 40
1.0
 40
1.0
 40
1.0
 40
1.0
 10
6.521327275
 20
4.0460548195
 30
0.0
 10
6.523965079
 20
4.0341711848
 30
0.0
 10
6.5295071481
 20
4.0104621236
 30
0.0
 10
6.5386117081
 20
3.9750936469
 30
0.0
 10
6.5485002026
 20
3.9399360926
 30
0.0
 10
6.5591642376
 20
3.9050060623
 30
0.0
 10
6.5705950085
 20
3.8703193738
 30
0.0
 10
6.5827831536
 20
3.8358915428
 30
0.0
 10
6.5957188635
 20
3.8017375956
 30
0.0
 10
6.6093918836
 20
3.7678721097
 30
0.0
 10
6.6237915547
 20
3.7343091839
 30
0.0
 10
6.638906845
 20
3.7010624337
 30
0.0
 10
6.6547263845
 20
3.6681449848
 30
0.0
 10
6.6712384973
 20
3.635569469
 30
0.0
 10
6.6884312336
 20
3.6033480219
 30
0.0
 10
6.7062924016
 20
3.5714922815
 30
0.0
 10
6.7248095961
 20
3.5400133888
 30
0.0
 10
6.7439702276
 20
3.5089219901
 30
0.0
 10
6.7637615539
 20
3.4782282449
 30
0.0
 10
6.7841707062
 20
3.4479418326
 30
0.0
 10
6.8051847162
 20
3.4180719594
 30
0.0
 10
6.826790538
 20
3.3886273694
 30
0.0
 10
6.8489750791
 20
3.3596163395
 30
0.0
 10
6.8717251823
 20
3.3310467425
 30
0.0
 10
6.8950278161
 20
3.3029258786
 30
0.0
 10
6.9268159508
 20
3.2660404251
 30
0.0
 10
6.9678689828
 20
3.2210870589
 30
0.0
 10
7.0105891183
 20
3.1777157417
 30
0.0
 10
7.0457120376
 20
3.1439906239
 30
0.0
 10
7.0725168113
 20
3.1191856044
 30
0.0
 10
7.0997703821
 20
3.0948750087
 30
0.0
 10
7.1182306628
 20
3.0789999575
 30
0.0
 10
7.1275312286
 20
3.0711463519
 30
0.0
  0
SPLINE
  5
2AB
100
AcDbEntity
  8
0
100
AcDbSpline
 62
7
  6
CONTINUOUS
 70
0
 71
3
 72
34
 73
30
 74
0
 42
0.0000001
 43
0.0000001
 44
0.0000000001
 40
0.0
 40
0.0
 40
0.0
 40
0.0
 40
0.06948788
 40
0.138365847
 40
0.2065432314
 40
0.2739353272
 40
0.3404639591
 40
0.3733825486
 40
0.4060590913
 40
0.4384857839
 40
0.4706552742
 40
0.5025606647
 40
0.5341955117
 40
0.5655538221
 40
0.596630051
 40
0.6274190984
 40
0.6579163056
 40
0.6881174528
 40
0.7180187502
 40
0.7476168307
 40
0.7769087427
 40
0.8058919456
 40
0.8345643066
 40
0.8629240817
 40
0.890969922
 40
0.9187008577
 40
0.9461162284
 40
0.9732160172
 40
1.0
 40
1.0
 40
1.0
 40
1.0
 10
5.3251522438
 20
4.0460548195
 30
0.0
 10
5.3225247732
 20
4.0223806577
 30
0.0
 10
5.316747612
 20
3.9752987259
 30
0.0
 10
5.3064817208
 20
3.905240408
 30
0.0
 10
5.2946837572
 20
3.8361519208
 30
0.0
 10
5.2813919441
 20
3.7681558491
 30
0.0
 10
5.2690624011
 20
3.7123040396
 30
0.0
 10
5.2584825126
 20
3.6682658663
 30
0.0
 10
5.2502289567
 20
3.6356938158
 30
0.0
 10
5.2416351478
 20
3.603475609
 30
0.0
 10
5.2327071555
 20
3.5716228232
 30
0.0
 10
5.2234511801
 20
3.5401466143
 30
0.0
 10
5.2138735076
 20
3.5090576258
 30
0.0
 10
5.2039805025
 20
3.4783660194
 30
0.0
 10
5.193778592
 20
3.4480814758
 30
0.0
 10
5.1832742535
 20
3.4182132041
 30
0.0
 10
5.1724740022
 20
3.3887699485
 30
0.0
 10
5.1613843817
 20
3.3597599981
 30
0.0
 10
5.1500119499
 20
3.3311911992
 30
0.0
 10
5.1383632697
 20
3.3030709689
 30
0.0
 10
5.1264448986
 20
3.2754063071
 30
0.0
 10
5.1142633811
 20
3.2482038075
 30
0.0
 10
5.1018252419
 20
3.2214696717
 30
0.0
 10
5.0891369755
 20
3.1952097234
 30
0.0
 10
5.0762050372
 20
3.1694294223
 30
0.0
 10
5.0630358519
 20
3.1441339065
 30
0.0
 10
5.0496357586
 20
3.1193278803
 30
0.0
 10
5.0360111378
 20
3.0950159523
 30
0.0
 10
5.0267281019
 20
3.0790464886
 30
0.0
 10
5.0220502669
 20
3.0711463519
 30
0.0
  0
SPLINE
  5
2AC
100
AcDbEntity
  8
0
100
AcDbSpline
 62
7
  6
CONTINUOUS
 70
0
 71
3
 72
34
 73
30
 74
0
 42
0.0000001
 43
0.0000001
 44
0.0000000001
 40
0.0
 40
0.0
 40
0.0
 40
0.0
 40
0.06948788
 40
0.138365847
 40
0.2065432314
 40
0.2739353272
 40
0.3404639591
 40
0.3733825486
 40
0.4060590913
 40
0.4384857839
 40
0.4706552742
 40
0.5025606647
 40
0.5341955117
 40
0.5655538221
 40
0.596630051
 40
0.6274190984
 40
0.6579163056
 40
0.6881174528
 40
0.7180187502
 40
0.7476168307
 40
0.7769087427
 40
0.8058919456
 40
0.8345643066
 40
0.8629240817
 40
0.890969922
 40
0.9187008577
 40
0.9461162284
 40
0.9732160172
 40
1.0
 40
1.0
 40
1.0
 40
1.0
 10
6.1226022646
 20
4.0460548195
 30
0.0
 10
6.1252297351
 20
4.0223806577
 30
0.0
 10
6.1310068963
 20
3.9752987259
 30
0.0
 10
6.1412727875
 20
3.905240408
 30
0.0
 10
6.1530707512
 20
3.8361519208
 30
0.0
 10
6.1663625643
 20
3.7681558491
 30
0.0
 10
6.1786921072
 20
3.7123040396
 30
0.0
 10
6.1892719957
 20
3.6682658663
 30
0.0
 10
6.1975255516
 20
3.6356938158
 30
0.0
 10
6.2061193605
 20
3.603475609
 30
0.0
 10
6.2150473528
 20
3.5716228232
 30
0.0
 10
6.2243033283
 20
3.5401466143
 30
0.0
 10
6.2338810007
 20
3.5090576258
 30
0.0
 10
6.2437740058
 20
3.4783660194
 30
0.0
 10
6.2539759163
 20
3.4480814758
 30
0.0
 10
6.2644802548
 20
3.4182132041
 30
0.0
 10
6.2752805061
 20
3.3887699485
 30
0.0
 10
6.2863701267
 20
3.3597599981
 30
0.0
 10
6.2977425584
 20
3.3311911992
 30
0.0
 10
6.3093912387
 20
3.3030709689
 30
0.0
 10
6.3213096098
 20
3.2754063071
 30
0.0
 10
6.3334911272
 20
3.2482038075
 30
0.0
 10
6.3459292664
 20
3.2214696717
 30
0.0
 10
6.3586175328
 20
3.1952097234
 30
0.0
 10
6.3715494711
 20
3.1694294223
 30
0.0
 10
6.3847186564
 20
3.1441339065
 30
0.0
 10
6.3981187498
 20
3.1193278803
 30
0.0
 10
6.4117433705
 20
3.0950159523
 30
0.0
 10
6.4210264064
 20
3.0790464886
 30
0.0
 10
6.4257042414
 20
3.0711463519
 30
0.0
  0
ELLIPSE
  5
2AD
100
AcDbEntity
  8
0
100
AcDbEllipse
 62
7
  6
CONTINUOUS
 10
5.7238772542
 20
4.2564231243
 30
0.0
 11
1.3790964853
 21
1.3394514479
 31
0.0
 40
0.2678505055
 41
-3.3961017501
 42
-2.3489041989
  0
ELLIPSE
  5
2AE
100
AcDbEntity
  8
0
100
AcDbEllipse
 62
7
  6
CONTINUOUS
 10
5.7238772542
 20
4.2564231243
 30
0.0
 11
-1.3790964853
 21
1.3394514479
 31
0.0
 40
0.2678505055
 41
-3.9342811082
 42
-2.887083557
  0
ELLIPSE
  5
2AF
100
AcDbEntity
  8
0
100
AcDbEllipse
 62
7
  6
CONTINUOUS
 10
5.7238772542
 20
4.2564231243
 30
0.0
 11
1.425
 21
0.0
 31
0.0
 40
0.9750549296
 41
-2.0943951024
 42
-1.0471975512
  0
ENDSEC
  0
SECTION
  2
OBJECTS
  0
DICTIONARY
  5
C
100
AcDbDictionary
280
0
281
1
  3
ACAD_GROUP
350
D
  3
ACAD_MLINESTYLE
350
17
  3
ACAD_LAYOUT
350
1A
  3
ACAD_PLOTSETTINGS
350
19
  3
ACAD_PLOTSTYLENAME
350
E
  0
DICTIONARY
  5
D
102
{ACAD_REACTORS
330
C
102
}
100
AcDbDictionary
280
0
281
1
  0
ACDBDICTIONARYWDFLT
  5
E
102
{ACAD_REACTORS
330
C
102
}
100
AcDbDictionary
281
1
  3
Normal
350
F
100
AcDbDictionaryWithDefault
340
F
  0
DICTIONARY
  5
17
102
{ACAD_REACTORS
330
C
102
}
100
AcDbDictionary
280
0
281
1
  3
Standard
350
18
  0
DICTIONARY
  5
19
102
{ACAD_REACTORS
330
C
102
}
100
AcDbDictionary
281
1
  0
DICTIONARY
  5
1A
102
{ACAD_REACTORS
330
C
102
}
100
AcDbDictionary
281
1
  3
Model
350
2B0
  3
Layout1
350
2B1
  0
ACDBPLACEHOLDER
  5
F
102
{ACAD_REACTORS
330
E
102
}
  0
MLINESTYLE
  5
18
102
{ACAD_REACTORS
330
17
102
}
100
AcDbMlineStyle
  2
STANDARD
 70
0
  3

 62
256
 51
90.0
 52
90.0
 71
2
 49
0.5
 62
256
  6
BYLAYER
 49
-0.5
 62
256
  6
BYLAYER
  0
LAYOUT
  5
2B0
102
{ACAD_REACTORS
330
1A
102
}
100
AcDbPlotSettings
  1

  2
none_device
  4
ANSI_A_(11.00_x_8.50_Inches)
  6

 40
0.0
 41
0.0
 42
0.0
 43
0.0
 44
279.4
 45
215.9
 46
0.0
 47
0.0
 48
0.0
 49
0.0
140
0.0
141
0.0
142
1.0
143
1.0
 70
1024
 72
0
 73
0
 74
0
  7

 75
0
147
1.0
148
0.0
149
0.0
100
AcDbLayout
  1
Model
 70
0
 71
0
 10
0.0
 20
0.0
 11
11.0
 21
8.5
 12
0.0
 22
0.0
 32
0.0
 14
0.0
 24
0.0
 34
0.0
 15
0.0
 25
0.0
 35
0.0
146
0.0
 13
0.0
 23
0.0
 33
0.0
 16
1.0
 26
0.0
 36
0.0
 17
0.0
 27
1.0
 37
0.0
 76
0
330
203
345
0
346
0
  0
LAYOUT
  5
2B1
102
{ACAD_REACTORS
330
1A
102
}
100
AcDbPlotSettings
  1

  2
none_device
  4
ANSI_A_(11.00_x_8.50_Inches)
  6

 40
0.0
 41
0.0
 42
0.0
 43
0.0
 44
279.4
 45
215.9
 46
0.0
 47
0.0
 48
0.0
 49
0.0
140
0.0
141
0.0
142
1.0
143
1.0
 70
0
 72
0
 73
0
 74
0
  7

 75
0
147
1.0
148
0.0
149
0.0
100
AcDbLayout
  1
Layout1
 70
0
 71
1
 10
0.0
 20
0.0
 11
11.0
 21
8.5
 12
0.0
 22
0.0
 32
0.0
 14
0.0
 24
0.0
 34
0.0
 15
0.0
 25
0.0
 35
0.0
146
0.0
 13
0.0
 23
0.0
 33
0.0
 16
1.0
 26
0.0
 36
0.0
 17
0.0
 27
1.0
 37
0.0
 76
0
330
204
345
0
346
0
  0
ENDSEC
  0
EOF
