999
DXF file: E:\BT Custom\CADOUTPUT\_RIGHT.dxf
999
Pro/ENGINEER 2018400 by Parametric Technology Corporation
  0
SECTION
  2
HEADER
  9
$ACADVER
  1
AC1018
  9
$DWGCODEPAGE
  3
ANSI_1252
  9
$EXTMAX
 10
22.0
 20
17.0
 30
0.0
  9
$EXTMIN
 10
0.0
 20
0.0
 30
0.0
  9
$LIMMIN
 10
0.0
 20
0.0
  9
$LIMMAX
 10
22.0
 20
17.0
  9
$VIEWCTR
 10
11.0
 20
8.5
  9
$VIEWSIZE
 40
17.0
  9
$CLAYER
  8
0
  9
$LTSCALE
 40
1.21
  9
$CELTYPE
  6
BYLAYER
  9
$DIMSCALE
 40
1.0
  9
$DIMASZ
 40
0.1
  9
$DIMEXO
 40
0.0625
  9
$DIMDLI
 40
0.836
  9
$DIMEXE
 40
0.125
  9
$DIMCEN
 40
0.198
  9
$DIMLFAC
 40
1.0
  9
$DIMBLK
  1
_FILLED
  9
$DIMALT
 70
1
  9
$DIMALTD
 70
2
  9
$DIMALTTD
 70
2
  9
$DIMALTF
 40
25.4
  9
$DIMTXT
 40
0.08
  9
$DIMTOL
 70
1
  9
$DIMLIM
 70
0
  9
$DIMTFAC
 40
1.0
  9
$DIMTP
 40
0.001
  9
$DIMTM
 40
0.001
  9
$DIMGAP
 40
0.09
  9
$DIMDSEP
 70
46
  9
$AUNITS
 70
0
  9
$PDMODE
 70
3
  9
$PDSIZE
 40
0.06
  9
$HANDSEED
  5
46E
  9
$TILEMODE
 70
1
  9
$MEASUREMENT
 70
0
  9
$INSUNITS
 70
1
  0
ENDSEC
  0
SECTION
  2
CLASSES
  0
CLASS
  1
ACDBDICTIONARYWDFLT
  2
AcDbDictionaryWithDefault
  3
AutoCAD 2000
 90
0
 91
1
280
0
281
0
  0
CLASS
  1
ACDBPLACEHOLDER
  2
AcDbPlaceHolder
  3
AutoCAD 2000
 90
0
 91
1
280
0
281
0
  0
CLASS
  1
LAYOUT
  2
AcDbLayout
  3
AutoCAD 2000
 90
0
 91
0
280
0
281
0
  0
ENDSEC
  0
SECTION
  2
TABLES
  0
TABLE
  2
VPORT
  5
8
100
AcDbSymbolTable
 70
2
  0
VPORT
  5
1F4
100
AcDbSymbolTableRecord
100
AcDbViewportTableRecord
  2
*ACTIVE
 70
0
 10
0.0
 20
0.0
 11
1.0
 21
1.0
 12
11.0
 22
8.5
 13
0.0
 23
0.0
 14
1.0
 24
1.0
 15
0.0
 25
0.0
 16
0.0
 26
0.0
 36
1.0
 17
0.0
 27
0.0
 37
0.0
 40
17.0
 41
1.2941176471
 42
50.0
 43
0.0
 44
0.0
 50
0.0
 51
0.0
 71
0
 72
100
 73
1
 74
1
 75
0
 76
0
 77
0
 78
0
  0
ENDTAB
  0
TABLE
  2
LTYPE
  5
5
100
AcDbSymbolTable
 70
6
  0
LTYPE
  5
14
100
AcDbSymbolTableRecord
100
AcDbLinetypeTableRecord
  2
BYBLOCK
 70
0
  3

 72
65
 73
0
 40
0.0
  0
LTYPE
  5
15
100
AcDbSymbolTableRecord
100
AcDbLinetypeTableRecord
  2
BYLAYER
 70
0
  3

 72
65
 73
0
 40
0.0
  0
LTYPE
  5
16
100
AcDbSymbolTableRecord
100
AcDbLinetypeTableRecord
  2
CONTINUOUS
 70
64
  3
Solid line
 72
65
 73
0
 40
0.0
  0
LTYPE
  5
1F5
100
AcDbSymbolTableRecord
100
AcDbLinetypeTableRecord
  2
CENTER
 70
64
  3
____ _ ____ _ ____ _ ____ _ ____ _ ____ _ ____
 72
65
 73
4
 40
0.6
 49
0.375
 74
0
 49
-0.075
 74
0
 49
0.075
 74
0
 49
-0.075
 74
0
  0
LTYPE
  5
1F6
100
AcDbSymbolTableRecord
100
AcDbLinetypeTableRecord
  2
HIDDEN
 70
64
  3
- - - - - - - - - - - - - - - - - - - -
 72
65
 73
2
 40
0.2
 49
0.1
 74
0
 49
-0.1
 74
0
  0
LTYPE
  5
1F7
100
AcDbSymbolTableRecord
100
AcDbLinetypeTableRecord
  2
PHANTOM
 70
64
  3
_____ _ _ _____ _ _ _____ _ _ _____
 72
65
 73
6
 40
0.8
 49
0.45
 74
0
 49
-0.05
 74
0
 49
0.1
 74
0
 49
-0.05
 74
0
 49
0.1
 74
0
 49
-0.05
 74
0
  0
LTYPE
  5
1F8
100
AcDbSymbolTableRecord
100
AcDbLinetypeTableRecord
  2
DOT
 70
64
  3
. . . . . . . . . . . . . . . . . . . .
 72
65
 73
2
 40
0.2
 49
0.1
 74
0
 49
-0.1
 74
0
  0
LTYPE
  5
1F9
100
AcDbSymbolTableRecord
100
AcDbLinetypeTableRecord
  2
DASHED
 70
64
  3
- - - - - - - - - - - - - - - - - - - -
 72
65
 73
2
 40
0.2
 49
0.1
 74
0
 49
-0.1
 74
0
  0
ENDTAB
  0
TABLE
  2
LAYER
  5
2
100
AcDbSymbolTable
 70
36
  0
LAYER
  5
10
100
AcDbSymbolTableRecord
100
AcDbLayerTableRecord
  2
0
 70
0
 62
7
  6
CONTINUOUS
370
-3
390
F
  0
LAYER
  5
1FA
100
AcDbSymbolTableRecord
100
AcDbLayerTableRecord
  2
DEFAULT_1
 70
0
 62
7
  6
CENTER
370
-3
390
F
  0
LAYER
  5
1FB
100
AcDbSymbolTableRecord
100
AcDbLayerTableRecord
  2
DEFAULT_2
 70
0
 62
8
  6
HIDDEN
370
-3
390
F
  0
LAYER
  5
1FC
100
AcDbSymbolTableRecord
100
AcDbLayerTableRecord
  2
DEFAULT_3
 70
0
 62
7
  6
PHANTOM
370
-3
390
F
  0
LAYER
  5
1FD
100
AcDbSymbolTableRecord
100
AcDbLayerTableRecord
  2
ALL_FEATURES
 70
0
 62
7
  6
CONTINUOUS
370
-3
390
F
  0
LAYER
  5
1FE
100
AcDbSymbolTableRecord
100
AcDbLayerTableRecord
  2
AXES_FEATURES
 70
0
 62
7
  6
CONTINUOUS
370
-3
390
F
  0
LAYER
  5
1FF
100
AcDbSymbolTableRecord
100
AcDbLayerTableRecord
  2
DIMENSIONS
 70
0
 62
7
  6
CONTINUOUS
370
-3
390
F
  0
ENDTAB
  0
TABLE
  2
STYLE
  5
3
100
AcDbSymbolTable
 70
1
  0
STYLE
  5
11
100
AcDbSymbolTableRecord
100
AcDbTextStyleTableRecord
  2
STANDARD
 70
0
 40
0.0
 41
0.8
 50
0.0
 71
0
 42
0.2
  3
txt
  4

  0
STYLE
  5
200
100
AcDbSymbolTableRecord
100
AcDbTextStyleTableRecord
  2
TEXTSTYLE_1
 70
0
 40
0.0
 41
0.8
 50
0.0
 71
0
 42
0.2
  3
gdt
  4

  0
ENDTAB
  0
TABLE
  2
VIEW
  5
6
100
AcDbSymbolTable
 70
0
  0
ENDTAB
  0
TABLE
  2
UCS
  5
7
100
AcDbSymbolTable
 70
0
  0
ENDTAB
  0
TABLE
  2
APPID
  5
9
100
AcDbSymbolTable
 70
1
  0
APPID
  5
201
100
AcDbSymbolTableRecord
100
AcDbRegAppTableRecord
  2
ACAD
 70
0
  0
ENDTAB
  0
TABLE
  2
BLOCK_RECORD
  5
1
100
AcDbSymbolTable
 70
0
  0
BLOCK_RECORD
  5
202
100
AcDbSymbolTableRecord
100
AcDbBlockTableRecord
  2
*Model_Space
  0
BLOCK_RECORD
  5
203
100
AcDbSymbolTableRecord
100
AcDbBlockTableRecord
  2
*Paper_Space
  0
BLOCK_RECORD
  5
204
100
AcDbSymbolTableRecord
100
AcDbBlockTableRecord
  2
_FILLED
  0
ENDTAB
  0
TABLE
  2
DIMSTYLE
  5
A
100
AcDbSymbolTable
 70
1
100
AcDbDimStyleTable
 71
0
  0
DIMSTYLE
105
205
100
AcDbSymbolTableRecord
100
AcDbDimStyleTableRecord
  2
STANDARD
 70
0
  3

  4

 40
1.0
 41
0.1
 42
0.0625
 43
0.38
 44
0.125
 45
0.0
 46
0.0
 47
0.001
 48
0.001
140
0.08
141
0.09
142
0.0
143
25.4
144
1.0
145
0.0
146
1.0
147
0.09
 71
1.0
 72
0.0
 73
1
 74
1
 75
0
 76
0
 77
0
 78
4
 79
1
170
1
171
2
172
0
173
0
174
0
175
0
176
0
177
0
178
0
270
2
179
3
271
3
272
3
273
2
274
2
275
0
280
0
281
0
282
0
283
1
284
4
285
0
286
0
287
3
288
0
340
11
278
46
341
204
342
204
343
204
344
204
  0
ENDTAB
  0
ENDSEC
  0
SECTION
  2
BLOCKS
  0
BLOCK
  5
20
100
AcDbEntity
  8
0
100
AcDbBlockBegin
  2
*Model_Space
 70
0
 10
0.0
 20
0.0
 30
0.0
  3
*Model_Space
  1

  0
ENDBLK
  5
21
100
AcDbEntity
  8
0
100
AcDbBlockEnd
  0
BLOCK
  5
1C
100
AcDbEntity
  8
0
100
AcDbBlockBegin
  2
*Paper_Space
 70
0
 10
0.0
 20
0.0
 30
0.0
  3
*Paper_Space
  1

  0
ENDBLK
  5
1D
100
AcDbEntity
  8
0
100
AcDbBlockEnd
  0
BLOCK
  5
206
100
AcDbEntity
  8
0
100
AcDbBlockBegin
  2
_FILLED
 70
64
 10
0.0
 20
0.0
  3
_FILLED
  1

  0
SOLID
  5
207
100
AcDbEntity
  8
0
  6
BYBLOCK
 62
0
100
AcDbTrace
 10
0.0
 20
0.0
 11
-1.0
 21
0.2
 12
-1.0
 22
-0.2
 13
-1.0
 23
-0.2
  0
ENDBLK
  5
208
100
AcDbEntity
  8
0
  6
BYBLOCK
 62
0
100
AcDbBlockEnd
  0
ENDSEC
  0
SECTION
  2
ENTITIES
  0
LINE
  5
209
100
AcDbEntity
  8
0
100
AcDbLine
 62
7
  6
CONTINUOUS
 10
9.574396753
 20
7.3002804628
 11
11.8455702252
 21
7.3002804628
  0
LINE
  5
20A
100
AcDbEntity
  8
0
100
AcDbLine
 62
9
  6
CONTINUOUS
 10
9.608088384
 20
7.4409526324
 11
11.8118785943
 21
7.4409526324
  0
LINE
  5
20B
100
AcDbEntity
  8
0
100
AcDbLine
 62
9
  6
CONTINUOUS
 10
9.6412894245
 20
7.4858112987
 11
11.7786775537
 21
7.4858112987
  0
LINE
  5
20C
100
AcDbEntity
  8
0
100
AcDbLine
 62
9
  6
CONTINUOUS
 10
11.7081097596
 20
7.5281667484
 11
9.7118572186
 21
7.5281667484
  0
LINE
  5
20D
100
AcDbEntity
  8
0
100
AcDbLine
 62
9
  6
CONTINUOUS
 10
9.7797554654
 20
7.5601921147
 11
11.6402115128
 21
7.5601921147
  0
LINE
  5
20E
100
AcDbEntity
  8
0
100
AcDbLine
 62
9
  6
CONTINUOUS
 10
9.9483349581
 20
7.6947387032
 11
11.4716320202
 21
7.6947387032
  0
LINE
  5
20F
100
AcDbEntity
  8
0
100
AcDbLine
 62
7
  6
CONTINUOUS
 10
11.4017029268
 20
7.8343031818
 11
10.0182640515
 21
7.8343031818
  0
LINE
  5
210
100
AcDbEntity
  8
0
100
AcDbLine
 62
9
  6
CONTINUOUS
 10
10.2014075379
 20
8.099796143
 11
11.2185594404
 21
8.099796143
  0
LINE
  5
211
100
AcDbEntity
  8
0
100
AcDbLine
 62
9
  6
CONTINUOUS
 10
10.2688898593
 20
8.1308178005
 11
11.1510771189
 21
8.1308178005
  0
LINE
  5
212
100
AcDbEntity
  8
0
100
AcDbLine
 62
9
  6
CONTINUOUS
 10
10.2954654523
 20
8.1718891205
 11
11.124501526
 21
8.1718891205
  0
LINE
  5
213
100
AcDbEntity
  8
0
100
AcDbLine
 62
7
  6
CONTINUOUS
 10
11.6402115128
 20
7.5601921147
 11
11.7081097596
 21
7.5281667484
  0
LINE
  5
214
100
AcDbEntity
  8
0
100
AcDbLine
 62
9
  6
CONTINUOUS
 10
10.2986811391
 20
8.2540538686
 11
11.1212858392
 21
8.2540538686
  0
LINE
  5
215
100
AcDbEntity
  8
0
100
AcDbLine
 62
9
  6
CONTINUOUS
 10
11.1405815632
 20
8.4112752031
 11
10.2793854151
 21
8.4112752031
  0
LINE
  5
216
100
AcDbEntity
  8
0
100
AcDbLine
 62
7
  6
CONTINUOUS
 10
10.1974834891
 20
7.8343031818
 11
10.1974834891
 21
8.0987267783
  0
LINE
  5
217
100
AcDbEntity
  8
0
100
AcDbLine
 62
7
  6
CONTINUOUS
 10
10.2233599294
 20
9.1233278529
 11
10.2233599294
 21
9.0959648816
  0
LINE
  5
218
100
AcDbEntity
  8
0
100
AcDbLine
 62
7
  6
CONTINUOUS
 10
10.2256287931
 20
9.1233278529
 11
10.2256287931
 21
9.0959648816
  0
LINE
  5
219
100
AcDbEntity
  8
0
100
AcDbLine
 62
7
  6
CONTINUOUS
 10
10.2301559419
 20
9.1233278529
 11
10.2301559419
 21
9.0959648816
  0
LINE
  5
21A
100
AcDbEntity
  8
0
100
AcDbLine
 62
7
  6
CONTINUOUS
 10
10.2369202683
 20
9.1233278529
 11
10.2369202683
 21
9.0959648816
  0
LINE
  5
21B
100
AcDbEntity
  8
0
100
AcDbLine
 62
7
  6
CONTINUOUS
 10
10.2458902338
 20
9.1233278529
 11
10.2458902338
 21
9.0959648816
  0
LINE
  5
21C
100
AcDbEntity
  8
0
100
AcDbLine
 62
7
  6
CONTINUOUS
 10
10.2570240162
 20
9.1233278529
 11
10.2570240162
 21
9.0959648816
  0
LINE
  5
21D
100
AcDbEntity
  8
0
100
AcDbLine
 62
7
  6
CONTINUOUS
 10
10.2702697049
 20
9.1233278529
 11
10.2702697049
 21
9.0959648816
  0
LINE
  5
21E
100
AcDbEntity
  8
0
100
AcDbLine
 62
7
  6
CONTINUOUS
 10
10.2855655422
 20
9.1233278529
 11
10.2855655422
 21
9.0959648816
  0
LINE
  5
21F
100
AcDbEntity
  8
0
100
AcDbLine
 62
7
  6
CONTINUOUS
 10
10.3028402118
 20
9.1233278529
 11
10.3028402118
 21
9.0959648816
  0
LINE
  5
220
100
AcDbEntity
  8
0
100
AcDbLine
 62
7
  6
CONTINUOUS
 10
10.3220131714
 20
9.1233278529
 11
10.3220131714
 21
9.0959648816
  0
LINE
  5
221
100
AcDbEntity
  8
0
100
AcDbLine
 62
7
  6
CONTINUOUS
 10
10.3429950277
 20
9.1233278529
 11
10.3429950277
 21
9.0959648816
  0
LINE
  5
222
100
AcDbEntity
  8
0
100
AcDbLine
 62
7
  6
CONTINUOUS
 10
10.3656879536
 20
9.1233278529
 11
10.3656879536
 21
9.0959648816
  0
LINE
  5
223
100
AcDbEntity
  8
0
100
AcDbLine
 62
7
  6
CONTINUOUS
 10
10.3669834891
 20
9.3170631453
 11
10.3669834891
 21
9.1654870989
  0
LINE
  5
224
100
AcDbEntity
  8
0
100
AcDbLine
 62
7
  6
CONTINUOUS
 10
10.3891835118
 20
9.0678525567
 11
10.3891835118
 21
9.1512051684
  0
LINE
  5
225
100
AcDbEntity
  8
0
100
AcDbLine
 62
7
  6
CONTINUOUS
 10
10.3899861442
 20
9.1233278529
 11
10.3899861442
 21
9.0959648816
  0
LINE
  5
226
100
AcDbEntity
  8
0
100
AcDbLine
 62
7
  6
CONTINUOUS
 10
10.4133721553
 20
9.0678523691
 11
10.4133721553
 21
9.1512051684
  0
LINE
  5
227
100
AcDbEntity
  8
0
100
AcDbLine
 62
7
  6
CONTINUOUS
 10
10.4157763101
 20
9.1233278529
 11
10.4157763101
 21
9.0959648816
  0
LINE
  5
228
100
AcDbEntity
  8
0
100
AcDbLine
 62
7
  6
CONTINUOUS
 10
10.4389437377
 20
9.0678528165
 11
10.4389437377
 21
9.1512051684
  0
LINE
  5
229
100
AcDbEntity
  8
0
100
AcDbLine
 62
7
  6
CONTINUOUS
 10
10.4429382058
 20
9.1233278529
 11
10.4429382058
 21
9.0959648816
  0
LINE
  5
22A
100
AcDbEntity
  8
0
100
AcDbLine
 62
7
  6
CONTINUOUS
 10
10.4449834891
 20
9.8455031453
 11
10.4449834891
 21
9.3543031453
  0
LINE
  5
22B
100
AcDbEntity
  8
0
100
AcDbLine
 62
9
  6
CONTINUOUS
 10
10.2504083998
 20
8.7091839695
 11
11.1695585785
 21
8.7091839695
  0
LINE
  5
22C
100
AcDbEntity
  8
0
100
AcDbLine
 62
7
  6
CONTINUOUS
 10
10.4657790326
 20
9.0678522439
 11
10.4657790326
 21
9.1512051684
  0
LINE
  5
22D
100
AcDbEntity
  8
0
100
AcDbLine
 62
7
  6
CONTINUOUS
 10
10.4713451898
 20
9.1233278529
 11
10.4713451898
 21
9.0959648816
  0
LINE
  5
22E
100
AcDbEntity
  8
0
100
AcDbLine
 62
7
  6
CONTINUOUS
 10
10.4937529214
 20
9.0678527725
 11
10.4937529214
 21
9.1512051684
  0
LINE
  5
22F
100
AcDbEntity
  8
0
100
AcDbLine
 62
7
  6
CONTINUOUS
 10
10.5008648157
 20
9.1233278529
 11
10.5008648157
 21
9.0959648816
  0
LINE
  5
230
100
AcDbEntity
  8
0
100
AcDbLine
 62
7
  6
CONTINUOUS
 10
10.5227349769
 20
9.0678524058
 11
10.5227349769
 21
9.1512051684
  0
LINE
  5
231
100
AcDbEntity
  8
0
100
AcDbLine
 62
7
  6
CONTINUOUS
 10
10.5313594495
 20
9.1233278529
 11
10.5313594495
 21
9.0959648816
  0
LINE
  5
232
100
AcDbEntity
  8
0
100
AcDbLine
 62
7
  6
CONTINUOUS
 10
10.5525900714
 20
9.0678525783
 11
10.5525900714
 21
9.1512051684
  0
LINE
  5
233
100
AcDbEntity
  8
0
100
AcDbLine
 62
7
  6
CONTINUOUS
 10
10.5626869109
 20
9.1233278529
 11
10.5626869109
 21
9.0959648816
  0
LINE
  5
234
100
AcDbEntity
  8
0
100
AcDbLine
 62
7
  6
CONTINUOUS
 10
10.5831790067
 20
9.0678526237
 11
10.5831790067
 21
9.1512051684
  0
LINE
  5
235
100
AcDbEntity
  8
0
100
AcDbLine
 62
7
  6
CONTINUOUS
 10
10.594701137
 20
9.1233278529
 11
10.594701137
 21
9.0959648816
  0
LINE
  5
236
100
AcDbEntity
  8
0
100
AcDbLine
 62
7
  6
CONTINUOUS
 10
10.614359163
 20
9.0678523611
 11
10.614359163
 21
9.1512051684
  0
LINE
  5
237
100
AcDbEntity
  8
0
100
AcDbLine
 62
7
  6
CONTINUOUS
 10
10.6272528626
 20
9.1233278529
 11
10.6272528626
 21
9.0959648816
  0
LINE
  5
238
100
AcDbEntity
  8
0
100
AcDbLine
 62
7
  6
CONTINUOUS
 10
10.6459851641
 20
9.067852814
 11
10.6459851641
 21
9.1512051684
  0
LINE
  5
239
100
AcDbEntity
  8
0
100
AcDbLine
 62
7
  6
CONTINUOUS
 10
10.6601903166
 20
9.1233278529
 11
10.6601903166
 21
9.0959648816
  0
LINE
  5
23A
100
AcDbEntity
  8
0
100
AcDbLine
 62
7
  6
CONTINUOUS
 10
10.6779095549
 20
9.0678522456
 11
10.6779095549
 21
9.1512051684
  0
LINE
  5
23B
100
AcDbEntity
  8
0
100
AcDbLine
 62
7
  6
CONTINUOUS
 10
10.6933599294
 20
9.1233278529
 11
10.6933599294
 21
9.0959648816
  0
LINE
  5
23C
100
AcDbEntity
  8
0
100
AcDbLine
 62
9
  6
CONTINUOUS
 10
10.7099834891
 20
9.8695031453
 11
10.7099834891
 21
9.8455031453
  0
LINE
  5
23D
100
AcDbEntity
  8
0
100
AcDbLine
 62
7
  6
CONTINUOUS
 10
10.7099834891
 20
8.0853802055
 11
10.7099834891
 21
7.8343031818
  0
LINE
  5
23E
100
AcDbEntity
  8
0
100
AcDbLine
 62
7
  6
CONTINUOUS
 10
10.7099834891
 20
9.0678527447
 11
10.7099834891
 21
9.1512051684
  0
LINE
  5
23F
100
AcDbEntity
  8
0
100
AcDbLine
 62
7
  6
CONTINUOUS
 10
10.7266070489
 20
9.1233278529
 11
10.7266070489
 21
9.0959648816
  0
LINE
  5
240
100
AcDbEntity
  8
0
100
AcDbLine
 62
9
  6
CONTINUOUS
 10
11.1575560071
 20
9.005038705
 11
10.2624109748
 21
9.0050387124
  0
LINE
  5
241
100
AcDbEntity
  8
0
100
AcDbLine
 62
7
  6
CONTINUOUS
 10
10.7420574234
 20
9.0678523917
 11
10.7420574234
 21
9.1512051684
  0
LINE
  5
242
100
AcDbEntity
  8
0
100
AcDbLine
 62
7
  6
CONTINUOUS
 10
10.7597766616
 20
9.1233278529
 11
10.7597766616
 21
9.0959648816
  0
LINE
  5
243
100
AcDbEntity
  8
0
100
AcDbLine
 62
7
  6
CONTINUOUS
 10
10.7739818142
 20
9.0678526068
 11
10.7739818142
 21
9.1512051684
  0
LINE
  5
244
100
AcDbEntity
  8
0
100
AcDbLine
 62
7
  6
CONTINUOUS
 10
10.7927141156
 20
9.1233278529
 11
10.7927141156
 21
9.0959648816
  0
LINE
  5
245
100
AcDbEntity
  8
0
100
AcDbLine
 62
7
  6
CONTINUOUS
 10
10.8056078153
 20
9.0678526648
 11
10.8056078153
 21
9.1512051684
  0
LINE
  5
246
100
AcDbEntity
  8
0
100
AcDbLine
 62
7
  6
CONTINUOUS
 10
10.8252658413
 20
9.1233278529
 11
10.8252658413
 21
9.0959648816
  0
LINE
  5
247
100
AcDbEntity
  8
0
100
AcDbLine
 62
7
  6
CONTINUOUS
 10
10.8367879716
 20
9.0678523383
 11
10.8367879716
 21
9.1512051684
  0
LINE
  5
248
100
AcDbEntity
  8
0
100
AcDbLine
 62
7
  6
CONTINUOUS
 10
10.8572800674
 20
9.1233278529
 11
10.8572800674
 21
9.0959648816
  0
LINE
  5
249
100
AcDbEntity
  8
0
100
AcDbLine
 62
7
  6
CONTINUOUS
 10
11.1309839067
 20
9.1643033147
 11
11.1423765535
 21
9.1654870989
  0
LINE
  5
24A
100
AcDbEntity
  8
0
100
AcDbLine
 62
9
  6
CONTINUOUS
 10
10.4646116121
 20
9.068653976
 11
10.4391481491
 21
9.0686550221
  0
LINE
  5
24B
100
AcDbEntity
  8
0
100
AcDbLine
 62
9
  6
CONTINUOUS
 10
10.3879824284
 20
9.0686537727
 11
10.3664496092
 21
9.0686543626
  0
LINE
  5
24C
100
AcDbEntity
  8
0
100
AcDbLine
 62
9
  6
CONTINUOUS
 10
10.365289816
 20
9.0686537783
 11
10.3452763357
 21
9.068654266
  0
LINE
  5
24D
100
AcDbEntity
  8
0
100
AcDbLine
 62
9
  6
CONTINUOUS
 10
10.412176842
 20
9.0686538495
 11
10.3892246129
 21
9.0686544931
  0
LINE
  5
24E
100
AcDbEntity
  8
0
100
AcDbLine
 62
9
  6
CONTINUOUS
 10
10.5216169432
 20
9.0686538962
 11
10.4941168495
 21
9.068654964
  0
LINE
  5
24F
100
AcDbEntity
  8
0
100
AcDbLine
 62
9
  6
CONTINUOUS
 10
10.4377591306
 20
9.0686536142
 11
10.4134951523
 21
9.0686541839
  0
LINE
  5
250
100
AcDbEntity
  8
0
100
AcDbLine
 62
9
  6
CONTINUOUS
 10
10.3248235365
 20
9.0686537322
 11
10.3081219561
 21
9.068654024
  0
LINE
  5
251
100
AcDbEntity
  8
0
100
AcDbLine
 62
9
  6
CONTINUOUS
 10
10.2563651637
 20
9.0686538533
 11
10.2491550272
 21
9.068653991
  0
LINE
  5
252
100
AcDbEntity
  8
0
100
AcDbLine
 62
9
  6
CONTINUOUS
 10
10.5821310968
 20
9.0686537534
 11
10.5531065772
 21
9.0686546255
  0
LINE
  5
253
100
AcDbEntity
  8
0
100
AcDbLine
 62
9
  6
CONTINUOUS
 10
10.5515048994
 20
9.0686537019
 11
10.5231759808
 21
9.0686541818
  0
LINE
  5
254
100
AcDbEntity
  8
0
100
AcDbLine
 62
9
  6
CONTINUOUS
 10
10.4926071155
 20
9.0686535957
 11
10.4660636181
 21
9.0686538929
  0
LINE
  5
255
100
AcDbEntity
  8
0
100
AcDbLine
 62
9
  6
CONTINUOUS
 10
10.6133542787
 20
9.0686538585
 11
10.5837684084
 21
9.0686546173
  0
LINE
  5
256
100
AcDbEntity
  8
0
100
AcDbLine
 62
9
  6
CONTINUOUS
 10
10.2488093748
 20
9.0686538746
 11
10.2436352073
 21
9.0686538966
  0
LINE
  5
257
100
AcDbEntity
  8
0
100
AcDbLine
 62
9
  6
CONTINUOUS
 10
10.6450268901
 20
9.0686536116
 11
10.6150184117
 21
9.0686541647
  0
LINE
  5
258
100
AcDbEntity
  8
0
100
AcDbLine
 62
9
  6
CONTINUOUS
 10
10.677003872
 20
9.0686539736
 11
10.6467121087
 21
9.0686550161
  0
LINE
  5
259
100
AcDbEntity
  8
0
100
AcDbLine
 62
9
  6
CONTINUOUS
 10
10.7091330553
 20
9.0686536088
 11
10.6786992737
 21
9.0686538923
  0
LINE
  5
25A
100
AcDbEntity
  8
0
100
AcDbLine
 62
9
  6
CONTINUOUS
 10
10.2915323081
 20
9.0686538331
 11
10.2784533988
 21
9.0686540841
  0
LINE
  5
25B
100
AcDbEntity
  8
0
100
AcDbLine
 62
9
  6
CONTINUOUS
 10
10.7732555345
 20
9.0686536835
 11
10.7429633476
 21
9.0686541542
  0
LINE
  5
25C
100
AcDbEntity
  8
0
100
AcDbLine
 62
9
  6
CONTINUOUS
 10
10.7412674468
 20
9.0686538981
 11
10.7108340963
 21
9.0686549067
  0
LINE
  5
25D
100
AcDbEntity
  8
0
100
AcDbLine
 62
9
  6
CONTINUOUS
 10
10.2660358532
 20
9.0686539088
 11
10.2568234723
 21
9.0686540655
  0
LINE
  5
25E
100
AcDbEntity
  8
0
100
AcDbLine
 62
9
  6
CONTINUOUS
 10
10.2777764771
 20
9.0686538507
 11
10.2666049242
 21
9.0686539223
  0
LINE
  5
25F
100
AcDbEntity
  8
0
100
AcDbLine
 62
9
  6
CONTINUOUS
 10
10.9258495991
 20
9.0686535902
 11
10.8983497739
 21
9.0686538911
  0
LINE
  5
260
100
AcDbEntity
  8
0
100
AcDbLine
 62
9
  6
CONTINUOUS
 10
10.8668597532
 20
9.0686536313
 11
10.8378355938
 21
9.0686541158
  0
LINE
  5
261
100
AcDbEntity
  8
0
100
AcDbLine
 62
9
  6
CONTINUOUS
 10
10.804948053
 20
9.0686537355
 11
10.7749400552
 21
9.0686546545
  0
LINE
  5
262
100
AcDbEntity
  8
0
100
AcDbLine
 62
9
  6
CONTINUOUS
 10
10.2434038072
 20
9.0686539035
 11
10.2402896288
 21
9.0686539046
  0
LINE
  5
263
100
AcDbEntity
  8
0
100
AcDbLine
 62
9
  6
CONTINUOUS
 10
11.12765279
 20
9.0686538165
 11
11.1127279244
 21
9.0686538991
  0
LINE
  5
264
100
AcDbEntity
  8
0
100
AcDbLine
 62
9
  6
CONTINUOUS
 10
10.8361988783
 20
9.0686538771
 11
10.8066134558
 21
9.0686546968
  0
LINE
  5
265
100
AcDbEntity
  8
0
100
AcDbLine
 62
9
  6
CONTINUOUS
 10
11.1533620151
 20
9.0686538934
 11
11.142190631
 21
9.0686540034
  0
LINE
  5
266
100
AcDbEntity
  8
0
100
AcDbLine
 62
9
  6
CONTINUOUS
 10
11.094163014
 20
9.068653719
 11
11.0757630682
 21
9.068653953
  0
LINE
  5
267
100
AcDbEntity
  8
0
100
AcDbLine
 62
9
  6
CONTINUOUS
 10
11.1631432972
 20
9.068653852
 11
11.1539311892
 21
9.0686539533
  0
LINE
  5
268
100
AcDbEntity
  8
0
100
AcDbLine
 62
9
  6
CONTINUOUS
 10
11.1808329868
 20
9.0686538969
 11
11.1765631665
 21
9.0686538953
  0
LINE
  5
269
100
AcDbEntity
  8
0
100
AcDbLine
 62
9
  6
CONTINUOUS
 10
10.9808187255
 20
9.0686536953
 11
10.955355716
 21
9.0686541922
  0
LINE
  5
26A
100
AcDbEntity
  8
0
100
AcDbLine
 62
9
  6
CONTINUOUS
 10
11.1763317879
 20
9.0686539092
 11
11.1711577011
 21
9.0686539668
  0
LINE
  5
26B
100
AcDbEntity
  8
0
100
AcDbLine
 62
9
  6
CONTINUOUS
 10
11.1118450143
 20
9.0686539429
 11
11.0951437011
 21
9.0686541689
  0
LINE
  5
26C
100
AcDbEntity
  8
0
100
AcDbLine
 62
9
  6
CONTINUOUS
 10
11.053516768
 20
9.0686537192
 11
11.0319845255
 21
9.0686540742
  0
LINE
  5
26D
100
AcDbEntity
  8
0
100
AcDbLine
 62
9
  6
CONTINUOUS
 10
10.896791149
 20
9.0686539683
 11
10.8684632759
 21
9.0686549282
  0
LINE
  5
26E
100
AcDbEntity
  8
0
100
AcDbLine
 62
9
  6
CONTINUOUS
 10
10.9539031119
 20
9.0686538942
 11
10.9273607253
 21
9.0686549797
  0
LINE
  5
26F
100
AcDbEntity
  8
0
100
AcDbLine
 62
9
  6
CONTINUOUS
 10
11.1415134267
 20
9.0686538828
 11
11.1284351121
 21
9.068654188
  0
LINE
  5
270
100
AcDbEntity
  8
0
100
AcDbLine
 62
9
  6
CONTINUOUS
 10
11.1708118613
 20
9.0686538882
 11
11.1636020522
 21
9.0686540515
  0
LINE
  5
271
100
AcDbEntity
  8
0
100
AcDbLine
 62
9
  6
CONTINUOUS
 10
11.006471213
 20
9.0686537384
 11
10.9822082946
 21
9.0686546232
  0
LINE
  5
272
100
AcDbEntity
  8
0
100
AcDbLine
 62
9
  6
CONTINUOUS
 10
11.0307422529
 20
9.0686538886
 11
11.00779114
 21
9.0686546843
  0
LINE
  5
273
100
AcDbEntity
  8
0
100
AcDbLine
 62
9
  6
CONTINUOUS
 10
11.0746905742
 20
9.0686539279
 11
11.0546781893
 21
9.0686546008
  0
LINE
  5
274
100
AcDbEntity
  8
0
100
AcDbLine
 62
9
  6
CONTINUOUS
 10
10.307239005
 20
9.0686538862
 11
10.2923139434
 21
9.0686541531
  0
LINE
  5
275
100
AcDbEntity
  8
0
100
AcDbLine
 62
9
  6
CONTINUOUS
 10
10.3442038267
 20
9.0686538445
 11
10.3258034416
 21
9.0686543408
  0
LINE
  5
276
100
AcDbEntity
  8
0
100
AcDbLine
 62
9
  6
CONTINUOUS
 10
10.2392617691
 20
9.0686538805
 11
10.2391339634
 21
9.0686539269
  0
LINE
  5
277
100
AcDbEntity
  8
0
100
AcDbLine
 62
7
  6
CONTINUOUS
 10
10.2889830716
 20
9.1643033147
 11
10.2775904248
 21
9.1654870989
  0
LINE
  5
278
100
AcDbEntity
  8
0
100
AcDbLine
 62
7
  6
CONTINUOUS
 10
10.8673769069
 20
9.0678527691
 11
10.8673769069
 21
9.1512051684
  0
LINE
  5
279
100
AcDbEntity
  8
0
100
AcDbLine
 62
7
  6
CONTINUOUS
 10
10.8886075288
 20
9.1233278529
 11
10.8886075288
 21
9.0959648816
  0
LINE
  5
27A
100
AcDbEntity
  8
0
100
AcDbLine
 62
7
  6
CONTINUOUS
 10
10.8972320014
 20
9.0678522435
 11
10.8972320014
 21
9.1512051684
  0
LINE
  5
27B
100
AcDbEntity
  8
0
100
AcDbLine
 62
7
  6
CONTINUOUS
 10
10.9191021625
 20
9.1233278529
 11
10.9191021625
 21
9.0959648816
  0
LINE
  5
27C
100
AcDbEntity
  8
0
100
AcDbLine
 62
7
  6
CONTINUOUS
 10
10.9262140569
 20
9.0678527808
 11
10.9262140569
 21
9.1512051684
  0
LINE
  5
27D
100
AcDbEntity
  8
0
100
AcDbLine
 62
7
  6
CONTINUOUS
 10
10.9486217885
 20
9.1233278529
 11
10.9486217885
 21
9.0959648816
  0
LINE
  5
27E
100
AcDbEntity
  8
0
100
AcDbLine
 62
7
  6
CONTINUOUS
 10
10.9541879457
 20
9.0678524115
 11
10.9541879457
 21
9.1512051684
  0
LINE
  5
27F
100
AcDbEntity
  8
0
100
AcDbLine
 62
7
  6
CONTINUOUS
 10
10.9749834891
 20
9.8455031453
 11
10.9749834891
 21
9.3543031453
  0
LINE
  5
280
100
AcDbEntity
  8
0
100
AcDbLine
 62
7
  6
CONTINUOUS
 10
10.9770287725
 20
9.1233278529
 11
10.9770287725
 21
9.0959648816
  0
LINE
  5
281
100
AcDbEntity
  8
0
100
AcDbLine
 62
7
  6
CONTINUOUS
 10
10.9810232405
 20
9.0678525904
 11
10.9810232405
 21
9.1512051684
  0
LINE
  5
282
100
AcDbEntity
  8
0
100
AcDbLine
 62
7
  6
CONTINUOUS
 10
10.2775904248
 20
9.1654870989
 11
11.1423765535
 21
9.1654870989
  0
LINE
  5
283
100
AcDbEntity
  8
0
100
AcDbLine
 62
7
  6
CONTINUOUS
 10
11.0041906681
 20
9.1233278529
 11
11.0041906681
 21
9.0959648816
  0
LINE
  5
284
100
AcDbEntity
  8
0
100
AcDbLine
 62
7
  6
CONTINUOUS
 10
11.006594823
 20
9.0678526575
 11
11.006594823
 21
9.1512051684
  0
LINE
  5
285
100
AcDbEntity
  8
0
100
AcDbLine
 62
7
  6
CONTINUOUS
 10
11.0299808341
 20
9.1233278529
 11
11.0299808341
 21
9.0959648816
  0
LINE
  5
286
100
AcDbEntity
  8
0
100
AcDbLine
 62
7
  6
CONTINUOUS
 10
11.0307834664
 20
9.0678523196
 11
11.0307834664
 21
9.1512051684
  0
LINE
  5
287
100
AcDbEntity
  8
0
100
AcDbLine
 62
7
  6
CONTINUOUS
 10
11.0529834891
 20
9.3170631453
 11
11.0529834891
 21
9.1654870989
  0
LINE
  5
288
100
AcDbEntity
  8
0
100
AcDbLine
 62
7
  6
CONTINUOUS
 10
11.0542790247
 20
9.1233278529
 11
11.0542790247
 21
9.0959648816
  0
LINE
  5
289
100
AcDbEntity
  8
0
100
AcDbLine
 62
7
  6
CONTINUOUS
 10
11.0769719506
 20
9.1233278529
 11
11.0769719506
 21
9.0959648816
  0
LINE
  5
28A
100
AcDbEntity
  8
0
100
AcDbLine
 62
7
  6
CONTINUOUS
 10
11.0979538069
 20
9.1233278529
 11
11.0979538069
 21
9.0959648816
  0
LINE
  5
28B
100
AcDbEntity
  8
0
100
AcDbLine
 62
7
  6
CONTINUOUS
 10
11.1171267664
 20
9.1233278529
 11
11.1171267664
 21
9.0959648816
  0
LINE
  5
28C
100
AcDbEntity
  8
0
100
AcDbLine
 62
7
  6
CONTINUOUS
 10
11.1344014361
 20
9.1233278529
 11
11.1344014361
 21
9.0959648816
  0
LINE
  5
28D
100
AcDbEntity
  8
0
100
AcDbLine
 62
9
  6
CONTINUOUS
 10
11.0529834891
 20
9.3170631453
 11
10.3669834891
 21
9.3170631453
  0
LINE
  5
28E
100
AcDbEntity
  8
0
100
AcDbLine
 62
7
  6
CONTINUOUS
 10
11.0157434891
 20
9.3543031453
 11
10.4042234891
 21
9.3543031453
  0
LINE
  5
28F
100
AcDbEntity
  8
0
100
AcDbLine
 62
7
  6
CONTINUOUS
 10
11.1496972734
 20
9.1233278529
 11
11.1496972734
 21
9.0959648816
  0
LINE
  5
290
100
AcDbEntity
  8
0
100
AcDbLine
 62
7
  6
CONTINUOUS
 10
11.162942962
 20
9.1233278529
 11
11.162942962
 21
9.0959648816
  0
LINE
  5
291
100
AcDbEntity
  8
0
100
AcDbLine
 62
7
  6
CONTINUOUS
 10
11.1740767445
 20
9.1233278529
 11
11.1740767445
 21
9.0959648816
  0
LINE
  5
292
100
AcDbEntity
  8
0
100
AcDbLine
 62
7
  6
CONTINUOUS
 10
11.18304671
 20
9.1233278529
 11
11.18304671
 21
9.0959648816
  0
LINE
  5
293
100
AcDbEntity
  8
0
100
AcDbLine
 62
7
  6
CONTINUOUS
 10
11.1898110363
 20
9.1233278529
 11
11.1898110363
 21
9.0959648816
  0
LINE
  5
294
100
AcDbEntity
  8
0
100
AcDbLine
 62
7
  6
CONTINUOUS
 10
11.1943381852
 20
9.1233278529
 11
11.1943381852
 21
9.0959648816
  0
LINE
  5
295
100
AcDbEntity
  8
0
100
AcDbLine
 62
7
  6
CONTINUOUS
 10
11.1966070489
 20
9.1233278529
 11
11.1966070489
 21
9.0959648816
  0
LINE
  5
296
100
AcDbEntity
  8
0
100
AcDbLine
 62
7
  6
CONTINUOUS
 10
11.2224834891
 20
8.0987267783
 11
11.2224834891
 21
7.8343031818
  0
LINE
  5
297
100
AcDbEntity
  8
0
100
AcDbLine
 62
7
  6
CONTINUOUS
 10
10.3869834891
 20
9.8455031453
 11
11.032969896
 21
9.8455031453
  0
LINE
  5
298
100
AcDbEntity
  8
0
100
AcDbLine
 62
7
  6
CONTINUOUS
 10
9.7797554654
 20
7.5601921147
 11
9.7118572186
 21
7.5281667484
  0
LINE
  5
299
100
AcDbEntity
  8
0
100
AcDbLine
 62
9
  6
CONTINUOUS
 10
10.3575675872
 20
9.8934876322
 11
10.5755832349
 21
9.893487598
  0
LINE
  5
29A
100
AcDbEntity
  8
0
100
AcDbLine
 62
9
  6
CONTINUOUS
 10
10.8443837551
 20
9.8934876015
 11
11.0623993911
 21
9.8934876322
  0
LINE
  5
29B
100
AcDbEntity
  8
0
100
AcDbLine
 62
9
  6
CONTINUOUS
 10
10.3662587671
 20
9.9587928201
 11
10.4540932389
 21
9.9587928323
  0
LINE
  5
29C
100
AcDbEntity
  8
0
100
AcDbLine
 62
9
  6
CONTINUOUS
 10
10.9658737395
 20
9.9587928323
 11
11.0537082112
 21
9.9587928201
  0
LINE
  5
29D
100
AcDbEntity
  8
0
100
AcDbLine
 62
9
  6
CONTINUOUS
 10
11.1732966046
 20
10.5720100908
 11
11.0188500623
 21
10.5720100694
  0
LINE
  5
29E
100
AcDbEntity
  8
0
100
AcDbLine
 62
9
  6
CONTINUOUS
 10
10.401116916
 20
10.5720100695
 11
10.2466703737
 21
10.5720100899
  0
LINE
  5
29F
100
AcDbEntity
  8
0
100
AcDbLine
 62
9
  6
CONTINUOUS
 10
11.1983273945
 20
10.6320473191
 11
10.9514542584
 21
10.6320472205
  0
LINE
  5
2A0
100
AcDbEntity
  8
0
100
AcDbLine
 62
9
  6
CONTINUOUS
 10
10.468512715
 20
10.6320472164
 11
10.2216395838
 21
10.6320473191
  0
LINE
  5
2A1
100
AcDbEntity
  8
0
100
AcDbLine
 62
7
  6
CONTINUOUS
 10
10.2420146352
 20
10.6819346902
 11
10.3647413349
 21
10.696641354
  0
LINE
  5
2A2
100
AcDbEntity
  8
0
100
AcDbLine
 62
9
  6
CONTINUOUS
 10
10.8561989762
 20
10.6819345808
 11
11.1779523431
 21
10.6819346902
  0
LINE
  5
2A3
100
AcDbEntity
  8
0
100
AcDbLine
 62
9
  6
CONTINUOUS
 10
10.2420146352
 20
10.6819346902
 11
10.5637684587
 21
10.6819347194
  0
LINE
  5
2A4
100
AcDbEntity
  8
0
100
AcDbLine
 62
9
  6
CONTINUOUS
 10
10.8077176798
 20
10.6966412213
 11
11.0552256434
 21
10.696641354
  0
LINE
  5
2A5
100
AcDbEntity
  8
0
100
AcDbLine
 62
9
  6
CONTINUOUS
 10
10.3647413349
 20
10.696641354
 11
10.6122496399
 21
10.6966413249
  0
LINE
  5
2A6
100
AcDbEntity
  8
0
100
AcDbLine
 62
7
  6
CONTINUOUS
 10
11.1779523431
 20
10.6819346902
 11
11.0552256434
 21
10.696641354
  0
ARC
  5
2A7
100
AcDbEntity
  8
0
100
AcDbCircle
 62
7
  6
CONTINUOUS
 10
8.5326930723
 20
8.8153031755
 40
2.6389999969
100
AcDbArc
 50
351.1934452325
 51
357.6954064276
  0
ARC
  5
2A8
100
AcDbEntity
  8
0
100
AcDbCircle
 62
7
  6
CONTINUOUS
 10
7.8009525427
 20
8.0273031844
 40
2.5080000028
100
AcDbArc
 50
5.1872496666
 51
8.8065547675
  0
ARC
  5
2A9
100
AcDbEntity
  8
0
100
AcDbCircle
 62
7
  6
CONTINUOUS
 10
9.3360427773
 20
8.7829728073
 40
1.8349999961
100
AcDbArc
 50
357.6954064276
 51
6.9507933965
  0
ARC
  5
2AA
100
AcDbEntity
  8
0
100
AcDbCircle
 62
7
  6
CONTINUOUS
 10
10.1781647544
 20
7.2300414481
 40
0.6078409296
100
AcDbArc
 50
159.6970355868
 51
173.3643665395
  0
ARC
  5
2AB
100
AcDbEntity
  8
0
100
AcDbCircle
 62
7
  6
CONTINUOUS
 10
9.5666192818
 20
8.0001237791
 40
0.4888424103
100
AcDbArc
 50
295.8490587858
 51
321.3390445145
  0
ARC
  5
2AC
100
AcDbEntity
  8
0
100
AcDbCircle
 62
7
  6
CONTINUOUS
 10
10.0874397342
 20
8.5102682379
 40
0.4260000011
100
AcDbArc
 50
284.9703215056
 51
285.5173434455
  0
ARC
  5
2AD
100
AcDbEntity
  8
0
100
AcDbCircle
 62
7
  6
CONTINUOUS
 10
9.6563464383
 20
7.9283391073
 40
0.3739337434
100
AcDbArc
 50
321.3390445146
 51
345.43503933
  0
ARC
  5
2AE
100
AcDbEntity
  8
0
100
AcDbCircle
 62
7
  6
CONTINUOUS
 10
9.8678411385
 20
7.1883205167
 40
0.3739337434
100
AcDbArc
 50
114.6543569553
 51
127.2907938915
  0
ARC
  5
2AF
100
AcDbEntity
  8
0
100
AcDbCircle
 62
7
  6
CONTINUOUS
 10
9.9819834918
 20
8.2253031835
 40
0.3180000027
100
AcDbArc
 50
350.3302611379
 51
5.1872496666
  0
ARC
  5
2B0
100
AcDbEntity
  8
0
100
AcDbCircle
 62
7
  6
CONTINUOUS
 10
10.1390730345
 20
8.3243031823
 40
0.2330000021
100
AcDbArc
 50
285.5173434455
 51
303.859188203
  0
ARC
  5
2B1
100
AcDbEntity
  8
0
100
AcDbCircle
 62
7
  6
CONTINUOUS
 10
9.7018754823
 20
7.4062542148
 40
0.1
100
AcDbArc
 50
127.2907938916
 51
159.6970355868
  0
ARC
  5
2B2
100
AcDbEntity
  8
0
100
AcDbCircle
 62
7
  6
CONTINUOUS
 10
10.2343463248
 20
8.1823031836
 40
0.0620000037
100
AcDbArc
 50
303.859188203
 51
350.330261138
  0
ARC
  5
2B3
100
AcDbEntity
  8
0
100
AcDbCircle
 62
7
  6
CONTINUOUS
 10
10.1682771394
 20
9.0411031937
 40
0.1791305125
100
AcDbArc
 50
8.5880009004
 51
8.8474274104
  0
ARC
  5
2B4
100
AcDbEntity
  8
0
100
AcDbCircle
 62
7
  6
CONTINUOUS
 10
10.2162666234
 20
9.0403203022
 40
0.1131420076
100
AcDbArc
 50
14.083882796
 51
14.5028557135
  0
ARC
  5
2B5
100
AcDbEntity
  8
0
100
AcDbCircle
 62
7
  6
CONTINUOUS
 10
10.2212076531
 20
8.9885720814
 40
0.0980463903
100
AcDbArc
 50
53.9593210551
 51
54.763258216
  0
ARC
  5
2B6
100
AcDbEntity
  8
0
100
AcDbCircle
 62
7
  6
CONTINUOUS
 10
10.2099860724
 20
8.9916298461
 40
0.0952587964
100
AcDbArc
 50
53.1455094857
 51
53.9569350316
  0
ARC
  5
2B7
100
AcDbEntity
  8
0
100
AcDbCircle
 62
7
  6
CONTINUOUS
 10
10.2008433115
 20
8.9950073859
 40
0.0922303779
100
AcDbArc
 50
52.1682277845
 51
52.987571566
  0
ARC
  5
2B8
100
AcDbEntity
  8
0
100
AcDbCircle
 62
7
  6
CONTINUOUS
 10
10.2229172558
 20
9.0379560808
 40
0.0905658506
100
AcDbArc
 50
19.275144697
 51
19.8132436782
  0
ARC
  5
2B9
100
AcDbEntity
  8
0
100
AcDbCircle
 62
7
  6
CONTINUOUS
 10
10.1938251741
 20
8.998690803
 40
0.0889834621
100
AcDbArc
 50
51.0085444573
 51
51.8362018657
  0
ARC
  5
2BA
100
AcDbEntity
  8
0
100
AcDbCircle
 62
7
  6
CONTINUOUS
 10
10.1889350565
 20
9.0026120249
 40
0.0856056733
100
AcDbArc
 50
49.6498161481
 51
50.4855278957
  0
ARC
  5
2BB
100
AcDbEntity
  8
0
100
AcDbCircle
 62
7
  6
CONTINUOUS
 10
10.1861315004
 20
9.0066731309
 40
0.0822321704
100
AcDbArc
 50
48.0715858414
 51
48.9142372884
  0
ARC
  5
2BC
100
AcDbEntity
  8
0
100
AcDbCircle
 62
7
  6
CONTINUOUS
 10
10.1853761332
 20
9.0108120182
 40
0.0789655088
100
AcDbArc
 50
46.2483168938
 51
47.0958478052
  0
ARC
  5
2BD
100
AcDbEntity
  8
0
100
AcDbCircle
 62
7
  6
CONTINUOUS
 10
10.220604242
 20
9.0356452248
 40
0.0789420359
100
AcDbArc
 50
24.0782948954
 51
24.7171865997
  0
ARC
  5
2BE
100
AcDbEntity
  8
0
100
AcDbCircle
 62
7
  6
CONTINUOUS
 10
10.1865881256
 20
9.0149510119
 40
0.0759461248
100
AcDbArc
 50
44.1518679521
 51
45.0007338645
  0
ARC
  5
2BF
100
AcDbEntity
  8
0
100
AcDbCircle
 62
7
  6
CONTINUOUS
 10
10.188478341
 20
9.0140520873
 40
0.07448003
100
AcDbArc
 50
353.0491745954
 51
46.248502456
  0
ARC
  5
2C0
100
AcDbEntity
  8
0
100
AcDbCircle
 62
7
  6
CONTINUOUS
 10
10.1896435592
 20
9.019012905
 40
0.0733436383
100
AcDbArc
 50
41.7512047978
 51
42.596030719
  0
ARC
  5
2C1
100
AcDbEntity
  8
0
100
AcDbCircle
 62
7
  6
CONTINUOUS
 10
10.2146301645
 20
9.0330266405
 40
0.0730937259
100
AcDbArc
 50
28.4539750982
 51
29.1710999746
  0
ARC
  5
2C2
100
AcDbEntity
  8
0
100
AcDbCircle
 62
7
  6
CONTINUOUS
 10
10.1943563027
 20
9.0229214933
 40
0.0713745701
100
AcDbArc
 50
39.0137661529
 51
39.8467984278
  0
ARC
  5
2C3
100
AcDbEntity
  8
0
100
AcDbCircle
 62
7
  6
CONTINUOUS
 10
10.2074477444
 20
9.029995172
 40
0.0706685118
100
AcDbArc
 50
32.3913538655
 51
33.1642470539
  0
ARC
  5
2C4
100
AcDbEntity
  8
0
100
AcDbCircle
 62
7
  6
CONTINUOUS
 10
10.2004407902
 20
9.0266050244
 40
0.0703356232
100
AcDbArc
 50
35.9044588039
 51
36.7147822808
  0
ARC
  5
2C5
100
AcDbEntity
  8
0
100
AcDbCircle
 62
7
  6
CONTINUOUS
 10
10.2863017674
 20
8.9809992492
 40
0.1050522814
100
AcDbArc
 50
55.7675009734
 51
56.5527095389
  0
ARC
  5
2C6
100
AcDbEntity
  8
0
100
AcDbCircle
 62
7
  6
CONTINUOUS
 10
10.2671077525
 20
8.9820931921
 40
0.1040377808
100
AcDbArc
 50
55.518549151
 51
56.3063693077
  0
ARC
  5
2C7
100
AcDbEntity
  8
0
100
AcDbCircle
 62
7
  6
CONTINUOUS
 10
10.2498501225
 20
8.9838060983
 40
0.1024333956
100
AcDbArc
 50
55.1345008356
 51
55.9267019706
  0
ARC
  5
2C8
100
AcDbEntity
  8
0
100
AcDbCircle
 62
7
  6
CONTINUOUS
 10
10.234522001
 20
8.9859612608
 40
0.1004400672
100
AcDbArc
 50
54.6193159678
 51
55.4167806079
  0
ARC
  5
2C9
100
AcDbEntity
  8
0
100
AcDbCircle
 62
7
  6
CONTINUOUS
 10
10.2862353224
 20
9.1094772015
 40
0.0620945584
100
AcDbArc
 50
192.5686227075
 51
193.8391994653
  0
ARC
  5
2CA
100
AcDbEntity
  8
0
100
AcDbCircle
 62
7
  6
CONTINUOUS
 10
10.2801351644
 20
9.1095840638
 40
0.0583858633
100
AcDbArc
 50
193.4895549521
 51
195.6691636681
  0
ARC
  5
2CB
100
AcDbEntity
  8
0
100
AcDbCircle
 62
7
  6
CONTINUOUS
 10
10.2822166485
 20
9.1102787664
 40
0.05807292
100
AcDbArc
 50
165.6065746529
 51
167.0146596419
  0
ARC
  5
2CC
100
AcDbEntity
  8
0
100
AcDbCircle
 62
7
  6
CONTINUOUS
 10
10.2776551387
 20
9.1078691517
 40
0.0576205061
100
AcDbArc
 50
95.7716482042
 51
100.1271445496
  0
ARC
  5
2CD
100
AcDbEntity
  8
0
100
AcDbCircle
 62
7
  6
CONTINUOUS
 10
10.2803179518
 20
9.1063561393
 40
0.0574833106
100
AcDbArc
 50
128.7202324505
 51
140.7017818199
  0
ARC
  5
2CE
100
AcDbEntity
  8
0
100
AcDbCircle
 62
7
  6
CONTINUOUS
 10
10.2775883962
 20
9.1081768033
 40
0.0573059133
100
AcDbArc
 50
100.1155393425
 51
113.2935871176
  0
ARC
  5
2CF
100
AcDbEntity
  8
0
100
AcDbCircle
 62
7
  6
CONTINUOUS
 10
10.2814701231
 20
9.1107961918
 40
0.05719252
100
AcDbArc
 50
146.2590197375
 51
157.0695274399
  0
ARC
  5
2D0
100
AcDbEntity
  8
0
100
AcDbCircle
 62
7
  6
CONTINUOUS
 10
10.2776004368
 20
9.1084496765
 40
0.0570374233
100
AcDbArc
 50
90.0100573534
 51
95.7756213978
  0
ARC
  5
2D1
100
AcDbEntity
  8
0
100
AcDbCircle
 62
7
  6
CONTINUOUS
 10
10.2773592902
 20
9.1084652428
 40
0.0560620062
100
AcDbArc
 50
130.3265245514
 51
142.449966057
  0
ARC
  5
2D2
100
AcDbEntity
  8
0
100
AcDbCircle
 62
7
  6
CONTINUOUS
 10
10.277006136
 20
9.1087039018
 40
0.0556365724
100
AcDbArc
 50
142.4231729045
 51
153.913798478
  0
ARC
  5
2D3
100
AcDbEntity
  8
0
100
AcDbCircle
 62
7
  6
CONTINUOUS
 10
10.2773044643
 20
9.1099476556
 40
0.0556327769
100
AcDbArc
 50
131.1911035283
 51
132.1320573907
  0
ARC
  5
2D4
100
AcDbEntity
  8
0
100
AcDbCircle
 62
7
  6
CONTINUOUS
 10
10.2771241941
 20
9.1097123195
 40
0.0554940376
100
AcDbArc
 50
194.3431192414
 51
196.7351351399
  0
ARC
  5
2D5
100
AcDbEntity
  8
0
100
AcDbCircle
 62
7
  6
CONTINUOUS
 10
10.2769105189
 20
9.109887865
 40
0.0554662838
100
AcDbArc
 50
113.3493712427
 51
116.5949116478
  0
ARC
  5
2D6
100
AcDbEntity
  8
0
100
AcDbCircle
 62
7
  6
CONTINUOUS
 10
10.276955493
 20
9.1103508658
 40
0.0550995315
100
AcDbArc
 50
128.3212029064
 51
131.1941569355
  0
ARC
  5
2D7
100
AcDbEntity
  8
0
100
AcDbCircle
 62
7
  6
CONTINUOUS
 10
10.2767555414
 20
9.1100728439
 40
0.0550162989
100
AcDbArc
 50
163.6830985832
 51
165.2657808975
  0
ARC
  5
2D8
100
AcDbEntity
  8
0
100
AcDbCircle
 62
7
  6
CONTINUOUS
 10
10.2762853634
 20
9.1094178851
 40
0.0546059916
100
AcDbArc
 50
196.6946597291
 51
205.0637949707
  0
ARC
  5
2D9
100
AcDbEntity
  8
0
100
AcDbCircle
 62
7
  6
CONTINUOUS
 10
10.2763052266
 20
9.1101923181
 40
0.0545504057
100
AcDbArc
 50
165.26684625
 51
166.0664577039
  0
ARC
  5
2DA
100
AcDbEntity
  8
0
100
AcDbCircle
 62
7
  6
CONTINUOUS
 10
10.2765827484
 20
9.1107826181
 40
0.0545297016
100
AcDbArc
 50
132.1582233224
 51
144.2216683303
  0
ARC
  5
2DB
100
AcDbEntity
  8
0
100
AcDbCircle
 62
7
  6
CONTINUOUS
 10
10.275854222
 20
9.1092979625
 40
0.0543407845
100
AcDbArc
 50
153.9422908901
 51
162.4920434313
  0
ARC
  5
2DC
100
AcDbEntity
  8
0
100
AcDbCircle
 62
7
  6
CONTINUOUS
 10
10.2762243155
 20
9.1112866611
 40
0.0539119758
100
AcDbArc
 50
116.580306611
 51
128.3282329592
  0
ARC
  5
2DD
100
AcDbEntity
  8
0
100
AcDbCircle
 62
7
  6
CONTINUOUS
 10
10.2769469744
 20
9.1098376829
 40
0.0531602328
100
AcDbArc
 50
195.1271522166
 51
196.870571333
  0
ARC
  5
2DE
100
AcDbEntity
  8
0
100
AcDbCircle
 62
7
  6
CONTINUOUS
 10
10.2767453184
 20
9.1097529602
 40
0.0529426728
100
AcDbArc
 50
196.8461631075
 51
206.3124746872
  0
ARC
  5
2DF
100
AcDbEntity
  8
0
100
AcDbCircle
 62
7
  6
CONTINUOUS
 10
10.2776485499
 20
9.1060141683
 40
0.0528346941
100
AcDbArc
 50
224.2442492164
 51
225.0010400733
  0
ARC
  5
2E0
100
AcDbEntity
  8
0
100
AcDbCircle
 62
7
  6
CONTINUOUS
 10
10.2745076926
 20
9.1085795552
 40
0.0526405733
100
AcDbArc
 50
205.0569156674
 51
216.7283825926
  0
ARC
  5
2E1
100
AcDbEntity
  8
0
100
AcDbCircle
 62
7
  6
CONTINUOUS
 10
10.2740237082
 20
9.1099189212
 40
0.0524082772
100
AcDbArc
 50
162.537418422
 51
164.2955968949
  0
ARC
  5
2E2
100
AcDbEntity
  8
0
100
AcDbCircle
 62
7
  6
CONTINUOUS
 10
10.2761297443
 20
9.1094830984
 40
0.052271267
100
AcDbArc
 50
206.346412744
 51
218.2820730716
  0
ARC
  5
2E3
100
AcDbEntity
  8
0
100
AcDbCircle
 62
7
  6
CONTINUOUS
 10
10.2772279571
 20
9.1056168546
 40
0.0522561809
100
AcDbArc
 50
213.1751446752
 51
224.2539318541
  0
ARC
  5
2E4
100
AcDbEntity
  8
0
100
AcDbCircle
 62
7
  6
CONTINUOUS
 10
10.2757558164
 20
9.1092033129
 40
0.0520811393
100
AcDbArc
 50
152.3939248117
 51
162.4039573839
  0
ARC
  5
2E5
100
AcDbEntity
  8
0
100
AcDbCircle
 62
7
  6
CONTINUOUS
 10
10.2734654762
 20
9.1100773653
 40
0.0518279967
100
AcDbArc
 50
164.2971782236
 51
165.1871409195
  0
ARC
  5
2E6
100
AcDbEntity
  8
0
100
AcDbCircle
 62
7
  6
CONTINUOUS
 10
10.2816774585
 20
9.1035897184
 40
0.0516509809
100
AcDbArc
 50
210.9550219805
 51
220.4359656036
  0
ARC
  5
2E7
100
AcDbEntity
  8
0
100
AcDbCircle
 62
7
  6
CONTINUOUS
 10
10.2797500133
 20
9.1100371839
 40
0.0515517357
100
AcDbArc
 50
198.637554528
 51
207.4348137651
  0
ARC
  5
2E8
100
AcDbEntity
  8
0
100
AcDbCircle
 62
7
  6
CONTINUOUS
 10
10.2795411435
 20
9.109976547
 40
0.0513344417
100
AcDbArc
 50
195.8398030036
 51
198.6479274581
  0
ARC
  5
2E9
100
AcDbEntity
  8
0
100
AcDbCircle
 62
7
  6
CONTINUOUS
 10
10.2812144977
 20
9.1032053864
 40
0.0510493306
100
AcDbArc
 50
220.4446619157
 51
222.5963563122
  0
ARC
  5
2EA
100
AcDbEntity
  8
0
100
AcDbCircle
 62
7
  6
CONTINUOUS
 10
10.2852688406
 20
9.110290185
 40
0.0504261713
100
AcDbArc
 50
196.5041440111
 51
208.4150750366
  0
ARC
  5
2EB
100
AcDbEntity
  8
0
100
AcDbCircle
 62
7
  6
CONTINUOUS
 10
10.2875266616
 20
9.10067328
 40
0.0499763925
100
AcDbArc
 50
216.4412993339
 51
219.8434144922
  0
ARC
  5
2EC
100
AcDbEntity
  8
0
100
AcDbCircle
 62
7
  6
CONTINUOUS
 10
10.2736339217
 20
9.1099047459
 40
0.0498464861
100
AcDbArc
 50
162.4351724291
 51
164.3780413787
  0
ARC
  5
2ED
100
AcDbEntity
  8
0
100
AcDbCircle
 62
7
  6
CONTINUOUS
 10
10.2765708888
 20
9.109703099
 40
0.0483733523
100
AcDbArc
 50
160.5290541148
 51
163.6408005419
  0
ARC
  5
2EE
100
AcDbEntity
  8
0
100
AcDbCircle
 62
7
  6
CONTINUOUS
 10
10.3299598623
 20
8.9804007569
 40
0.1056184546
100
AcDbArc
 50
55.8935629967
 51
56.6772330752
  0
ARC
  5
2EF
100
AcDbEntity
  8
0
100
AcDbCircle
 62
7
  6
CONTINUOUS
 10
10.3072994065
 20
8.9804512106
 40
0.1055583929
100
AcDbArc
 50
55.8927708012
 51
56.6765162198
  0
ARC
  5
2F0
100
AcDbEntity
  8
0
100
AcDbCircle
 62
7
  6
CONTINUOUS
 10
10.3542894742
 20
8.9810220516
 40
0.1050250791
100
AcDbArc
 50
55.7671257073
 51
56.5523872342
  0
ARC
  5
2F1
100
AcDbEntity
  8
0
100
AcDbCircle
 62
7
  6
CONTINUOUS
 10
10.3799965783
 20
8.98201282
 40
0.1041310358
100
AcDbArc
 50
55.5222355725
 51
56.3097629229
  0
ARC
  5
2F2
100
AcDbEntity
  8
0
100
AcDbCircle
 62
7
  6
CONTINUOUS
 10
10.4072392894
 20
8.983832632
 40
0.1024021324
100
AcDbArc
 50
55.1335677016
 51
55.9259091313
  0
ARC
  5
2F3
100
AcDbEntity
  8
0
100
AcDbCircle
 62
7
  6
CONTINUOUS
 10
10.3184393216
 20
9.1109112434
 40
0.073603956
100
AcDbArc
 50
162.4715867427
 51
170.2880554417
  0
ARC
  5
2F4
100
AcDbEntity
  8
0
100
AcDbCircle
 62
7
  6
CONTINUOUS
 10
10.3030278089
 20
9.1106375054
 40
0.0673145738
100
AcDbArc
 50
160.5256270943
 51
169.1333973968
  0
ARC
  5
2F5
100
AcDbEntity
  8
0
100
AcDbCircle
 62
7
  6
CONTINUOUS
 10
10.2954115822
 20
9.1093397103
 40
0.0666121958
100
AcDbArc
 50
191.582954287
 51
193.2256920851
  0
ARC
  5
2F6
100
AcDbEntity
  8
0
100
AcDbCircle
 62
7
  6
CONTINUOUS
 10
10.2912440203
 20
9.1103754549
 40
0.0624461203
100
AcDbArc
 50
158.7027639926
 51
168.0289649214
  0
ARC
  5
2F7
100
AcDbEntity
  8
0
100
AcDbCircle
 62
7
  6
CONTINUOUS
 10
10.332304704
 20
9.0979724172
 40
0.0613359853
100
AcDbArc
 50
199.9718097349
 51
204.1840739765
  0
ARC
  5
2F8
100
AcDbEntity
  8
0
100
AcDbCircle
 62
7
  6
CONTINUOUS
 10
10.3140219889
 20
9.0990905501
 40
0.0563611186
100
AcDbArc
 50
203.0510344903
 51
208.2224667205
  0
ARC
  5
2F9
100
AcDbEntity
  8
0
100
AcDbCircle
 62
7
  6
CONTINUOUS
 10
10.3091641407
 20
9.0964458409
 40
0.0508301182
100
AcDbArc
 50
208.1852209581
 51
213.1453172249
  0
ARC
  5
2FA
100
AcDbEntity
  8
0
100
AcDbCircle
 62
7
  6
CONTINUOUS
 10
10.2967580393
 20
9.0984252569
 40
0.0498107807
100
AcDbArc
 50
212.322000903
 51
216.7045509909
  0
ARC
  5
2FB
100
AcDbEntity
  8
0
100
AcDbCircle
 62
7
  6
CONTINUOUS
 10
10.293250627
 20
9.1105283753
 40
0.0495489878
100
AcDbArc
 50
197.092853864
 51
209.2929897154
  0
ARC
  5
2FC
100
AcDbEntity
  8
0
100
AcDbCircle
 62
7
  6
CONTINUOUS
 10
10.4042234891
 20
9.3170631453
 40
0.03724
100
AcDbArc
 50
90.0
 51
180.0
  0
ARC
  5
2FD
100
AcDbEntity
  8
0
100
AcDbCircle
 62
7
  6
CONTINUOUS
 10
10.1468734972
 20
10.5656392099
 40
0.1000000234
100
AcDbArc
 50
3.6527182643
 51
41.611855942
  0
ARC
  5
2FE
100
AcDbEntity
  8
0
100
AcDbCircle
 62
7
  6
CONTINUOUS
 10
10.2683195406
 20
9.9385961911
 40
0.0999999795
100
AcDbArc
 50
333.1866384797
 51
11.6519682986
  0
ARC
  5
2FF
100
AcDbEntity
  8
0
100
AcDbCircle
 62
7
  6
CONTINUOUS
 10
10.6039064578
 20
9.0918295782
 40
0.4502078684
100
AcDbArc
 50
357.0493127169
 51
358.1251819906
  0
ARC
  5
300
100
AcDbEntity
  8
0
100
AcDbCircle
 62
7
  6
CONTINUOUS
 10
10.591781418
 20
9.0409074438
 40
0.1804325192
100
AcDbArc
 50
171.1540502028
 51
171.4115979563
  0
ARC
  5
301
100
AcDbEntity
  8
0
100
AcDbCircle
 62
7
  6
CONTINUOUS
 10
10.5452002515
 20
9.0412041728
 40
0.1095472361
100
AcDbArc
 50
165.4878863174
 51
165.9208728352
  0
ARC
  5
302
100
AcDbEntity
  8
0
100
AcDbCircle
 62
7
  6
CONTINUOUS
 10
10.4355221219
 20
8.9858377458
 40
0.1005847435
100
AcDbArc
 50
54.6251875409
 51
55.4221561485
  0
ARC
  5
303
100
AcDbEntity
  8
0
100
AcDbCircle
 62
7
  6
CONTINUOUS
 10
10.465042524
 20
8.9885622371
 40
0.098057891
100
AcDbArc
 50
53.9599265669
 51
54.7638784605
  0
ARC
  5
304
100
AcDbEntity
  8
0
100
AcDbCircle
 62
7
  6
CONTINUOUS
 10
10.4954277328
 20
8.991579643
 40
0.0953157575
100
AcDbArc
 50
53.1504743152
 51
53.9615069606
  0
ARC
  5
305
100
AcDbEntity
  8
0
100
AcDbCircle
 62
7
  6
CONTINUOUS
 10
10.5265593476
 20
8.9949320805
 40
0.092321132
100
AcDbArc
 50
52.1722013814
 51
52.9912554682
  0
ARC
  5
306
100
AcDbEntity
  8
0
100
AcDbCircle
 62
7
  6
CONTINUOUS
 10
10.5519794355
 20
9.0377047236
 40
0.0913202193
100
AcDbArc
 50
160.1897500201
 51
160.7233495903
  0
ARC
  5
307
100
AcDbEntity
  8
0
100
AcDbCircle
 62
7
  6
CONTINUOUS
 10
10.558364889
 20
8.9986805484
 40
0.0889949347
100
AcDbArc
 50
51.0099843805
 51
51.8375923473
  0
ARC
  5
308
100
AcDbEntity
  8
0
100
AcDbCircle
 62
7
  6
CONTINUOUS
 10
10.5904722422
 20
9.0024908718
 40
0.0857546965
100
AcDbArc
 50
49.6582340397
 51
50.4932756757
  0
ARC
  5
309
100
AcDbEntity
  8
0
100
AcDbCircle
 62
7
  6
CONTINUOUS
 10
10.6229666506
 20
9.0066787211
 40
0.0822248309
100
AcDbArc
 50
48.0714535662
 51
48.9141955908
  0
ARC
  5
30A
100
AcDbEntity
  8
0
100
AcDbCircle
 62
7
  6
CONTINUOUS
 10
10.6553005575
 20
9.0107181445
 40
0.0790859378
100
AcDbArc
 50
46.2560441695
 51
47.1029201595
  0
ARC
  5
30B
100
AcDbEntity
  8
0
100
AcDbCircle
 62
7
  6
CONTINUOUS
 10
10.6875474908
 20
9.0149294119
 40
0.0759748284
100
AcDbArc
 50
44.1537129111
 51
45.0024877565
  0
ARC
  5
30C
100
AcDbEntity
  8
0
100
AcDbCircle
 62
7
  6
CONTINUOUS
 10
10.5616772287
 20
9.0375213832
 40
0.0743888749
100
AcDbArc
 50
155.2585184884
 51
155.9369973997
  0
ARC
  5
30D
100
AcDbEntity
  8
0
100
AcDbCircle
 62
7
  6
CONTINUOUS
 10
10.7006950524
 20
9.0190065804
 40
0.0733425281
100
AcDbArc
 50
137.3950616631
 51
138.2407964082
  0
ARC
  5
30E
100
AcDbEntity
  8
0
100
AcDbCircle
 62
7
  6
CONTINUOUS
 10
10.5869975899
 20
9.0330260198
 40
0.0730928218
100
AcDbArc
 50
150.8278390144
 51
151.5450295872
  0
ARC
  5
30F
100
AcDbEntity
  8
0
100
AcDbCircle
 62
7
  6
CONTINUOUS
 10
10.6698163419
 20
9.0229212149
 40
0.0713744113
100
AcDbArc
 50
140.1525821319
 51
140.9857710209
  0
ARC
  5
310
100
AcDbEntity
  8
0
100
AcDbCircle
 62
7
  6
CONTINUOUS
 10
10.6122583821
 20
9.0299929611
 40
0.0706658185
100
AcDbArc
 50
146.831386815
 51
147.6048223061
  0
ARC
  5
311
100
AcDbEntity
  8
0
100
AcDbCircle
 62
7
  6
CONTINUOUS
 10
10.64014587
 20
9.0266021455
 40
0.0703336724
100
AcDbArc
 50
143.2804435935
 51
144.091192917
  0
ARC
  5
312
100
AcDbEntity
  8
0
100
AcDbCircle
 62
7
  6
CONTINUOUS
 10
12.887273906
 20
8.8153031755
 40
2.6389999969
100
AcDbArc
 50
182.3045935724
 51
188.8065547675
  0
ARC
  5
313
100
AcDbEntity
  8
0
100
AcDbCircle
 62
7
  6
CONTINUOUS
 10
13.6190144355
 20
8.0273031844
 40
2.5080000028
100
AcDbArc
 50
171.1934452325
 51
174.8127503334
  0
ARC
  5
314
100
AcDbEntity
  8
0
100
AcDbCircle
 62
7
  6
CONTINUOUS
 10
12.0839242009
 20
8.7829728073
 40
1.8349999961
100
AcDbArc
 50
173.0492066035
 51
182.3045935724
  0
ARC
  5
315
100
AcDbEntity
  8
0
100
AcDbCircle
 62
7
  6
CONTINUOUS
 10
11.2418022239
 20
7.2300414481
 40
0.6078409296
100
AcDbArc
 50
6.6356334605
 51
20.3029644132
  0
ARC
  5
316
100
AcDbEntity
  8
0
100
AcDbCircle
 62
7
  6
CONTINUOUS
 10
11.8533476965
 20
8.0001237791
 40
0.4888424103
100
AcDbArc
 50
218.6609554855
 51
244.1509412142
  0
ARC
  5
317
100
AcDbEntity
  8
0
100
AcDbCircle
 62
7
  6
CONTINUOUS
 10
11.3325272441
 20
8.5102682379
 40
0.4260000011
100
AcDbArc
 50
254.4826565545
 51
255.0296784944
  0
ARC
  5
318
100
AcDbEntity
  8
0
100
AcDbCircle
 62
7
  6
CONTINUOUS
 10
11.7636205399
 20
7.9283391073
 40
0.3739337434
100
AcDbArc
 50
194.56496067
 51
218.6609554854
  0
ARC
  5
319
100
AcDbEntity
  8
0
100
AcDbCircle
 62
7
  6
CONTINUOUS
 10
11.5521258397
 20
7.1883205167
 40
0.3739337434
100
AcDbArc
 50
52.7092061085
 51
65.3456430447
  0
ARC
  5
31A
100
AcDbEntity
  8
0
100
AcDbCircle
 62
7
  6
CONTINUOUS
 10
11.4379834865
 20
8.2253031835
 40
0.3180000027
100
AcDbArc
 50
174.8127503334
 51
189.6697388621
  0
ARC
  5
31B
100
AcDbEntity
  8
0
100
AcDbCircle
 62
7
  6
CONTINUOUS
 10
11.2808939438
 20
8.3243031823
 40
0.2330000021
100
AcDbArc
 50
236.140811797
 51
254.4826565545
  0
ARC
  5
31C
100
AcDbEntity
  8
0
100
AcDbCircle
 62
7
  6
CONTINUOUS
 10
11.7180914959
 20
7.4062542148
 40
0.1
100
AcDbArc
 50
20.3029644132
 51
52.7092061084
  0
ARC
  5
31D
100
AcDbEntity
  8
0
100
AcDbCircle
 62
7
  6
CONTINUOUS
 10
11.1856206534
 20
8.1823031836
 40
0.0620000037
100
AcDbArc
 50
189.669738862
 51
236.140811797
  0
ARC
  5
31E
100
AcDbEntity
  8
0
100
AcDbCircle
 62
7
  6
CONTINUOUS
 10
10.815246637
 20
9.0917906372
 40
0.4493930636
100
AcDbArc
 50
181.8831257701
 51
182.9510980722
  0
ARC
  5
31F
100
AcDbEntity
  8
0
100
AcDbCircle
 62
7
  6
CONTINUOUS
 10
10.8384689319
 20
9.0424808198
 40
0.1700295427
100
AcDbArc
 50
8.5817371308
 51
8.8551328911
  0
ARC
  5
320
100
AcDbEntity
  8
0
100
AcDbCircle
 62
7
  6
CONTINUOUS
 10
10.8740833047
 20
9.0410323808
 40
0.110251864
100
AcDbArc
 50
14.0792112051
 51
14.5090301822
  0
ARC
  5
321
100
AcDbEntity
  8
0
100
AcDbCircle
 62
7
  6
CONTINUOUS
 10
10.9843536955
 20
8.9859689708
 40
0.1004249765
100
AcDbArc
 50
124.5773226866
 51
125.3757444019
  0
ARC
  5
322
100
AcDbEntity
  8
0
100
AcDbCircle
 62
7
  6
CONTINUOUS
 10
10.9549023239
 20
8.9885978814
 40
0.0980159171
100
AcDbArc
 50
125.2378819886
 51
126.0419277045
  0
ARC
  5
323
100
AcDbEntity
  8
0
100
AcDbCircle
 62
7
  6
CONTINUOUS
 10
10.9245054804
 20
8.9916195928
 40
0.0952636924
100
AcDbArc
 50
126.0354026279
 51
126.8476159747
  0
ARC
  5
324
100
AcDbEntity
  8
0
100
AcDbCircle
 62
7
  6
CONTINUOUS
 10
10.8933496024
 20
8.9950177113
 40
0.0922176825
100
AcDbArc
 50
127.0124382814
 51
127.8320592319
  0
ARC
  5
325
100
AcDbEntity
  8
0
100
AcDbCircle
 62
7
  6
CONTINUOUS
 10
10.861582917
 20
8.9986947646
 40
0.0889720584
100
AcDbArc
 50
128.1577164677
 51
128.986056302
  0
ARC
  5
326
100
AcDbEntity
  8
0
100
AcDbCircle
 62
7
  6
CONTINUOUS
 10
10.871051945
 20
9.0387907681
 40
0.0880691417
100
AcDbArc
 50
19.2679668362
 51
19.8214213812
  0
ARC
  5
327
100
AcDbEntity
  8
0
100
AcDbCircle
 62
7
  6
CONTINUOUS
 10
10.8294042512
 20
9.0026061054
 40
0.0856081331
100
AcDbArc
 50
129.5092995456
 51
130.3456229454
  0
ARC
  5
328
100
AcDbEntity
  8
0
100
AcDbCircle
 62
7
  6
CONTINUOUS
 10
10.7970029
 20
9.0066705603
 40
0.08223273
100
AcDbArc
 50
131.0831582517
 51
131.92601237
  0
ARC
  5
329
100
AcDbEntity
  8
0
100
AcDbCircle
 62
7
  6
CONTINUOUS
 10
10.7645847689
 20
9.0108055597
 40
0.0789663286
100
AcDbArc
 50
132.8966767453
 51
133.745010645
  0
ARC
  5
32A
100
AcDbEntity
  8
0
100
AcDbCircle
 62
7
  6
CONTINUOUS
 10
10.7324004801
 20
9.0149508749
 40
0.0759461385
100
AcDbArc
 50
134.9991333562
 51
135.8479949171
  0
ARC
  5
32B
100
AcDbEntity
  8
0
100
AcDbCircle
 62
7
  6
CONTINUOUS
 10
10.7192358745
 20
9.0189779038
 40
0.0733883813
100
AcDbArc
 50
41.7570382207
 51
42.6014290084
  0
ARC
  5
32C
100
AcDbEntity
  8
0
100
AcDbCircle
 62
7
  6
CONTINUOUS
 10
10.8329723758
 20
9.0330308673
 40
0.0730878082
100
AcDbArc
 50
28.45263336
 51
29.169704617
  0
ARC
  5
32D
100
AcDbEntity
  8
0
100
AcDbCircle
 62
7
  6
CONTINUOUS
 10
10.8600141836
 20
9.0383031297
 40
0.0724955523
100
AcDbArc
 50
24.0545610159
 51
24.7506134406
  0
ARC
  5
32E
100
AcDbEntity
  8
0
100
AcDbCircle
 62
7
  6
CONTINUOUS
 10
10.750087187
 20
9.0228626409
 40
0.0714607754
100
AcDbArc
 50
39.0188834408
 51
39.8514099808
  0
ARC
  5
32F
100
AcDbEntity
  8
0
100
AcDbCircle
 62
7
  6
CONTINUOUS
 10
10.8076053967
 20
9.0299227708
 40
0.0707906646
100
AcDbArc
 50
32.3985270168
 51
33.1708212648
  0
ARC
  5
330
100
AcDbEntity
  8
0
100
AcDbCircle
 62
7
  6
CONTINUOUS
 10
10.7798052564
 20
9.0265959688
 40
0.070349967
100
AcDbArc
 50
35.9051214178
 51
36.7152425044
  0
CIRCLE
  5
331
100
AcDbEntity
  8
0
100
AcDbCircle
 62
7
  6
CONTINUOUS
 10
10.7099834891
 20
10.2895031453
 40
0.42
  0
CIRCLE
  5
332
100
AcDbEntity
  8
0
100
AcDbCircle
 62
9
  6
CONTINUOUS
 10
10.7099834891
 20
10.2895031453
 40
0.389047619
  0
ARC
  5
333
100
AcDbEntity
  8
0
100
AcDbCircle
 62
7
  6
CONTINUOUS
 10
11.1126454813
 20
8.9804791803
 40
0.1055229666
100
AcDbArc
 50
123.3212683506
 51
124.1057698854
  0
ARC
  5
334
100
AcDbEntity
  8
0
100
AcDbCircle
 62
7
  6
CONTINUOUS
 10
11.0899565817
 20
8.9804862782
 40
0.1055191109
100
AcDbArc
 50
123.3257063612
 51
124.109828132
  0
ARC
  5
335
100
AcDbEntity
  8
0
100
AcDbCircle
 62
7
  6
CONTINUOUS
 10
11.0656558559
 20
8.9810426418
 40
0.1049961163
100
AcDbArc
 50
123.4433800457
 51
124.2293398833
  0
ARC
  5
336
100
AcDbEntity
  8
0
100
AcDbCircle
 62
7
  6
CONTINUOUS
 10
11.0398744894
 20
8.9821646541
 40
0.1039513922
100
AcDbArc
 50
123.6929212458
 51
124.4816313381
  0
ARC
  5
337
100
AcDbEntity
  8
0
100
AcDbCircle
 62
7
  6
CONTINUOUS
 10
11.0127306362
 20
8.9838202268
 40
0.1024141333
100
AcDbArc
 50
124.0712927049
 51
124.8637641235
  0
ARC
  5
338
100
AcDbEntity
  8
0
100
AcDbCircle
 62
7
  6
CONTINUOUS
 10
11.1009252732
 20
9.1107619102
 40
0.074222912
100
AcDbArc
 50
9.7471249837
 51
17.7073435807
  0
ARC
  5
339
100
AcDbEntity
  8
0
100
AcDbCircle
 62
7
  6
CONTINUOUS
 10
11.116627973
 20
9.1105505163
 40
0.0676365948
100
AcDbArc
 50
10.8892726358
 51
19.6877884574
  0
ARC
  5
33A
100
AcDbEntity
  8
0
100
AcDbCircle
 62
7
  6
CONTINUOUS
 10
11.1245216268
 20
9.1093465809
 40
0.0666466569
100
AcDbArc
 50
346.7803710217
 51
348.4170884217
  0
ARC
  5
33B
100
AcDbEntity
  8
0
100
AcDbCircle
 62
7
  6
CONTINUOUS
 10
11.1284838272
 20
9.110316433
 40
0.0626924108
100
AcDbArc
 50
13.8035124991
 51
21.5431412096
  0
ARC
  5
33C
100
AcDbEntity
  8
0
100
AcDbCircle
 62
7
  6
CONTINUOUS
 10
11.1288268001
 20
9.1103986914
 40
0.0623397168
100
AcDbArc
 50
11.9699390759
 51
13.8053031052
  0
ARC
  5
33D
100
AcDbEntity
  8
0
100
AcDbCircle
 62
7
  6
CONTINUOUS
 10
11.0875973871
 20
9.0980002937
 40
0.0614065488
100
AcDbArc
 50
335.8065140988
 51
340.1006905323
  0
ARC
  5
33E
100
AcDbEntity
  8
0
100
AcDbCircle
 62
7
  6
CONTINUOUS
 10
11.1058961982
 20
9.0991155172
 40
0.0564158543
100
AcDbArc
 50
331.7685241441
 51
337.0301852373
  0
ARC
  5
33F
100
AcDbEntity
  8
0
100
AcDbCircle
 62
7
  6
CONTINUOUS
 10
11.1108145325
 20
9.096438116
 40
0.0508160931
100
AcDbArc
 50
326.8548319639
 51
331.8050149824
  0
ARC
  5
340
100
AcDbEntity
  8
0
100
AcDbCircle
 62
7
  6
CONTINUOUS
 10
11.1325023926
 20
9.1006211788
 40
0.0498953575
100
AcDbArc
 50
320.1567423731
 51
323.5591348582
  0
ARC
  5
341
100
AcDbEntity
  8
0
100
AcDbCircle
 62
7
  6
CONTINUOUS
 10
11.1232210561
 20
9.0984161215
 40
0.0497956081
100
AcDbArc
 50
323.2954973043
 51
327.6704889042
  0
ARC
  5
342
100
AcDbEntity
  8
0
100
AcDbCircle
 62
7
  6
CONTINUOUS
 10
11.1266995543
 20
9.110536349
 40
0.0495673866
100
AcDbArc
 50
330.5793547842
 51
342.9040430002
  0
ARC
  5
343
100
AcDbEntity
  8
0
100
AcDbCircle
 62
7
  6
CONTINUOUS
 10
11.0157434891
 20
9.3170631453
 40
0.03724
100
AcDbArc
 50
0.0
 51
90.0
  0
ARC
  5
344
100
AcDbEntity
  8
0
100
AcDbCircle
 62
7
  6
CONTINUOUS
 10
11.1336343029
 20
8.9810522641
 40
0.1049909144
100
AcDbArc
 50
123.4494562494
 51
124.2348846236
  0
ARC
  5
345
100
AcDbEntity
  8
0
100
AcDbCircle
 62
7
  6
CONTINUOUS
 10
11.15280985
 20
8.9821642305
 40
0.1039513166
100
AcDbArc
 50
123.6929034101
 51
124.4811666716
  0
ARC
  5
346
100
AcDbEntity
  8
0
100
AcDbCircle
 62
7
  6
CONTINUOUS
 10
11.1701059142
 20
8.9838245833
 40
0.1024119132
100
AcDbArc
 50
124.0741515921
 51
124.8664121143
  0
ARC
  5
347
100
AcDbEntity
  8
0
100
AcDbCircle
 62
7
  6
CONTINUOUS
 10
11.1854336325
 20
8.9859766371
 40
0.1004209877
100
AcDbArc
 50
124.582661075
 51
125.3804757911
  0
ARC
  5
348
100
AcDbEntity
  8
0
100
AcDbCircle
 62
7
  6
CONTINUOUS
 10
11.1336959865
 20
9.1094851333
 40
0.062131099
100
AcDbArc
 50
346.1654554236
 51
347.4313959091
  0
ARC
  5
349
100
AcDbEntity
  8
0
100
AcDbCircle
 62
7
  6
CONTINUOUS
 10
11.1397907599
 20
9.1095936467
 40
0.0584280184
100
AcDbArc
 50
344.3578728893
 51
346.5104577765
  0
ARC
  5
34A
100
AcDbEntity
  8
0
100
AcDbCircle
 62
7
  6
CONTINUOUS
 10
11.1377773625
 20
9.1102849705
 40
0.0580451845
100
AcDbArc
 50
12.985368904
 51
14.40528632
  0
ARC
  5
34B
100
AcDbEntity
  8
0
100
AcDbCircle
 62
7
  6
CONTINUOUS
 10
11.1394856068
 20
9.1061916955
 40
0.0577138384
100
AcDbArc
 50
39.0651488125
 51
51.2553070433
  0
ARC
  5
34C
100
AcDbEntity
  8
0
100
AcDbCircle
 62
7
  6
CONTINUOUS
 10
11.1423118396
 20
9.1078691517
 40
0.0576205061
100
AcDbArc
 50
79.8728554503
 51
84.2283517958
  0
ARC
  5
34D
100
AcDbEntity
  8
0
100
AcDbCircle
 62
7
  6
CONTINUOUS
 10
11.1381983834
 20
9.1106352114
 40
0.0575298311
100
AcDbArc
 50
23.2417981249
 51
33.949680767
  0
ARC
  5
34E
100
AcDbEntity
  8
0
100
AcDbCircle
 62
7
  6
CONTINUOUS
 10
11.142378582
 20
9.1081768033
 40
0.0573059133
100
AcDbArc
 50
66.7064128824
 51
79.8844606575
  0
ARC
  5
34F
100
AcDbEntity
  8
0
100
AcDbCircle
 62
7
  6
CONTINUOUS
 10
11.1423665415
 20
9.1084496765
 40
0.0570374233
100
AcDbArc
 50
84.2243786022
 51
89.9899426466
  0
ARC
  5
350
100
AcDbEntity
  8
0
100
AcDbCircle
 62
7
  6
CONTINUOUS
 10
11.1426051819
 20
9.1084614886
 40
0.0560664901
100
AcDbArc
 50
37.4620898811
 51
49.6740056394
  0
ARC
  5
351
100
AcDbEntity
  8
0
100
AcDbCircle
 62
7
  6
CONTINUOUS
 10
11.142662514
 20
9.1099476556
 40
0.0556327769
100
AcDbArc
 50
47.8679426093
 51
48.8088964719
  0
ARC
  5
352
100
AcDbEntity
  8
0
100
AcDbCircle
 62
7
  6
CONTINUOUS
 10
11.1429702586
 20
9.1087109418
 40
0.055624987
100
AcDbArc
 50
25.9815014206
 51
37.4868602163
  0
ARC
  5
353
100
AcDbEntity
  8
0
100
AcDbCircle
 62
7
  6
CONTINUOUS
 10
11.1430564593
 20
9.109887865
 40
0.0554662838
100
AcDbArc
 50
63.4050883521
 51
66.6506287572
  0
ARC
  5
354
100
AcDbEntity
  8
0
100
AcDbCircle
 62
7
  6
CONTINUOUS
 10
11.1428765325
 20
9.109703698
 40
0.0554592054
100
AcDbArc
 50
343.2565558707
 51
345.6568728586
  0
ARC
  5
355
100
AcDbEntity
  8
0
100
AcDbCircle
 62
7
  6
CONTINUOUS
 10
11.1430114852
 20
9.1103508658
 40
0.0550995315
100
AcDbArc
 50
48.8058430645
 51
51.6787970937
  0
ARC
  5
356
100
AcDbEntity
  8
0
100
AcDbCircle
 62
7
  6
CONTINUOUS
 10
11.1432308698
 20
9.1100774541
 40
0.0549963298
100
AcDbArc
 50
14.7407882836
 51
16.3364222245
  0
ARC
  5
357
100
AcDbEntity
  8
0
100
AcDbCircle
 62
7
  6
CONTINUOUS
 10
11.1430481821
 20
9.1104825908
 40
0.0549776794
100
AcDbArc
 50
35.8272755662
 51
47.7920260411
  0
ARC
  5
358
100
AcDbEntity
  8
0
100
AcDbCircle
 62
7
  6
CONTINUOUS
 10
11.1436839849
 20
9.1094181
 40
0.0546037506
100
AcDbArc
 50
334.8220146143
 51
343.2972469967
  0
ARC
  5
359
100
AcDbEntity
  8
0
100
AcDbCircle
 62
7
  6
CONTINUOUS
 10
11.1433842603
 20
9.1107826514
 40
0.0545296565
100
AcDbArc
 50
35.7783807142
 51
47.8417769119
  0
ARC
  5
35A
100
AcDbEntity
  8
0
100
AcDbCircle
 62
7
  6
CONTINUOUS
 10
11.1436889862
 20
9.1101990651
 40
0.0545223479
100
AcDbArc
 50
13.9335522806
 51
14.7396929734
  0
ARC
  5
35B
100
AcDbEntity
  8
0
100
AcDbCircle
 62
7
  6
CONTINUOUS
 10
11.144122921
 20
9.1093021494
 40
0.0543298275
100
AcDbArc
 50
17.500350891
 51
25.953556697
  0
ARC
  5
35C
100
AcDbEntity
  8
0
100
AcDbCircle
 62
7
  6
CONTINUOUS
 10
11.1437426628
 20
9.1112866611
 40
0.0539119758
100
AcDbArc
 50
51.6717670408
 51
63.4196933889
  0
ARC
  5
35D
100
AcDbEntity
  8
0
100
AcDbCircle
 62
7
  6
CONTINUOUS
 10
11.1432180043
 20
9.1097555006
 40
0.052946891
100
AcDbArc
 50
333.5691739842
 51
344.8728095423
  0
ARC
  5
35E
100
AcDbEntity
  8
0
100
AcDbCircle
 62
7
  6
CONTINUOUS
 10
11.1423377252
 20
9.1059948596
 40
0.0528073954
100
AcDbArc
 50
314.9989709332
 51
315.7549363101
  0
ARC
  5
35F
100
AcDbEntity
  8
0
100
AcDbCircle
 62
7
  6
CONTINUOUS
 10
11.145467425
 20
9.1085732734
 40
0.0526303384
100
AcDbArc
 50
323.1670911418
 51
334.8283595816
  0
ARC
  5
360
100
AcDbEntity
  8
0
100
AcDbCircle
 62
7
  6
CONTINUOUS
 10
11.1459435391
 20
9.1099190441
 40
0.052407985
100
AcDbArc
 50
15.7021009517
 51
17.455679322
  0
ARC
  5
361
100
AcDbEntity
  8
0
100
AcDbCircle
 62
7
  6
CONTINUOUS
 10
11.1438324575
 20
9.1094850275
 40
0.0522762823
100
AcDbArc
 50
321.6119126037
 51
333.5348660439
  0
ARC
  5
362
100
AcDbEntity
  8
0
100
AcDbCircle
 62
7
  6
CONTINUOUS
 10
11.142735723
 20
9.1056189711
 40
0.0522600174
100
AcDbArc
 50
315.7457024465
 51
326.9257062574
  0
ARC
  5
363
100
AcDbEntity
  8
0
100
AcDbCircle
 62
7
  6
CONTINUOUS
 10
11.1465006851
 20
9.1100771518
 40
0.0518288411
100
AcDbArc
 50
14.8128564472
 51
15.7005270184
  0
ARC
  5
364
100
AcDbEntity
  8
0
100
AcDbCircle
 62
7
  6
CONTINUOUS
 10
11.1382754752
 20
9.1035999501
 40
0.0516682884
100
AcDbArc
 50
319.5619184708
 51
329.1428406467
  0
ARC
  5
365
100
AcDbEntity
  8
0
100
AcDbCircle
 62
7
  6
CONTINUOUS
 10
11.1402058018
 20
9.1100428477
 40
0.0515640897
100
AcDbArc
 50
332.4433174523
 51
341.3526061938
  0
ARC
  5
366
100
AcDbEntity
  8
0
100
AcDbCircle
 62
7
  6
CONTINUOUS
 10
11.140448529
 20
9.1099701992
 40
0.0513108766
100
AcDbArc
 50
341.3428070041
 51
344.1600992662
  0
ARC
  5
367
100
AcDbEntity
  8
0
100
AcDbCircle
 62
7
  6
CONTINUOUS
 10
11.13876891
 20
9.1031902421
 40
0.051026985
100
AcDbArc
 50
317.4036832903
 51
319.552685423
  0
ARC
  5
368
100
AcDbEntity
  8
0
100
AcDbCircle
 62
7
  6
CONTINUOUS
 10
11.1346691839
 20
9.1103047728
 40
0.0504580767
100
AcDbArc
 50
331.4479300352
 51
343.4893137579
  0
ARC
  5
369
100
AcDbEntity
  8
0
100
AcDbCircle
 62
7
  6
CONTINUOUS
 10
11.146312351
 20
9.1098990169
 40
0.0498679696
100
AcDbArc
 50
15.6218915096
 51
17.5498312669
  0
ARC
  5
36A
100
AcDbEntity
  8
0
100
AcDbCircle
 62
7
  6
CONTINUOUS
 10
11.1433802076
 20
9.1096985996
 40
0.0483898585
100
AcDbArc
 50
16.3590146793
 51
19.4474889014
  0
ARC
  5
36B
100
AcDbEntity
  8
0
100
AcDbCircle
 62
7
  6
CONTINUOUS
 10
11.254031805
 20
9.0407464652
 40
0.1814994625
100
AcDbArc
 50
171.1551420598
 51
171.4111060883
  0
ARC
  5
36C
100
AcDbEntity
  8
0
100
AcDbCircle
 62
7
  6
CONTINUOUS
 10
11.2007306732
 20
9.0410759656
 40
0.1100777226
100
AcDbArc
 50
165.4908463675
 51
165.9214494351
  0
ARC
  5
36D
100
AcDbEntity
  8
0
100
AcDbCircle
 62
7
  6
CONTINUOUS
 10
11.1987427307
 20
8.988597193
 40
0.0980162802
100
AcDbArc
 50
125.2373574739
 51
126.0414894059
  0
ARC
  5
36E
100
AcDbEntity
  8
0
100
AcDbCircle
 62
7
  6
CONTINUOUS
 10
11.2099807313
 20
8.9916290155
 40
0.0952593773
100
AcDbArc
 50
126.0426376494
 51
126.854097393
  0
ARC
  5
36F
100
AcDbEntity
  8
0
100
AcDbCircle
 62
7
  6
CONTINUOUS
 10
11.2191160861
 20
8.9950175867
 40
0.092217669
100
AcDbArc
 50
127.0123831174
 51
127.8319408012
  0
ARC
  5
370
100
AcDbEntity
  8
0
100
AcDbCircle
 62
7
  6
CONTINUOUS
 10
11.197256868
 20
9.0378837216
 40
0.090785246
100
AcDbArc
 50
160.1882063874
 51
160.7249479168
  0
ARC
  5
371
100
AcDbEntity
  8
0
100
AcDbCircle
 62
7
  6
CONTINUOUS
 10
11.2261333831
 20
8.9987019803
 40
0.0889694615
100
AcDbArc
 50
128.1640049971
 51
128.9917771763
  0
ARC
  5
372
100
AcDbEntity
  8
0
100
AcDbCircle
 62
7
  6
CONTINUOUS
 10
11.2310323809
 20
9.0026113814
 40
0.0856064621
100
AcDbArc
 50
129.5144344727
 51
130.3501385494
  0
ARC
  5
373
100
AcDbEntity
  8
0
100
AcDbCircle
 62
7
  6
CONTINUOUS
 10
11.2338354622
 20
9.0066731076
 40
0.082232178
100
AcDbArc
 50
131.085741859
 51
131.9283946366
  0
ARC
  5
374
100
AcDbEntity
  8
0
100
AcDbCircle
 62
7
  6
CONTINUOUS
 10
11.2345908458
 20
9.0108120194
 40
0.0789655085
100
AcDbArc
 50
132.9041491261
 51
133.7516841108
  0
ARC
  5
375
100
AcDbEntity
  8
0
100
AcDbCircle
 62
7
  6
CONTINUOUS
 10
11.1993809676
 20
9.0356363133
 40
0.0789623296
100
AcDbArc
 50
155.2825796085
 51
155.9211776652
  0
ARC
  5
376
100
AcDbEntity
  8
0
100
AcDbCircle
 62
7
  6
CONTINUOUS
 10
11.2333792512
 20
9.014950596
 40
0.0759467013
100
AcDbArc
 50
134.9992551794
 51
135.8481157267
  0
ARC
  5
377
100
AcDbEntity
  8
0
100
AcDbCircle
 62
7
  6
CONTINUOUS
 10
11.2314886373
 20
9.0140520873
 40
0.07448003
100
AcDbArc
 50
133.751497544
 51
186.9508254044
  0
ARC
  5
378
100
AcDbEntity
  8
0
100
AcDbCircle
 62
7
  6
CONTINUOUS
 10
11.2303227173
 20
9.0190135475
 40
0.0733426879
100
AcDbArc
 50
137.4039623662
 51
138.2488037405
  0
ARC
  5
379
100
AcDbEntity
  8
0
100
AcDbCircle
 62
7
  6
CONTINUOUS
 10
11.2053450817
 20
9.0330228949
 40
0.0731027554
100
AcDbArc
 50
150.8296059806
 51
151.5465666268
  0
ARC
  5
37A
100
AcDbEntity
  8
0
100
AcDbCircle
 62
7
  6
CONTINUOUS
 10
11.2256130963
 20
9.0229198794
 40
0.0713774552
100
AcDbArc
 50
140.1535283079
 51
140.9864621593
  0
ARC
  5
37B
100
AcDbEntity
  8
0
100
AcDbCircle
 62
7
  6
CONTINUOUS
 10
11.2125246214
 20
9.0299912927
 40
0.0706751532
100
AcDbArc
 50
146.8354619465
 51
147.6083122743
  0
ARC
  5
37C
100
AcDbEntity
  8
0
100
AcDbCircle
 62
7
  6
CONTINUOUS
 10
11.2195399012
 20
9.026594933
 40
0.0703526468
100
AcDbArc
 50
143.2853386798
 51
144.0954357539
  0
ARC
  5
37D
100
AcDbEntity
  8
0
100
AcDbCircle
 62
7
  6
CONTINUOUS
 10
11.2730934811
 20
10.5656392099
 40
0.1000000234
100
AcDbArc
 50
138.3881440574
 51
176.3472811864
  0
ARC
  5
37E
100
AcDbEntity
  8
0
100
AcDbCircle
 62
7
  6
CONTINUOUS
 10
11.1516474376
 20
9.9385961911
 40
0.0999999795
100
AcDbArc
 50
168.3480317014
 51
206.8133615203
  0
SPLINE
  5
37F
100
AcDbEntity
  8
0
100
AcDbSpline
 62
7
  6
CONTINUOUS
 70
0
 71
3
 72
21
 73
17
 74
0
 42
0.0000001
 43
0.0000001
 44
0.0000000001
 40
0.0
 40
0.0
 40
0.0
 40
0.0
 40
0.1247368003
 40
0.1873586213
 40
0.2499403324
 40
0.3124229547
 40
0.3748541758
 40
0.4373611744
 40
0.4999601703
 40
0.5625777523
 40
0.6251258054
 40
0.6875760725
 40
0.7500243872
 40
0.8125697054
 40
0.8751864399
 40
1.0
 40
1.0
 40
1.0
 40
1.0
 10
10.2216395787
 20
10.6320473015
 30
0.0
 10
10.2197949651
 20
10.6341241302
 30
0.0
 10
10.2174630225
 20
10.6376696146
 30
0.0
 10
10.2154010894
 20
10.6428509486
 30
0.0
 10
10.2143895127
 20
10.6469207451
 30
0.0
 10
10.2139487134
 20
10.6510865647
 30
0.0
 10
10.2141163503
 20
10.655271802
 30
0.0
 10
10.2148815106
 20
10.659391241
 30
0.0
 10
10.2162036666
 20
10.6633705184
 30
0.0
 10
10.2180508487
 20
10.667135936
 30
0.0
 10
10.2203903125
 20
10.6706133071
 30
0.0
 10
10.2231913721
 20
10.6737279331
 30
0.0
 10
10.2264179669
 20
10.6763986208
 30
0.0
 10
10.229990055
 20
10.6785928533
 30
0.0
 10
10.2350941587
 20
10.6808417136
 30
0.0
 10
10.2392422061
 20
10.6817375076
 30
0.0
 10
10.2420146527
 20
10.6819346258
 30
0.0
  0
SPLINE
  5
380
100
AcDbEntity
  8
0
100
AcDbSpline
 62
7
  6
CONTINUOUS
 70
0
 71
3
 72
15
 73
11
 74
0
 42
0.0000001
 43
0.0000001
 44
0.0000000001
 40
0.0
 40
0.0
 40
0.0
 40
0.0
 40
0.1249937616
 40
0.249799284
 40
0.3744896863
 40
0.4991704975
 40
0.6239796182
 40
0.749017583
 40
0.87434633
 40
1.0
 40
1.0
 40
1.0
 40
1.0
 10
10.3647413027
 20
10.6966413295
 30
0.0
 10
10.3789746449
 20
10.6990489265
 30
0.0
 10
10.4074838281
 20
10.7034921571
 30
0.0
 10
10.45039011
 20
10.7089759984
 30
0.0
 10
10.493403502
 20
10.7132014721
 30
0.0
 10
10.5365243392
 20
10.7161236549
 30
0.0
 10
10.5797417068
 20
10.7179880191
 30
0.0
 10
10.6230604
 20
10.7190219722
 30
0.0
 10
10.6664856601
 20
10.7194577452
 30
0.0
 10
10.6954717454
 20
10.7195031453
 30
0.0
 10
10.7099834891
 20
10.7195031453
 30
0.0
  0
SPLINE
  5
381
100
AcDbEntity
  8
0
100
AcDbSpline
 62
7
  6
CONTINUOUS
 70
0
 71
3
 72
15
 73
11
 74
0
 42
0.0000001
 43
0.0000001
 44
0.0000000001
 40
0.0
 40
0.0
 40
0.0
 40
0.0
 40
0.1249937616
 40
0.249799284
 40
0.3744896863
 40
0.4991704975
 40
0.6239796182
 40
0.749017583
 40
0.87434633
 40
1.0
 40
1.0
 40
1.0
 40
1.0
 10
11.0552256756
 20
10.6966413295
 30
0.0
 10
11.0409923334
 20
10.6990489265
 30
0.0
 10
11.0124831502
 20
10.7034921571
 30
0.0
 10
10.9695768682
 20
10.7089759984
 30
0.0
 10
10.9265634763
 20
10.7132014721
 30
0.0
 10
10.883442639
 20
10.7161236549
 30
0.0
 10
10.8402252715
 20
10.7179880191
 30
0.0
 10
10.7969065782
 20
10.7190219722
 30
0.0
 10
10.7534813181
 20
10.7194577452
 30
0.0
 10
10.7244952329
 20
10.7195031453
 30
0.0
 10
10.7099834891
 20
10.7195031453
 30
0.0
  0
SPLINE
  5
382
100
AcDbEntity
  8
0
100
AcDbSpline
 62
7
  6
CONTINUOUS
 70
0
 71
3
 72
21
 73
17
 74
0
 42
0.0000001
 43
0.0000001
 44
0.0000000001
 40
0.0
 40
0.0
 40
0.0
 40
0.0
 40
0.1247368003
 40
0.1873586213
 40
0.2499403324
 40
0.3124229547
 40
0.3748541758
 40
0.4373611744
 40
0.4999601703
 40
0.5625777523
 40
0.6251258054
 40
0.6875760725
 40
0.7500243872
 40
0.8125697054
 40
0.8751864399
 40
1.0
 40
1.0
 40
1.0
 40
1.0
 10
11.1983273996
 20
10.6320473015
 30
0.0
 10
11.2001720132
 20
10.6341241302
 30
0.0
 10
11.2025039558
 20
10.6376696146
 30
0.0
 10
11.2045658889
 20
10.6428509486
 30
0.0
 10
11.2055774656
 20
10.6469207451
 30
0.0
 10
11.2060182649
 20
10.6510865647
 30
0.0
 10
11.2058506279
 20
10.655271802
 30
0.0
 10
11.2050854677
 20
10.659391241
 30
0.0
 10
11.2037633117
 20
10.6633705184
 30
0.0
 10
11.2019161296
 20
10.667135936
 30
0.0
 10
11.1995766658
 20
10.6706133071
 30
0.0
 10
11.1967756062
 20
10.6737279331
 30
0.0
 10
11.1935490114
 20
10.6763986208
 30
0.0
 10
11.1899769232
 20
10.6785928533
 30
0.0
 10
11.1848728196
 20
10.6808417136
 30
0.0
 10
11.1807247722
 20
10.6817375076
 30
0.0
 10
11.1779523256
 20
10.6819346258
 30
0.0
  0
SPLINE
  5
383
100
AcDbEntity
  8
0
100
AcDbSpline
 62
7
  6
CONTINUOUS
 70
0
 71
3
 72
16
 73
12
 74
0
 42
0.0000001
 43
0.0000001
 44
0.0000000001
 40
0.0
 40
0.0
 40
0.0
 40
0.0
 40
0.1248686674
 40
0.2500009846
 40
0.3748979706
 40
0.4997400303
 40
0.6248684062
 40
0.7497945459
 40
0.8123012754
 40
0.8748794431
 40
1.0
 40
1.0
 40
1.0
 40
1.0
 10
11.0329834891
 20
9.8455031453
 30
0.0
 10
11.0357811889
 20
9.8455031453
 30
0.0
 10
11.0414058315
 20
9.8462607529
 30
0.0
 10
11.0492688447
 20
9.8494319392
 30
0.0
 10
11.0561297584
 20
9.8544417361
 30
0.0
 10
11.0614185446
 20
9.8610913873
 30
0.0
 10
11.0648882183
 20
9.8688302959
 30
0.0
 10
11.0661175439
 20
9.8758093992
 30
0.0
 10
11.0659760295
 20
9.8814246259
 30
0.0
 10
11.0651034276
 20
9.8869736041
 30
0.0
 10
11.0636639349
 20
9.8909857076
 30
0.0
 10
11.0623993723
 20
9.8934876299
 30
0.0
  0
SPLINE
  5
384
100
AcDbEntity
  8
0
100
AcDbSpline
 62
7
  6
CONTINUOUS
 70
0
 71
3
 72
9
 73
5
 74
0
 42
0.0000001
 43
0.0000001
 44
0.0000000001
 40
0.0
 40
0.0
 40
0.0
 40
0.0
 40
0.2498516612
 40
1.0
 40
1.0
 40
1.0
 40
1.0
 10
11.0537082112
 20
9.9587928564
 30
0.0
 10
11.0563147959
 20
9.9714328486
 30
0.0
 10
11.0670819086
 20
10.0219542415
 30
0.0
 10
11.0789091367
 20
10.072241784
 30
0.0
 10
11.0879169499
 20
10.1099287417
 30
0.0
  0
SPLINE
  5
385
100
AcDbEntity
  8
0
100
AcDbSpline
 62
7
  6
CONTINUOUS
 70
0
 71
3
 72
10
 73
6
 74
0
 42
0.0000001
 43
0.0000001
 44
0.0000000001
 40
0.0
 40
0.0
 40
0.0
 40
0.0
 40
0.5000847633
 40
0.7498572231
 40
1.0
 40
1.0
 40
1.0
 40
1.0
 10
11.13038422
 20
10.2912444321
 30
0.0
 10
11.1404997163
 20
10.3375384633
 30
0.0
 10
11.154330138
 20
10.4072896868
 30
0.0
 10
11.1674467584
 20
10.5011587499
 30
0.0
 10
11.1717868028
 20
10.5483555529
 30
0.0
 10
11.1732968669
 20
10.5720100606
 30
0.0
  0
LINE
  5
386
100
AcDbEntity
  8
0
100
AcDbLine
 62
7
  6
CONTINUOUS
 10
10.3664905859
 20
9.067852461
 11
10.3664495406
 21
9.0686542612
  0
LINE
  5
387
100
AcDbEntity
  8
0
100
AcDbLine
 62
7
  6
CONTINUOUS
 10
11.0535174446
 20
9.0686544766
 11
11.0534763923
 21
9.0678526052
  0
SPLINE
  5
388
100
AcDbEntity
  8
0
100
AcDbSpline
 62
7
  6
CONTINUOUS
 70
0
 71
3
 72
9
 73
5
 74
0
 42
0.0000001
 43
0.0000001
 44
0.0000000001
 40
0.0
 40
0.0
 40
0.0
 40
0.0
 40
0.2571019929
 40
1.0
 40
1.0
 40
1.0
 40
1.0
 10
10.2318709893
 20
9.0769470523
 30
0.0
 10
10.2324162459
 20
9.076174315
 30
0.0
 10
10.2346186527
 20
9.0732269023
 30
0.0
 10
10.2371320938
 20
9.0705141198
 30
0.0
 10
10.2391337949
 20
9.0686537453
 30
0.0
  0
SPLINE
  5
389
100
AcDbEntity
  8
0
100
AcDbSpline
 62
7
  6
CONTINUOUS
 70
0
 71
3
 72
9
 73
5
 74
0
 42
0.0000001
 43
0.0000001
 44
0.0000000001
 40
0.0
 40
0.0
 40
0.0
 40
0.0
 40
0.2434231413
 40
1.0
 40
1.0
 40
1.0
 40
1.0
 10
10.2391337987
 20
9.0686537402
 30
0.0
 10
10.2384779512
 20
9.0692632836
 30
0.0
 10
10.2358450738
 20
9.0718323452
 30
0.0
 10
10.2334753127
 20
9.0746730159
 30
0.0
 10
10.231870749
 20
9.076946711
 30
0.0
  0
SPLINE
  5
38A
100
AcDbEntity
  8
0
100
AcDbSpline
 62
7
  6
CONTINUOUS
 70
0
 71
3
 72
9
 73
5
 74
0
 42
0.0000001
 43
0.0000001
 44
0.0000000001
 40
0.0
 40
0.0
 40
0.0
 40
0.0
 40
0.2498516612
 40
1.0
 40
1.0
 40
1.0
 40
1.0
 10
10.366258767
 20
9.9587928564
 30
0.0
 10
10.3636521823
 20
9.9714328486
 30
0.0
 10
10.3528850697
 20
10.0219542415
 30
0.0
 10
10.3410578415
 20
10.072241784
 30
0.0
 10
10.3320500284
 20
10.1099287417
 30
0.0
  0
SPLINE
  5
38B
100
AcDbEntity
  8
0
100
AcDbSpline
 62
7
  6
CONTINUOUS
 70
0
 71
3
 72
10
 73
6
 74
0
 42
0.0000001
 43
0.0000001
 44
0.0000000001
 40
0.0
 40
0.0
 40
0.0
 40
0.0
 40
0.5000847633
 40
0.7498572231
 40
1.0
 40
1.0
 40
1.0
 40
1.0
 10
10.2895827583
 20
10.2912444321
 30
0.0
 10
10.2794672619
 20
10.3375384633
 30
0.0
 10
10.2656368402
 20
10.4072896868
 30
0.0
 10
10.2525202199
 20
10.50115875
 30
0.0
 10
10.2481801755
 20
10.548355553
 30
0.0
 10
10.2466701113
 20
10.5720100607
 30
0.0
  0
SPLINE
  5
38C
100
AcDbEntity
  8
0
100
AcDbSpline
 62
7
  6
CONTINUOUS
 70
0
 71
3
 72
16
 73
12
 74
0
 42
0.0000001
 43
0.0000001
 44
0.0000000001
 40
0.0
 40
0.0
 40
0.0
 40
0.0
 40
0.1248686674
 40
0.2500009846
 40
0.3748979706
 40
0.4997400303
 40
0.6248684062
 40
0.7497945459
 40
0.8123012754
 40
0.8748794431
 40
1.0
 40
1.0
 40
1.0
 40
1.0
 10
10.3869834891
 20
9.8455031453
 30
0.0
 10
10.3841857894
 20
9.8455031453
 30
0.0
 10
10.3785611467
 20
9.8462607529
 30
0.0
 10
10.3706981336
 20
9.8494319392
 30
0.0
 10
10.3638372199
 20
9.8544417361
 30
0.0
 10
10.3585484337
 20
9.8610913873
 30
0.0
 10
10.35507876
 20
9.8688302959
 30
0.0
 10
10.3538494344
 20
9.8758093992
 30
0.0
 10
10.3539909488
 20
9.8814246259
 30
0.0
 10
10.3548635506
 20
9.8869736041
 30
0.0
 10
10.3563030434
 20
9.8909857076
 30
0.0
 10
10.357567606
 20
9.8934876299
 30
0.0
  0
SPLINE
  5
38D
100
AcDbEntity
  8
0
100
AcDbSpline
 62
7
  6
CONTINUOUS
 70
0
 71
3
 72
9
 73
5
 74
0
 42
0.0000001
 43
0.0000001
 44
0.0000000001
 40
0.0
 40
0.0
 40
0.0
 40
0.0
 40
0.4998024276
 40
1.0
 40
1.0
 40
1.0
 40
1.0
 10
11.1677950096
 20
9.159531733
 30
0.0
 10
11.163876437
 20
9.1614847658
 30
0.0
 10
11.1555451755
 20
9.1644667844
 30
0.0
 10
11.1467583193
 20
9.1654870989
 30
0.0
 10
11.1423765535
 20
9.1654870989
 30
0.0
  0
SPLINE
  5
38E
100
AcDbEntity
  8
0
100
AcDbSpline
 62
7
  6
CONTINUOUS
 70
0
 71
3
 72
9
 73
5
 74
0
 42
0.0000001
 43
0.0000001
 44
0.0000000001
 40
0.0
 40
0.0
 40
0.0
 40
0.0
 40
0.4998024276
 40
1.0
 40
1.0
 40
1.0
 40
1.0
 10
10.2521719687
 20
9.159531733
 30
0.0
 10
10.2560905413
 20
9.1614847658
 30
0.0
 10
10.2644218028
 20
9.1644667844
 30
0.0
 10
10.273208659
 20
9.1654870989
 30
0.0
 10
10.2775904248
 20
9.1654870989
 30
0.0
  0
SPLINE
  5
38F
100
AcDbEntity
  8
0
100
AcDbSpline
 62
7
  6
CONTINUOUS
 70
0
 71
3
 72
9
 73
5
 74
0
 42
0.0000001
 43
0.0000001
 44
0.0000000001
 40
0.0
 40
0.0
 40
0.0
 40
0.0
 40
0.2426859337
 40
1.0
 40
1.0
 40
1.0
 40
1.0
 10
10.2334894412
 20
9.0770222631
 30
0.0
 10
10.2330311934
 20
9.0777236037
 30
0.0
 10
10.2312127842
 20
9.0806586521
 30
0.0
 10
10.2296792672
 20
9.0837692823
 30
0.0
 10
10.2286868988
 20
9.0861879394
 30
0.0
  0
SPLINE
  5
390
100
AcDbEntity
  8
0
100
AcDbSpline
 62
7
  6
CONTINUOUS
 70
0
 71
3
 72
9
 73
5
 74
0
 42
0.0000001
 43
0.0000001
 44
0.0000000001
 40
0.0
 40
0.0
 40
0.0
 40
0.0
 40
0.2418245196
 40
1.0
 40
1.0
 40
1.0
 40
1.0
 10
10.2410791676
 20
9.1512051684
 30
0.0
 10
10.2404299243
 20
9.1505732849
 30
0.0
 10
10.2378149989
 20
9.1478892919
 30
0.0
 10
10.2354897704
 20
9.1449246271
 30
0.0
 10
10.2339112792
 20
9.142563167
 30
0.0
  0
SPLINE
  5
391
100
AcDbEntity
  8
0
100
AcDbSpline
 62
7
  6
CONTINUOUS
 70
0
 71
3
 72
9
 73
5
 74
0
 42
0.0000001
 43
0.0000001
 44
0.0000000001
 40
0.0
 40
0.0
 40
0.0
 40
0.0
 40
0.2414950497
 40
1.0
 40
1.0
 40
1.0
 40
1.0
 10
10.2373830572
 20
9.0770222602
 30
0.0
 10
10.2369610018
 20
9.0777248323
 30
0.0
 10
10.2352811903
 20
9.0806744751
 30
0.0
 10
10.2338761467
 20
9.0837793789
 30
0.0
 10
10.2329675644
 20
9.0861879525
 30
0.0
  0
SPLINE
  5
392
100
AcDbEntity
  8
0
100
AcDbSpline
 62
7
  6
CONTINUOUS
 70
0
 71
3
 72
9
 73
5
 74
0
 42
0.0000001
 43
0.0000001
 44
0.0000000001
 40
0.0
 40
0.0
 40
0.0
 40
0.0
 40
0.2449206048
 40
1.0
 40
1.0
 40
1.0
 40
1.0
 10
10.2329675644
 20
9.0861879525
 30
0.0
 10
10.2327292243
 20
9.0868197718
 30
0.0
 10
10.2317997391
 20
9.0894157633
 30
0.0
 10
10.2310425034
 20
9.0920730465
 30
0.0
 10
10.230566181
 20
9.0940996784
 30
0.0
  0
SPLINE
  5
393
100
AcDbEntity
  8
0
100
AcDbSpline
 62
7
  6
CONTINUOUS
 70
0
 71
3
 72
9
 73
5
 74
0
 42
0.0000001
 43
0.0000001
 44
0.0000000001
 40
0.0
 40
0.0
 40
0.0
 40
0.0
 40
0.2402385475
 40
1.0
 40
1.0
 40
1.0
 40
1.0
 10
10.2443610945
 20
9.1512051684
 30
0.0
 10
10.2437628544
 20
9.1505718849
 30
0.0
 10
10.2413431394
 20
9.1478698406
 30
0.0
 10
10.2392134507
 20
9.144910432
 30
0.0
 10
10.2377709016
 20
9.142563167
 30
0.0
  0
SPLINE
  5
394
100
AcDbEntity
  8
0
100
AcDbSpline
 62
7
  6
CONTINUOUS
 70
0
 71
3
 72
9
 73
5
 74
0
 42
0.0000001
 43
0.0000001
 44
0.0000000001
 40
0.0
 40
0.0
 40
0.0
 40
0.0
 40
0.2415559266
 40
1.0
 40
1.0
 40
1.0
 40
1.0
 10
10.2377709016
 20
9.142563167
 30
0.0
 10
10.2373242918
 20
9.1418364592
 30
0.0
 10
10.2355433323
 20
9.1387867122
 30
0.0
 10
10.2340420446
 20
9.1355743058
 30
0.0
 10
10.2330688553
 20
9.1330791883
 30
0.0
  0
SPLINE
  5
395
100
AcDbEntity
  8
0
100
AcDbSpline
 62
7
  6
CONTINUOUS
 70
0
 71
3
 72
9
 73
5
 74
0
 42
0.0000001
 43
0.0000001
 44
0.0000000001
 40
0.0
 40
0.0
 40
0.0
 40
0.0
 40
0.4757877263
 40
1.0
 40
1.0
 40
1.0
 40
1.0
 10
10.2473223607
 20
9.0709873574
 30
0.0
 10
10.2457055501
 20
9.073176264
 30
0.0
 10
10.2426773531
 20
9.078059368
 30
0.0
 10
10.2404435741
 20
9.083351379
 30
0.0
 10
10.2394723239
 20
9.0861879575
 30
0.0
  0
SPLINE
  5
396
100
AcDbEntity
  8
0
100
AcDbSpline
 62
7
  6
CONTINUOUS
 70
0
 71
3
 72
9
 73
5
 74
0
 42
0.0000001
 43
0.0000001
 44
0.0000000001
 40
0.0
 40
0.0
 40
0.0
 40
0.0
 40
0.2433342061
 40
1.0
 40
1.0
 40
1.0
 40
1.0
 10
10.2394723239
 20
9.0861879575
 30
0.0
 10
10.2392066941
 20
9.086963741
 30
0.0
 10
10.2381765499
 20
9.0901726901
 30
0.0
 10
10.2373866934
 20
9.0934580548
 30
0.0
 10
10.2369202683
 20
9.0959648816
 30
0.0
  0
SPLINE
  5
397
100
AcDbEntity
  8
0
100
AcDbSpline
 62
7
  6
CONTINUOUS
 70
0
 71
3
 72
9
 73
5
 74
0
 42
0.0000001
 43
0.0000001
 44
0.0000000001
 40
0.0
 40
0.0
 40
0.0
 40
0.0
 40
0.2291404738
 40
1.0
 40
1.0
 40
1.0
 40
1.0
 10
10.2498139679
 20
9.1512051684
 30
0.0
 10
10.2487754287
 20
9.1499939737
 30
0.0
 10
10.2445107824
 20
9.1444810236
 30
0.0
 10
10.2413555271
 20
9.1381388757
 30
0.0
 10
10.2395642547
 20
9.1330791883
 30
0.0
  0
SPLINE
  5
398
100
AcDbEntity
  8
0
100
AcDbSpline
 62
7
  6
CONTINUOUS
 70
0
 71
3
 72
9
 73
5
 74
0
 42
0.0000001
 43
0.0000001
 44
0.0000000001
 40
0.0
 40
0.0
 40
0.0
 40
0.0
 40
0.4743267717
 40
1.0
 40
1.0
 40
1.0
 40
1.0
 10
10.254665111
 20
9.071792584
 30
0.0
 10
10.253325928
 20
9.0739066733
 30
0.0
 10
10.2508278582
 20
9.0785754811
 30
0.0
 10
10.2489822879
 20
9.0835358869
 30
0.0
 10
10.2481708062
 20
9.0861879766
 30
0.0
  0
SPLINE
  5
399
100
AcDbEntity
  8
0
100
AcDbSpline
 62
7
  6
CONTINUOUS
 70
0
 71
3
 72
9
 73
5
 74
0
 42
0.0000001
 43
0.0000001
 44
0.0000000001
 40
0.0
 40
0.0
 40
0.0
 40
0.0
 40
0.2426138372
 40
1.0
 40
1.0
 40
1.0
 40
1.0
 10
10.2481708062
 20
9.0861879766
 30
0.0
 10
10.2479331578
 20
9.0869646607
 30
0.0
 10
10.2470100494
 20
9.0901830566
 30
0.0
 10
10.2463061167
 20
9.0934636247
 30
0.0
 10
10.2458902338
 20
9.0959648816
 30
0.0
  0
SPLINE
  5
39A
100
AcDbEntity
  8
0
100
AcDbSpline
 62
7
  6
CONTINUOUS
 70
0
 71
3
 72
9
 73
5
 74
0
 42
0.0000001
 43
0.0000001
 44
0.0000000001
 40
0.0
 40
0.0
 40
0.0
 40
0.0
 40
0.2365909708
 40
1.0
 40
1.0
 40
1.0
 40
1.0
 10
10.2574123641
 20
9.1512051684
 30
0.0
 10
10.2569245301
 20
9.150568508
 30
0.0
 10
10.2549324989
 20
9.147824292
 30
0.0
 10
10.2532215136
 20
9.1448793849
 30
0.0
 10
10.252066905
 20
9.142563167
 30
0.0
  0
SPLINE
  5
39B
100
AcDbEntity
  8
0
100
AcDbSpline
 62
7
  6
CONTINUOUS
 70
0
 71
3
 72
9
 73
5
 74
0
 42
0.0000001
 43
0.0000001
 44
0.0000000001
 40
0.0
 40
0.0
 40
0.0
 40
0.0
 40
0.2390549358
 40
1.0
 40
1.0
 40
1.0
 40
1.0
 10
10.252066905
 20
9.142563167
 30
0.0
 10
10.2517033023
 20
9.1418337569
 30
0.0
 10
10.25024418
 20
9.1387519465
 30
0.0
 10
10.2490354927
 20
9.1355526554
 30
0.0
 10
10.2482529657
 20
9.1330791883
 30
0.0
  0
SPLINE
  5
39C
100
AcDbEntity
  8
0
100
AcDbSpline
 62
7
  6
CONTINUOUS
 70
0
 71
3
 72
9
 73
5
 74
0
 42
0.0000001
 43
0.0000001
 44
0.0000000001
 40
0.0
 40
0.0
 40
0.0
 40
0.0
 40
0.4726672544
 40
1.0
 40
1.0
 40
1.0
 40
1.0
 10
10.2621609418
 20
9.0770223042
 30
0.0
 10
10.2609441153
 20
9.0798720855
 30
0.0
 10
10.2588288779
 20
9.0861018846
 30
0.0
 10
10.2575224554
 20
9.0925439319
 30
0.0
 10
10.2570240162
 20
9.0959648816
 30
0.0
  0
SPLINE
  5
39D
100
AcDbEntity
  8
0
100
AcDbSpline
 62
7
  6
CONTINUOUS
 70
0
 71
3
 72
9
 73
5
 74
0
 42
0.0000001
 43
0.0000001
 44
0.0000000001
 40
0.0
 40
0.0
 40
0.0
 40
0.0
 40
0.2345832095
 40
1.0
 40
1.0
 40
1.0
 40
1.0
 10
10.2671208557
 20
9.1512051684
 30
0.0
 10
10.2666920523
 20
9.1505665501
 30
0.0
 10
10.264932109
 20
9.1477987541
 30
0.0
 10
10.2634413388
 20
9.1448631866
 30
0.0
 10
10.2624366315
 20
9.142563167
 30
0.0
  0
SPLINE
  5
39E
100
AcDbEntity
  8
0
100
AcDbSpline
 62
7
  6
CONTINUOUS
 70
0
 71
3
 72
9
 73
5
 74
0
 42
0.0000001
 43
0.0000001
 44
0.0000000001
 40
0.0
 40
0.0
 40
0.0
 40
0.0
 40
0.4719961113
 40
1.0
 40
1.0
 40
1.0
 40
1.0
 10
10.2624366315
 20
9.142563167
 30
0.0
 10
10.2611754891
 20
9.139676105
 30
0.0
 10
10.2589502937
 20
9.133359533
 30
0.0
 10
10.2575491508
 20
9.1268128456
 30
0.0
 10
10.2570240162
 20
9.1233278529
 30
0.0
  0
LINE
  5
39F
100
AcDbEntity
  8
0
100
AcDbLine
 62
7
  6
CONTINUOUS
 10
10.2784532701
 20
9.0686539328
 11
10.2763519313
 21
9.0728449357
  0
SPLINE
  5
3A0
100
AcDbEntity
  8
0
100
AcDbSpline
 62
7
  6
CONTINUOUS
 70
0
 71
3
 72
9
 73
5
 74
0
 42
0.0000001
 43
0.0000001
 44
0.0000000001
 40
0.0
 40
0.0
 40
0.0
 40
0.0
 40
0.47041328
 40
1.0
 40
1.0
 40
1.0
 40
1.0
 10
10.2746574167
 20
9.0770226354
 30
0.0
 10
10.2736111104
 20
9.0798914327
 30
0.0
 10
10.2718023741
 20
9.0861444446
 30
0.0
 10
10.2706942767
 20
9.0925534348
 30
0.0
 10
10.2702697049
 20
9.0959648816
 30
0.0
  0
SPLINE
  5
3A1
100
AcDbEntity
  8
0
100
AcDbSpline
 62
7
  6
CONTINUOUS
 70
0
 71
3
 72
9
 73
5
 74
0
 42
0.0000001
 43
0.0000001
 44
0.0000000001
 40
0.0
 40
0.0
 40
0.0
 40
0.0
 40
0.2325250311
 40
1.0
 40
1.0
 40
1.0
 40
1.0
 10
10.2788941774
 20
9.1512051684
 30
0.0
 10
10.2785267081
 20
9.1505644649
 30
0.0
 10
10.2770107628
 20
9.1477722444
 30
0.0
 10
10.2757452573
 20
9.1448471947
 30
0.0
 10
10.274893028
 20
9.142563167
 30
0.0
  0
SPLINE
  5
3A2
100
AcDbEntity
  8
0
100
AcDbSpline
 62
7
  6
CONTINUOUS
 70
0
 71
3
 72
9
 73
5
 74
0
 42
0.0000001
 43
0.0000001
 44
0.0000000001
 40
0.0
 40
0.0
 40
0.0
 40
0.0
 40
0.4696417743
 40
1.0
 40
1.0
 40
1.0
 40
1.0
 10
10.274893028
 20
9.142563167
 30
0.0
 10
10.2738086341
 20
9.1396569236
 30
0.0
 10
10.2719048993
 20
9.1333143554
 30
0.0
 10
10.2707168895
 20
9.1268021824
 30
0.0
 10
10.2702697049
 20
9.1233278529
 30
0.0
  0
SPLINE
  5
3A3
100
AcDbEntity
  8
0
100
AcDbSpline
 62
7
  6
CONTINUOUS
 70
0
 71
3
 72
9
 73
5
 74
0
 42
0.0000001
 43
0.0000001
 44
0.0000000001
 40
0.0
 40
0.0
 40
0.0
 40
0.0
 40
0.2310856311
 40
1.0
 40
1.0
 40
1.0
 40
1.0
 10
10.292313829
 20
9.068654014
 30
0.0
 10
10.2920259117
 20
9.0692794918
 30
0.0
 10
10.2908316333
 20
9.0720098567
 30
0.0
 10
10.2898435406
 20
9.0748287481
 30
0.0
 10
10.2891836762
 20
9.0770227922
 30
0.0
  0
SPLINE
  5
3A4
100
AcDbEntity
  8
0
100
AcDbSpline
 62
7
  6
CONTINUOUS
 70
0
 71
3
 72
9
 73
5
 74
0
 42
0.0000001
 43
0.0000001
 44
0.0000000001
 40
0.0
 40
0.0
 40
0.0
 40
0.0
 40
0.4683920211
 40
1.0
 40
1.0
 40
1.0
 40
1.0
 10
10.2891836762
 20
9.0770227922
 30
0.0
 10
10.2883155524
 20
9.0799092974
 30
0.0
 10
10.2868228832
 20
9.086182193
 30
0.0
 10
10.2859148013
 20
9.0925617205
 30
0.0
 10
10.2855655422
 20
9.0959648816
 30
0.0
  0
SPLINE
  5
3A5
100
AcDbEntity
  8
0
100
AcDbSpline
 62
7
  6
CONTINUOUS
 70
0
 71
3
 72
11
 73
7
 74
0
 42
0.0000001
 43
0.0000001
 44
0.0000000001
 40
0.0
 40
0.0
 40
0.0
 40
0.0
 40
0.2058333804
 40
0.441485852
 40
0.7070211398
 40
1.0
 40
1.0
 40
1.0
 40
1.0
 10
10.2926774365
 20
9.1512051684
 30
0.0
 10
10.2918299924
 20
9.1494133485
 30
0.0
 10
10.2902327908
 20
9.1454644888
 30
0.0
 10
10.2882529265
 20
9.138942683
 30
0.0
 10
10.2866203702
 20
9.1314638854
 30
0.0
 10
10.2858633152
 20
9.1261333952
 30
0.0
 10
10.2855655422
 20
9.1233278529
 30
0.0
  0
SPLINE
  5
3A6
100
AcDbEntity
  8
0
100
AcDbSpline
 62
7
  6
CONTINUOUS
 70
0
 71
3
 72
9
 73
5
 74
0
 42
0.0000001
 43
0.0000001
 44
0.0000000001
 40
0.0
 40
0.0
 40
0.0
 40
0.0
 40
0.2293129844
 40
1.0
 40
1.0
 40
1.0
 40
1.0
 10
10.3081218296
 20
9.0686538641
 30
0.0
 10
10.3078958454
 20
9.0692811288
 30
0.0
 10
10.3069543316
 20
9.0720323216
 30
0.0
 10
10.3061854515
 20
9.0748413442
 30
0.0
 10
10.3056720306
 20
9.0770225154
 30
0.0
  0
SPLINE
  5
3A7
100
AcDbEntity
  8
0
100
AcDbSpline
 62
7
  6
CONTINUOUS
 70
0
 71
3
 72
9
 73
5
 74
0
 42
0.0000001
 43
0.0000001
 44
0.0000000001
 40
0.0
 40
0.0
 40
0.0
 40
0.0
 40
0.4666721449
 40
1.0
 40
1.0
 40
1.0
 40
1.0
 10
10.3056720306
 20
9.0770225154
 30
0.0
 10
10.3049889067
 20
9.0799246373
 30
0.0
 10
10.3038200404
 20
9.0862138074
 30
0.0
 10
10.3031130136
 20
9.0925685377
 30
0.0
 10
10.3028402118
 20
9.0959648816
 30
0.0
  0
SPLINE
  5
3A8
100
AcDbEntity
  8
0
100
AcDbSpline
 62
7
  6
CONTINUOUS
 70
0
 71
3
 72
11
 73
7
 74
0
 42
0.0000001
 43
0.0000001
 44
0.0000000001
 40
0.0
 40
0.0
 40
0.0
 40
0.0
 40
0.2027059055
 40
0.4375200381
 40
0.7042141593
 40
1.0
 40
1.0
 40
1.0
 40
1.0
 10
10.308406369
 20
9.1512051684
 30
0.0
 10
10.3077378019
 20
9.1493990005
 30
0.0
 10
10.306483841
 20
9.1454298694
 30
0.0
 10
10.3049380891
 20
9.1389153154
 30
0.0
 10
10.3036630525
 20
9.1314435102
 30
0.0
 10
10.3030728591
 20
9.1261285058
 30
0.0
 10
10.3028402118
 20
9.1233278529
 30
0.0
  0
LINE
  5
3A9
100
AcDbEntity
  8
0
100
AcDbLine
 62
7
  6
CONTINUOUS
 10
10.325803379
 20
9.068654258
 11
10.3240445678
 21
9.0770273136
  0
SPLINE
  5
3AA
100
AcDbEntity
  8
0
100
AcDbSpline
 62
7
  6
CONTINUOUS
 70
0
 71
3
 72
9
 73
5
 74
0
 42
0.0000001
 43
0.0000001
 44
0.0000000001
 40
0.0
 40
0.0
 40
0.0
 40
0.0
 40
0.4653302687
 40
1.0
 40
1.0
 40
1.0
 40
1.0
 10
10.3240445678
 20
9.0770273136
 30
0.0
 10
10.3235524213
 20
9.0799413848
 30
0.0
 10
10.322713731
 20
9.0862411808
 30
0.0
 10
10.3222085828
 20
9.0925747929
 30
0.0
 10
10.3220131714
 20
9.0959648816
 30
0.0
  0
SPLINE
  5
3AB
100
AcDbEntity
  8
0
100
AcDbSpline
 62
7
  6
CONTINUOUS
 70
0
 71
3
 72
11
 73
7
 74
0
 42
0.0000001
 43
0.0000001
 44
0.0000000001
 40
0.0
 40
0.0
 40
0.0
 40
0.0
 40
0.2001750237
 40
0.4343229528
 40
0.7019508217
 40
1.0
 40
1.0
 40
1.0
 40
1.0
 10
10.3260076394
 20
9.1512051684
 30
0.0
 10
10.3255245164
 20
9.1493864419
 30
0.0
 10
10.3246226681
 20
9.1454011368
 30
0.0
 10
10.3235155851
 20
9.138893341
 30
0.0
 10
10.3226020155
 20
9.1314276081
 30
0.0
 10
10.3221799052
 20
9.1261247815
 30
0.0
 10
10.3220131714
 20
9.1233278529
 30
0.0
  0
LINE
  5
3AC
100
AcDbEntity
  8
0
100
AcDbLine
 62
7
  6
CONTINUOUS
 10
10.3452762508
 20
9.0686541479
 11
10.3442181054
 21
9.0770230112
  0
SPLINE
  5
3AD
100
AcDbEntity
  8
0
100
AcDbSpline
 62
7
  6
CONTINUOUS
 70
0
 71
3
 72
9
 73
5
 74
0
 42
0.0000001
 43
0.0000001
 44
0.0000000001
 40
0.0
 40
0.0
 40
0.0
 40
0.0
 40
0.4643861461
 40
1.0
 40
1.0
 40
1.0
 40
1.0
 10
10.3442181054
 20
9.0770230112
 30
0.0
 10
10.3439208754
 20
9.0799465554
 30
0.0
 10
10.3434158327
 20
9.0862559312
 30
0.0
 10
10.3431125435
 20
9.092577579
 30
0.0
 10
10.3429950277
 20
9.0959648816
 30
0.0
  0
SPLINE
  5
3AE
100
AcDbEntity
  8
0
100
AcDbSpline
 62
7
  6
CONTINUOUS
 70
0
 71
3
 72
11
 73
7
 74
0
 42
0.0000001
 43
0.0000001
 44
0.0000000001
 40
0.0
 40
0.0
 40
0.0
 40
0.0
 40
0.1983712013
 40
0.4320644217
 40
0.7003733001
 40
1.0
 40
1.0
 40
1.0
 40
1.0
 10
10.3453991825
 20
9.1512051684
 30
0.0
 10
10.3451069276
 20
9.1493772029
 30
0.0
 10
10.3445632113
 20
9.1453808512
 30
0.0
 10
10.3438979734
 20
9.1388780896
 30
0.0
 10
10.3433488889
 20
9.1314166436
 30
0.0
 10
10.3430952852
 20
9.1261221424
 30
0.0
 10
10.3429950277
 20
9.1233278529
 30
0.0
  0
LINE
  5
3AF
100
AcDbEntity
  8
0
100
AcDbLine
 62
7
  6
CONTINUOUS
 10
10.3660962739
 20
9.077023209
 11
10.3656879536
 21
9.0959648816
  0
SPLINE
  5
3B0
100
AcDbEntity
  8
0
100
AcDbSpline
 62
7
  6
CONTINUOUS
 70
0
 71
3
 72
9
 73
5
 74
0
 42
0.0000001
 43
0.0000001
 44
0.0000000001
 40
0.0
 40
0.0
 40
0.0
 40
0.0
 40
0.4308974327
 40
1.0
 40
1.0
 40
1.0
 40
1.0
 10
10.3664905859
 20
9.1512051684
 30
0.0
 10
10.3662770679
 20
9.1472049248
 30
0.0
 10
10.3659315667
 20
9.137913606
 30
0.0
 10
10.3657513244
 20
9.1286182675
 30
0.0
 10
10.3656879536
 20
9.1233278529
 30
0.0
  0
SPLINE
  5
3B1
100
AcDbEntity
  8
0
100
AcDbSpline
 62
7
  6
CONTINUOUS
 70
0
 71
3
 72
9
 73
5
 74
0
 42
0.0000001
 43
0.0000001
 44
0.0000000001
 40
0.0
 40
0.0
 40
0.0
 40
0.0
 40
0.2433463493
 40
1.0
 40
1.0
 40
1.0
 40
1.0
 10
11.1808331875
 20
9.0686537491
 30
0.0
 10
11.1814971128
 20
9.0692708003
 30
0.0
 10
11.1841625294
 20
9.071873081
 30
0.0
 10
11.1865579963
 20
9.0747539305
 30
0.0
 10
11.1881767305
 20
9.0770610023
 30
0.0
  0
LINE
  5
3B2
100
AcDbEntity
  8
0
100
AcDbLine
 62
7
  6
CONTINUOUS
 10
11.053873326
 20
9.0771006189
 11
11.0542790247
 21
9.0959648816
  0
SPLINE
  5
3B3
100
AcDbEntity
  8
0
100
AcDbSpline
 62
7
  6
CONTINUOUS
 70
0
 71
3
 72
9
 73
5
 74
0
 42
0.0000001
 43
0.0000001
 44
0.0000000001
 40
0.0
 40
0.0
 40
0.0
 40
0.0
 40
0.5691421896
 40
1.0
 40
1.0
 40
1.0
 40
1.0
 10
11.0542790247
 20
9.1233278529
 30
0.0
 10
11.0542156494
 20
9.1286186358
 30
0.0
 10
11.0540353956
 20
9.1379139741
 30
0.0
 10
11.0536898907
 20
9.1472052927
 30
0.0
 10
11.0534763923
 20
9.1512051684
 30
0.0
  0
LINE
  5
3B4
100
AcDbEntity
  8
0
100
AcDbLine
 62
7
  6
CONTINUOUS
 10
11.0746906791
 20
9.0686537303
 11
11.0757551497
 21
9.0770859408
  0
SPLINE
  5
3B5
100
AcDbEntity
  8
0
100
AcDbSpline
 62
7
  6
CONTINUOUS
 70
0
 71
3
 72
9
 73
5
 74
0
 42
0.0000001
 43
0.0000001
 44
0.0000000001
 40
0.0
 40
0.0
 40
0.0
 40
0.0
 40
0.4645642358
 40
1.0
 40
1.0
 40
1.0
 40
1.0
 10
11.0757551497
 20
9.0770859408
 30
0.0
 10
11.0760506139
 20
9.0800009551
 30
0.0
 10
11.076553053
 20
9.086289374
 30
0.0
 10
11.0768548651
 20
9.0925899839
 30
0.0
 10
11.0769719506
 20
9.0959648816
 30
0.0
  0
SPLINE
  5
3B6
100
AcDbEntity
  8
0
100
AcDbSpline
 62
7
  6
CONTINUOUS
 70
0
 71
3
 72
11
 73
7
 74
0
 42
0.0000001
 43
0.0000001
 44
0.0000000001
 40
0.0
 40
0.0
 40
0.0
 40
0.0
 40
0.2996449408
 40
0.5679751597
 40
0.8016398958
 40
1.0
 40
1.0
 40
1.0
 40
1.0
 10
11.0769719506
 20
9.1233278529
 30
0.0
 10
11.0768716869
 20
9.1261223124
 30
0.0
 10
11.0766180066
 20
9.1314171791
 30
0.0
 10
11.0760689502
 20
9.1388787308
 30
0.0
 10
11.075403679
 20
9.1453813172
 30
0.0
 10
11.0748600343
 20
9.1493773053
 30
0.0
 10
11.0745677958
 20
9.1512051684
 30
0.0
  0
LINE
  5
3B7
100
AcDbEntity
  8
0
100
AcDbLine
 62
7
  6
CONTINUOUS
 10
11.0941635903
 20
9.0686542519
 11
11.0959350512
 21
9.0771023814
  0
SPLINE
  5
3B8
100
AcDbEntity
  8
0
100
AcDbSpline
 62
7
  6
CONTINUOUS
 70
0
 71
3
 72
9
 73
5
 74
0
 42
0.0000001
 43
0.0000001
 44
0.0000000001
 40
0.0
 40
0.0
 40
0.0
 40
0.0
 40
0.4655553601
 40
1.0
 40
1.0
 40
1.0
 40
1.0
 10
11.0959350512
 20
9.0771023814
 30
0.0
 10
11.0964237148
 20
9.0800065153
 30
0.0
 10
11.0972568015
 20
9.0862814026
 30
0.0
 10
11.0977592577
 20
9.0925897524
 30
0.0
 10
11.0979538069
 20
9.0959648816
 30
0.0
  0
SPLINE
  5
3B9
100
AcDbEntity
  8
0
100
AcDbSpline
 62
7
  6
CONTINUOUS
 70
0
 71
3
 72
11
 73
7
 74
0
 42
0.0000001
 43
0.0000001
 44
0.0000000001
 40
0.0
 40
0.0
 40
0.0
 40
0.0
 40
0.2980684043
 40
0.565718668
 40
0.7998366417
 40
1.0
 40
1.0
 40
1.0
 40
1.0
 10
11.0979538069
 20
9.1233278529
 30
0.0
 10
11.0977870624
 20
9.1261249615
 30
0.0
 10
11.0973648232
 20
9.1314281687
 30
0.0
 10
11.0964513147
 20
9.1388940194
 30
0.0
 10
11.09534416
 20
9.1454016182
 30
0.0
 10
11.0944424337
 20
9.1493865481
 30
0.0
 10
11.0939593388
 20
9.1512051684
 30
0.0
  0
SPLINE
  5
3BA
100
AcDbEntity
  8
0
100
AcDbSpline
 62
7
  6
CONTINUOUS
 70
0
 71
3
 72
9
 73
5
 74
0
 42
0.0000001
 43
0.0000001
 44
0.0000000001
 40
0.0
 40
0.0
 40
0.0
 40
0.0
 40
0.2291537356
 40
1.0
 40
1.0
 40
1.0
 40
1.0
 10
11.1118451077
 20
9.0686537087
 30
0.0
 10
11.112072981
 20
9.0692862125
 30
0.0
 10
11.1130226236
 20
9.0720624574
 30
0.0
 10
11.1137966381
 20
9.0748974852
 30
0.0
 10
11.114312959
 20
9.0770992955
 30
0.0
  0
SPLINE
  5
3BB
100
AcDbEntity
  8
0
100
AcDbSpline
 62
7
  6
CONTINUOUS
 70
0
 71
3
 72
9
 73
5
 74
0
 42
0.0000001
 43
0.0000001
 44
0.0000000001
 40
0.0
 40
0.0
 40
0.0
 40
0.0
 40
0.4668933641
 40
1.0
 40
1.0
 40
1.0
 40
1.0
 10
11.114312959
 20
9.0770992955
 30
0.0
 10
11.1149911597
 20
9.0799914293
 30
0.0
 10
11.116152022
 20
9.0862552401
 30
0.0
 10
11.1168551989
 20
9.0925839034
 30
0.0
 10
11.1171267664
 20
9.0959648816
 30
0.0
  0
SPLINE
  5
3BC
100
AcDbEntity
  8
0
100
AcDbSpline
 62
7
  6
CONTINUOUS
 70
0
 71
3
 72
11
 73
7
 74
0
 42
0.0000001
 43
0.0000001
 44
0.0000000001
 40
0.0
 40
0.0
 40
0.0
 40
0.0
 40
0.2958043748
 40
0.5625196899
 40
0.7973054963
 40
1.0
 40
1.0
 40
1.0
 40
1.0
 10
11.1171267664
 20
9.1233278529
 30
0.0
 10
11.1168941046
 20
9.1261286804
 30
0.0
 10
11.1163037381
 20
9.1314440425
 30
0.0
 10
11.115028762
 20
9.1389159666
 30
0.0
 10
11.1134829363
 20
9.1454303189
 30
0.0
 10
11.1122291385
 20
9.1493991026
 30
0.0
 10
11.1115606093
 20
9.1512051684
 30
0.0
  0
SPLINE
  5
3BD
100
AcDbEntity
  8
0
100
AcDbSpline
 62
7
  6
CONTINUOUS
 70
0
 71
3
 72
9
 73
5
 74
0
 42
0.0000001
 43
0.0000001
 44
0.0000000001
 40
0.0
 40
0.0
 40
0.0
 40
0.0
 40
0.230960003
 40
1.0
 40
1.0
 40
1.0
 40
1.0
 10
11.1276530809
 20
9.0686538808
 30
0.0
 10
11.1279429723
 20
9.0692836423
 30
0.0
 10
11.1291456112
 20
9.0720344253
 30
0.0
 10
11.1301390088
 20
9.0748749588
 30
0.0
 10
11.1308020061
 20
9.0770861528
 30
0.0
  0
SPLINE
  5
3BE
100
AcDbEntity
  8
0
100
AcDbSpline
 62
7
  6
CONTINUOUS
 70
0
 71
3
 72
9
 73
5
 74
0
 42
0.0000001
 43
0.0000001
 44
0.0000000001
 40
0.0
 40
0.0
 40
0.0
 40
0.0
 40
0.4685495832
 40
1.0
 40
1.0
 40
1.0
 40
1.0
 10
11.1308020061
 20
9.0770861528
 30
0.0
 10
11.1316650368
 20
9.0799644875
 30
0.0
 10
11.1331498651
 20
9.08621648
 30
0.0
 10
11.1340534737
 20
9.0925743554
 30
0.0
 10
11.1344014361
 20
9.0959648816
 30
0.0
  0
SPLINE
  5
3BF
100
AcDbEntity
  8
0
100
AcDbSpline
 62
7
  6
CONTINUOUS
 70
0
 71
3
 72
11
 73
7
 74
0
 42
0.0000001
 43
0.0000001
 44
0.0000000001
 40
0.0
 40
0.0
 40
0.0
 40
0.0
 40
0.2929973128
 40
0.5585538898
 40
0.7941783873
 40
1.0
 40
1.0
 40
1.0
 40
1.0
 10
11.1344014361
 20
9.1233278529
 30
0.0
 10
11.1341036444
 20
9.1261335705
 30
0.0
 10
11.1333463656
 20
9.131464411
 30
0.0
 10
11.1317138852
 20
9.1389433384
 30
0.0
 10
11.1297339362
 20
9.145464928
 30
0.0
 10
11.128136937
 20
9.1494134518
 30
0.0
 10
11.1272895418
 20
9.1512051684
 30
0.0
  0
LINE
  5
3C0
100
AcDbEntity
  8
0
100
AcDbLine
 62
7
  6
CONTINUOUS
 10
11.1415136529
 20
9.0686538019
 11
11.143610397
 21
9.072834703
  0
SPLINE
  5
3C1
100
AcDbEntity
  8
0
100
AcDbSpline
 62
7
  6
CONTINUOUS
 70
0
 71
3
 72
9
 73
5
 74
0
 42
0.0000001
 43
0.0000001
 44
0.0000000001
 40
0.0
 40
0.0
 40
0.0
 40
0.0
 40
0.4706067166
 40
1.0
 40
1.0
 40
1.0
 40
1.0
 10
11.1453374878
 20
9.0770994562
 30
0.0
 10
11.1463763596
 20
9.0799586771
 30
0.0
 10
11.1481726672
 20
9.0861866874
 30
0.0
 10
11.1492746346
 20
9.0925689668
 30
0.0
 10
11.1496972734
 20
9.0959648816
 30
0.0
  0
SPLINE
  5
3C2
100
AcDbEntity
  8
0
100
AcDbSpline
 62
7
  6
CONTINUOUS
 70
0
 71
3
 72
9
 73
5
 74
0
 42
0.0000001
 43
0.0000001
 44
0.0000000001
 40
0.0
 40
0.0
 40
0.0
 40
0.0
 40
0.5308497642
 40
1.0
 40
1.0
 40
1.0
 40
1.0
 10
11.1496972734
 20
9.1233278529
 30
0.0
 10
11.1492448485
 20
9.126842896
 30
0.0
 10
11.148039888
 20
9.133424884
 30
0.0
 10
11.1461026982
 20
9.1398324541
 30
0.0
 10
11.1449987659
 20
9.1427635854
 30
0.0
  0
SPLINE
  5
3C3
100
AcDbEntity
  8
0
100
AcDbSpline
 62
7
  6
CONTINUOUS
 70
0
 71
3
 72
9
 73
5
 74
0
 42
0.0000001
 43
0.0000001
 44
0.0000000001
 40
0.0
 40
0.0
 40
0.0
 40
0.0
 40
0.2674505568
 40
1.0
 40
1.0
 40
1.0
 40
1.0
 10
11.1449987659
 20
9.1427635854
 30
0.0
 10
11.1447060647
 20
9.1435407577
 30
0.0
 10
11.1435598893
 20
9.1464264566
 30
0.0
 10
11.1422044823
 20
9.1492320176
 30
0.0
 10
11.1410728008
 20
9.1512051684
 30
0.0
  0
SPLINE
  5
3C4
100
AcDbEntity
  8
0
100
AcDbSpline
 62
7
  6
CONTINUOUS
 70
0
 71
3
 72
9
 73
5
 74
0
 42
0.0000001
 43
0.0000001
 44
0.0000000001
 40
0.0
 40
0.0
 40
0.0
 40
0.0
 40
0.4728451395
 40
1.0
 40
1.0
 40
1.0
 40
1.0
 10
11.1578388719
 20
9.0770994487
 30
0.0
 10
11.1590470894
 20
9.0799398378
 30
0.0
 10
11.1611477089
 20
9.0861447858
 30
0.0
 10
11.1624468098
 20
9.0925596281
 30
0.0
 10
11.162942962
 20
9.0959648816
 30
0.0
  0
SPLINE
  5
3C5
100
AcDbEntity
  8
0
100
AcDbSpline
 62
7
  6
CONTINUOUS
 70
0
 71
3
 72
9
 73
5
 74
0
 42
0.0000001
 43
0.0000001
 44
0.0000000001
 40
0.0
 40
0.0
 40
0.0
 40
0.0
 40
0.5284527457
 40
1.0
 40
1.0
 40
1.0
 40
1.0
 10
11.162942962
 20
9.1233278529
 30
0.0
 10
11.1624116502
 20
9.1268538402
 30
0.0
 10
11.1609903079
 20
9.1334713566
 30
0.0
 10
11.1587260119
 20
9.1398522092
 30
0.0
 10
11.157442327
 20
9.1427635854
 30
0.0
  0
SPLINE
  5
3C6
100
AcDbEntity
  8
0
100
AcDbSpline
 62
7
  6
CONTINUOUS
 70
0
 71
3
 72
9
 73
5
 74
0
 42
0.0000001
 43
0.0000001
 44
0.0000000001
 40
0.0
 40
0.0
 40
0.0
 40
0.0
 40
0.2654929754
 40
1.0
 40
1.0
 40
1.0
 40
1.0
 10
11.157442327
 20
9.1427635854
 30
0.0
 10
11.1570989064
 20
9.1435424576
 30
0.0
 10
11.1557469047
 20
9.1464496012
 30
0.0
 10
11.1541589006
 20
9.1492500436
 30
0.0
 10
11.1528461225
 20
9.1512051684
 30
0.0
  0
SPLINE
  5
3C7
100
AcDbEntity
  8
0
100
AcDbSpline
 62
7
  6
CONTINUOUS
 70
0
 71
3
 72
9
 73
5
 74
0
 42
0.0000001
 43
0.0000001
 44
0.0000000001
 40
0.0
 40
0.0
 40
0.0
 40
0.0
 40
0.4741898472
 40
1.0
 40
1.0
 40
1.0
 40
1.0
 10
11.1652976724
 20
9.0717860456
 30
0.0
 10
11.166646003
 20
9.0739139398
 30
0.0
 10
11.1691598547
 20
9.0786160482
 30
0.0
 10
11.1710125477
 20
9.0836130079
 30
0.0
 10
11.1718259719
 20
9.0862852932
 30
0.0
  0
SPLINE
  5
3C8
100
AcDbEntity
  8
0
100
AcDbSpline
 62
7
  6
CONTINUOUS
 70
0
 71
3
 72
9
 73
5
 74
0
 42
0.0000001
 43
0.0000001
 44
0.0000000001
 40
0.0
 40
0.0
 40
0.0
 40
0.0
 40
0.2427087114
 40
1.0
 40
1.0
 40
1.0
 40
1.0
 10
11.1718259719
 20
9.0862852932
 30
0.0
 10
11.1720601909
 20
9.0870547562
 30
0.0
 10
11.172969972
 20
9.0902417042
 30
0.0
 10
11.1736651231
 20
9.0934892548
 30
0.0
 10
11.1740767445
 20
9.0959648816
 30
0.0
  0
SPLINE
  5
3C9
100
AcDbEntity
  8
0
100
AcDbSpline
 62
7
  6
CONTINUOUS
 70
0
 71
3
 72
9
 73
5
 74
0
 42
0.0000001
 43
0.0000001
 44
0.0000000001
 40
0.0
 40
0.0
 40
0.0
 40
0.0
 40
0.2612468666
 40
1.0
 40
1.0
 40
1.0
 40
1.0
 10
11.1716316896
 20
9.133337192
 30
0.0
 10
11.1713610245
 20
9.1341814824
 30
0.0
 10
11.1702642389
 20
9.1373933341
 30
0.0
 10
11.1689265285
 20
9.1405239465
 30
0.0
 10
11.1677996284
 20
9.1427635854
 30
0.0
  0
SPLINE
  5
3CA
100
AcDbEntity
  8
0
100
AcDbSpline
 62
7
  6
CONTINUOUS
 70
0
 71
3
 72
9
 73
5
 74
0
 42
0.0000001
 43
0.0000001
 44
0.0000000001
 40
0.0
 40
0.0
 40
0.0
 40
0.0
 40
0.2635645765
 40
1.0
 40
1.0
 40
1.0
 40
1.0
 10
11.1677996284
 20
9.1427635854
 30
0.0
 10
11.1674068606
 20
9.1435441853
 30
0.0
 10
11.1658523893
 20
9.1464727436
 30
0.0
 10
11.1640396619
 20
9.1492670682
 30
0.0
 10
11.1625546142
 20
9.1512051684
 30
0.0
  0
SPLINE
  5
3CB
100
AcDbEntity
  8
0
100
AcDbSpline
 62
7
  6
CONTINUOUS
 70
0
 71
3
 72
9
 73
5
 74
0
 42
0.0000001
 43
0.0000001
 44
0.0000000001
 40
0.0
 40
0.0
 40
0.0
 40
0.0
 40
0.2433424369
 40
1.0
 40
1.0
 40
1.0
 40
1.0
 10
11.1808331795
 20
9.0686537402
 30
0.0
 10
11.1814970958
 20
9.0692707827
 30
0.0
 10
11.1841624831
 20
9.0718731097
 30
0.0
 10
11.1865578827
 20
9.074754011
 30
0.0
 10
11.1881766925
 20
9.0770610554
 30
0.0
  0
SPLINE
  5
3CC
100
AcDbEntity
  8
0
100
AcDbSpline
 62
7
  6
CONTINUOUS
 70
0
 71
3
 72
9
 73
5
 74
0
 42
0.0000001
 43
0.0000001
 44
0.0000000001
 40
0.0
 40
0.0
 40
0.0
 40
0.0
 40
0.475673871
 40
1.0
 40
1.0
 40
1.0
 40
1.0
 10
11.1726417281
 20
9.0709836952
 30
0.0
 10
11.1742691941
 20
9.0731870018
 30
0.0
 10
11.1773155837
 20
9.0781052701
 30
0.0
 10
11.1795582495
 20
9.0834363643
 30
0.0
 10
11.1805314203
 20
9.0862945988
 30
0.0
  0
SPLINE
  5
3CD
100
AcDbEntity
  8
0
100
AcDbSpline
 62
7
  6
CONTINUOUS
 70
0
 71
3
 72
9
 73
5
 74
0
 42
0.0000001
 43
0.0000001
 44
0.0000000001
 40
0.0
 40
0.0
 40
0.0
 40
0.0
 40
0.2434234754
 40
1.0
 40
1.0
 40
1.0
 40
1.0
 10
11.1805314203
 20
9.0862945988
 30
0.0
 10
11.1807928654
 20
9.0870624716
 30
0.0
 10
11.1818067235
 20
9.0902372011
 30
0.0
 10
11.182585536
 20
9.0934862771
 30
0.0
 10
11.18304671
 20
9.0959648816
 30
0.0
  0
SPLINE
  5
3CE
100
AcDbEntity
  8
0
100
AcDbSpline
 62
7
  6
CONTINUOUS
 70
0
 71
3
 72
9
 73
5
 74
0
 42
0.0000001
 43
0.0000001
 44
0.0000000001
 40
0.0
 40
0.0
 40
0.0
 40
0.0
 40
0.2721480289
 40
1.0
 40
1.0
 40
1.0
 40
1.0
 10
11.1803106927
 20
9.1333369194
 30
0.0
 10
11.1796791442
 20
9.1350973834
 30
0.0
 10
11.1770832612
 20
9.1414609247
 30
0.0
 10
11.1734090128
 20
9.1474078608
 30
0.0
 10
11.1701530103
 20
9.1512051684
 30
0.0
  0
SPLINE
  5
3CF
100
AcDbEntity
  8
0
100
AcDbSpline
 62
7
  6
CONTINUOUS
 70
0
 71
3
 72
9
 73
5
 74
0
 42
0.0000001
 43
0.0000001
 44
0.0000000001
 40
0.0
 40
0.0
 40
0.0
 40
0.0
 40
0.2415057343
 40
1.0
 40
1.0
 40
1.0
 40
1.0
 10
11.1826300474
 20
9.0770993095
 30
0.0
 10
11.1830515313
 20
9.0778035991
 30
0.0
 10
11.1847287092
 20
9.0807601833
 30
0.0
 10
11.1861304353
 20
9.0838718039
 30
0.0
 10
11.187036143
 20
9.0862852553
 30
0.0
  0
SPLINE
  5
3D0
100
AcDbEntity
  8
0
100
AcDbSpline
 62
7
  6
CONTINUOUS
 70
0
 71
3
 72
9
 73
5
 74
0
 42
0.0000001
 43
0.0000001
 44
0.0000000001
 40
0.0
 40
0.0
 40
0.0
 40
0.0
 40
0.2449930091
 40
1.0
 40
1.0
 40
1.0
 40
1.0
 10
11.187036143
 20
9.0862852553
 30
0.0
 10
11.1872706631
 20
9.0869101842
 30
0.0
 10
11.1881853027
 20
9.0894768213
 30
0.0
 10
11.1889317593
 20
9.0921030247
 30
0.0
 10
11.1894021883
 20
9.0941055305
 30
0.0
  0
SPLINE
  5
3D1
100
AcDbEntity
  8
0
100
AcDbSpline
 62
7
  6
CONTINUOUS
 70
0
 71
3
 72
9
 73
5
 74
0
 42
0.0000001
 43
0.0000001
 44
0.0000000001
 40
0.0
 40
0.0
 40
0.0
 40
0.0
 40
0.2588323502
 40
1.0
 40
1.0
 40
1.0
 40
1.0
 10
11.1867966305
 20
9.133337192
 30
0.0
 10
11.1864619979
 20
9.1341838628
 30
0.0
 10
11.1850967478
 20
9.1374258387
 30
0.0
 10
11.1834464646
 20
9.1405482658
 30
0.0
 10
11.1820722425
 20
9.1427635854
 30
0.0
  0
SPLINE
  5
3D2
100
AcDbEntity
  8
0
100
AcDbSpline
 62
7
  6
CONTINUOUS
 70
0
 71
3
 72
9
 73
5
 74
0
 42
0.0000001
 43
0.0000001
 44
0.0000000001
 40
0.0
 40
0.0
 40
0.0
 40
0.0
 40
0.2600131016
 40
1.0
 40
1.0
 40
1.0
 40
1.0
 10
11.1820722425
 20
9.1427635854
 30
0.0
 10
11.1815859514
 20
9.1435475126
 30
0.0
 10
11.1796425088
 20
9.1465162169
 30
0.0
 10
11.1774087808
 20
9.149296662
 30
0.0
 10
11.1756058838
 20
9.1512051684
 30
0.0
  0
SPLINE
  5
3D3
100
AcDbEntity
  8
0
100
AcDbSpline
 62
7
  6
CONTINUOUS
 70
0
 71
3
 72
9
 73
5
 74
0
 42
0.0000001
 43
0.0000001
 44
0.0000000001
 40
0.0
 40
0.0
 40
0.0
 40
0.0
 40
0.2426942047
 40
1.0
 40
1.0
 40
1.0
 40
1.0
 10
11.1865277177
 20
9.077099318
 30
0.0
 10
11.1869853467
 20
9.077802375
 30
0.0
 10
11.1888009288
 20
9.080744363
 30
0.0
 10
11.1903308305
 20
9.0838617277
 30
0.0
 10
11.1913200453
 20
9.0862852564
 30
0.0
  0
SPLINE
  5
3D4
100
AcDbEntity
  8
0
100
AcDbSpline
 62
7
  6
CONTINUOUS
 70
0
 71
3
 72
9
 73
5
 74
0
 42
0.0000001
 43
0.0000001
 44
0.0000000001
 40
0.0
 40
0.0
 40
0.0
 40
0.0
 40
0.2584493023
 40
1.0
 40
1.0
 40
1.0
 40
1.0
 10
11.1859210096
 20
9.1427635854
 30
0.0
 10
11.1853910593
 20
9.1435490407
 30
0.0
 10
11.1832640622
 20
9.146535696
 30
0.0
 10
11.1808360519
 20
9.14930902
 30
0.0
 10
11.1788878107
 20
9.1512051684
 30
0.0
  0
SPLINE
  5
3D5
100
AcDbEntity
  8
0
100
AcDbSpline
 62
7
  6
CONTINUOUS
 70
0
 71
3
 72
9
 73
5
 74
0
 42
0.0000001
 43
0.0000001
 44
0.0000000001
 40
0.0
 40
0.0
 40
0.0
 40
0.0
 40
0.2490765197
 40
1.0
 40
1.0
 40
1.0
 40
1.0
 10
10.2915320486
 20
9.0686538334
 30
0.0
 10
10.2906411694
 20
9.0692680876
 30
0.0
 10
10.287122173
 20
9.0718158061
 30
0.0
 10
10.2838510149
 20
9.0747145964
 30
0.0
 10
10.281610645
 20
9.077086086
 30
0.0
  0
SPLINE
  5
3D6
100
AcDbEntity
  8
0
100
AcDbSpline
 62
7
  6
CONTINUOUS
 70
0
 71
3
 72
9
 73
5
 74
0
 42
0.0000001
 43
0.0000001
 44
0.0000000001
 40
0.0
 40
0.0
 40
0.0
 40
0.0
 40
0.2492515915
 40
1.0
 40
1.0
 40
1.0
 40
1.0
 10
10.281610645
 20
9.077086086
 30
0.0
 10
10.2809509741
 20
9.0777843647
 30
0.0
 10
10.2783780023
 20
9.080654107
 30
0.0
 10
10.2761143895
 20
9.0838045286
 30
0.0
 10
10.2746409777
 20
9.0862946124
 30
0.0
  0
SPLINE
  5
3D7
100
AcDbEntity
  8
0
100
AcDbSpline
 62
7
  6
CONTINUOUS
 70
0
 71
3
 72
9
 73
5
 74
0
 42
0.0000001
 43
0.0000001
 44
0.0000000001
 40
0.0
 40
0.0
 40
0.0
 40
0.0
 40
0.249584106
 40
1.0
 40
1.0
 40
1.0
 40
1.0
 10
10.2746409777
 20
9.0862946124
 30
0.0
 10
10.2741908621
 20
9.0870553133
 30
0.0
 10
10.272470229
 20
9.0901512896
 30
0.0
 10
10.2710873585
 20
9.0934362157
 30
0.0
 10
10.2702697049
 20
9.0959648816
 30
0.0
  0
SPLINE
  5
3D8
100
AcDbEntity
  8
0
100
AcDbSpline
 62
7
  6
CONTINUOUS
 70
0
 71
3
 72
11
 73
7
 74
0
 42
0.0000001
 43
0.0000001
 44
0.0000000001
 40
0.0
 40
0.0
 40
0.0
 40
0.0
 40
0.252752719
 40
0.5036757813
 40
0.7527220219
 40
1.0
 40
1.0
 40
1.0
 40
1.0
 10
10.2702697049
 20
9.1233278529
 30
0.0
 10
10.2712414753
 20
9.1262337653
 30
0.0
 10
10.2737979361
 20
9.1318312114
 30
0.0
 10
10.2790595312
 20
9.1393374351
 30
0.0
 10
10.2854039516
 20
9.1458510595
 30
0.0
 10
10.2901882555
 20
9.1495347427
 30
0.0
 10
10.2926774365
 20
9.1512051684
 30
0.0
  0
SPLINE
  5
3D9
100
AcDbEntity
  8
0
100
AcDbSpline
 62
7
  6
CONTINUOUS
 70
0
 71
3
 72
9
 73
5
 74
0
 42
0.0000001
 43
0.0000001
 44
0.0000000001
 40
0.0
 40
0.0
 40
0.0
 40
0.0
 40
0.2494357547
 40
1.0
 40
1.0
 40
1.0
 40
1.0
 10
10.3072387424
 20
9.0686538846
 30
0.0
 10
10.3063296928
 20
9.0692687816
 30
0.0
 10
10.3027425954
 20
9.0718164358
 30
0.0
 10
10.2994015311
 20
9.0747199873
 30
0.0
 10
10.2971117352
 20
9.0770995986
 30
0.0
  0
SPLINE
  5
3DA
100
AcDbEntity
  8
0
100
AcDbSpline
 62
7
  6
CONTINUOUS
 70
0
 71
3
 72
9
 73
5
 74
0
 42
0.0000001
 43
0.0000001
 44
0.0000000001
 40
0.0
 40
0.0
 40
0.0
 40
0.0
 40
0.2496381744
 40
1.0
 40
1.0
 40
1.0
 40
1.0
 10
10.2971117352
 20
9.0770995986
 30
0.0
 10
10.2964508454
 20
9.0777864113
 30
0.0
 10
10.2938747813
 20
9.0806049718
 30
0.0
 10
10.2915982006
 20
9.0837006285
 30
0.0
 10
10.2901100347
 20
9.0861487662
 30
0.0
  0
SPLINE
  5
3DB
100
AcDbEntity
  8
0
100
AcDbSpline
 62
7
  6
CONTINUOUS
 70
0
 71
3
 72
9
 73
5
 74
0
 42
0.0000001
 43
0.0000001
 44
0.0000000001
 40
0.0
 40
0.0
 40
0.0
 40
0.0
 40
0.2498892461
 40
1.0
 40
1.0
 40
1.0
 40
1.0
 10
10.2901100347
 20
9.0861487662
 30
0.0
 10
10.2896414503
 20
9.0869196206
 30
0.0
 10
10.2878520377
 20
9.0900555233
 30
0.0
 10
10.2864132188
 20
9.0933930743
 30
0.0
 10
10.2855655422
 20
9.0959648816
 30
0.0
  0
SPLINE
  5
3DC
100
AcDbEntity
  8
0
100
AcDbSpline
 62
7
  6
CONTINUOUS
 70
0
 71
3
 72
11
 73
7
 74
0
 42
0.0000001
 43
0.0000001
 44
0.0000000001
 40
0.0
 40
0.0
 40
0.0
 40
0.0
 40
0.2516309469
 40
0.50219948
 40
0.7516490285
 40
1.0
 40
1.0
 40
1.0
 40
1.0
 10
10.2855655422
 20
9.1233278529
 30
0.0
 10
10.2865574141
 20
9.1262376353
 30
0.0
 10
10.2891691601
 20
9.131843574
 30
0.0
 10
10.2945343717
 20
9.139348084
 30
0.0
 10
10.3010017523
 20
9.1458591858
 30
0.0
 10
10.3058721446
 20
9.149536762
 30
0.0
 10
10.308406369
 20
9.1512051684
 30
0.0
  0
SPLINE
  5
3DD
100
AcDbEntity
  8
0
100
AcDbSpline
 62
7
  6
CONTINUOUS
 70
0
 71
3
 72
11
 73
7
 74
0
 42
0.0000001
 43
0.0000001
 44
0.0000000001
 40
0.0
 40
0.0
 40
0.0
 40
0.0
 40
0.2491763766
 40
0.4989183285
 40
0.7492187571
 40
1.0
 40
1.0
 40
1.0
 40
1.0
 10
10.3248229131
 20
9.0686542691
 30
0.0
 10
10.3223576713
 20
9.0702983298
 30
0.0
 10
10.3176131994
 20
9.0738942981
 30
0.0
 10
10.3113498829
 20
9.0802829662
 30
0.0
 10
10.3062376063
 20
9.0876580157
 30
0.0
 10
10.3037857847
 20
9.0931365054
 30
0.0
 10
10.3028402118
 20
9.0959648816
 30
0.0
  0
SPLINE
  5
3DE
100
AcDbEntity
  8
0
100
AcDbSpline
 62
7
  6
CONTINUOUS
 70
0
 71
3
 72
11
 73
7
 74
0
 42
0.0000001
 43
0.0000001
 44
0.0000000001
 40
0.0
 40
0.0
 40
0.0
 40
0.0
 40
0.2507923331
 40
0.5010977944
 40
0.7508496418
 40
1.0
 40
1.0
 40
1.0
 40
1.0
 10
10.3028402118
 20
9.1233278529
 30
0.0
 10
10.3038472841
 20
9.1262405782
 30
0.0
 10
10.3065008752
 20
9.1318528896
 30
0.0
 10
10.3119441884
 20
9.139356018
 30
0.0
 10
10.3185042208
 20
9.1458651841
 30
0.0
 10
10.3234394583
 20
9.1495382419
 30
0.0
 10
10.3260076394
 20
9.1512051684
 30
0.0
  0
SPLINE
  5
3DF
100
AcDbEntity
  8
0
100
AcDbSpline
 62
7
  6
CONTINUOUS
 70
0
 71
3
 72
11
 73
7
 74
0
 42
0.0000001
 43
0.0000001
 44
0.0000000001
 40
0.0
 40
0.0
 40
0.0
 40
0.0
 40
0.2497156018
 40
0.4996589402
 40
0.7497741102
 40
1.0
 40
1.0
 40
1.0
 40
1.0
 10
10.3442033928
 20
9.0686541611
 30
0.0
 10
10.3417162994
 20
9.0702972763
 30
0.0
 10
10.3369302954
 20
9.0738902399
 30
0.0
 10
10.3306077251
 20
9.0802775529
 30
0.0
 10
10.3254459479
 20
9.0876520653
 30
0.0
 10
10.3229682568
 20
9.0931347536
 30
0.0
 10
10.3220131714
 20
9.0959648816
 30
0.0
  0
SPLINE
  5
3E0
100
AcDbEntity
  8
0
100
AcDbSpline
 62
7
  6
CONTINUOUS
 70
0
 71
3
 72
11
 73
7
 74
0
 42
0.0000001
 43
0.0000001
 44
0.0000000001
 40
0.0
 40
0.0
 40
0.0
 40
0.0
 40
0.2502346885
 40
0.5003661221
 40
0.7503193543
 40
1.0
 40
1.0
 40
1.0
 40
1.0
 10
10.3220131714
 20
9.1233278529
 30
0.0
 10
10.3230304368
 20
9.1262425595
 30
0.0
 10
10.3257121028
 20
9.1318591212
 30
0.0
 10
10.3312076703
 20
9.139361282
 30
0.0
 10
10.3378296784
 20
9.1458691355
 30
0.0
 10
10.3428082796
 20
9.1495392122
 30
0.0
 10
10.3453991825
 20
9.1512051684
 30
0.0
  0
SPLINE
  5
3E1
100
AcDbEntity
  8
0
100
AcDbSpline
 62
7
  6
CONTINUOUS
 70
0
 71
3
 72
11
 73
7
 74
0
 42
0.0000001
 43
0.0000001
 44
0.0000000001
 40
0.0
 40
0.0
 40
0.0
 40
0.0
 40
0.2499810876
 40
0.5000295744
 40
0.7500517521
 40
1.0
 40
1.0
 40
1.0
 40
1.0
 10
10.3652895293
 20
9.0686539314
 30
0.0
 10
10.3627914996
 20
9.0702965646
 30
0.0
 10
10.3579850873
 20
9.0738886827
 30
0.0
 10
10.3516326512
 20
9.0802750545
 30
0.0
 10
10.3464448496
 20
9.0876486674
 30
0.0
 10
10.3439548916
 20
9.0931338555
 30
0.0
 10
10.3429950277
 20
9.0959648816
 30
0.0
  0
SPLINE
  5
3E2
100
AcDbEntity
  8
0
100
AcDbSpline
 62
7
  6
CONTINUOUS
 70
0
 71
3
 72
11
 73
7
 74
0
 42
0.0000001
 43
0.0000001
 44
0.0000000001
 40
0.0
 40
0.0
 40
0.0
 40
0.0
 40
0.2499562843
 40
0.5000011762
 40
0.7500550598
 40
1.0
 40
1.0
 40
1.0
 40
1.0
 10
10.3429950277
 20
9.1233278529
 30
0.0
 10
10.3440174074
 20
9.1262435554
 30
0.0
 10
10.3467131757
 20
9.1318622369
 30
0.0
 10
10.3522349191
 20
9.1393639033
 30
0.0
 10
10.3588879717
 20
9.1458711011
 30
0.0
 10
10.3638882974
 20
9.1495396928
 30
0.0
 10
10.3664905859
 20
9.1512051684
 30
0.0
  0
SPLINE
  5
3E3
100
AcDbEntity
  8
0
100
AcDbSpline
 62
7
  6
CONTINUOUS
 70
0
 71
3
 72
11
 73
7
 74
0
 42
0.0000001
 43
0.0000001
 44
0.0000000001
 40
0.0
 40
0.0
 40
0.0
 40
0.0
 40
0.2499846422
 40
0.5000283942
 40
0.7500514728
 40
1.0
 40
1.0
 40
1.0
 40
1.0
 10
10.3879818767
 20
9.0686543902
 30
0.0
 10
10.3854838751
 20
9.0702970418
 30
0.0
 10
10.3806770925
 20
9.0738884229
 30
0.0
 10
10.3743249041
 20
9.0802749879
 30
0.0
 10
10.3691384725
 20
9.0876491917
 30
0.0
 10
10.3666478007
 20
9.0931339052
 30
0.0
 10
10.3656879536
 20
9.0959648816
 30
0.0
  0
SPLINE
  5
3E4
100
AcDbEntity
  8
0
100
AcDbSpline
 62
7
  6
CONTINUOUS
 70
0
 71
3
 72
11
 73
7
 74
0
 42
0.0000001
 43
0.0000001
 44
0.0000000001
 40
0.0
 40
0.0
 40
0.0
 40
0.0
 40
0.2499563194
 40
0.5000011511
 40
0.7500550209
 40
1.0
 40
1.0
 40
1.0
 40
1.0
 10
10.3656879536
 20
9.1233278529
 30
0.0
 10
10.3667103335
 20
9.126243556
 30
0.0
 10
10.3694060904
 20
9.131862243
 30
0.0
 10
10.3749278408
 20
9.139363906
 30
0.0
 10
10.3815808991
 20
9.1458710969
 30
0.0
 10
10.3865812227
 20
9.1495396924
 30
0.0
 10
10.3891835118
 20
9.1512051684
 30
0.0
  0
SPLINE
  5
3E5
100
AcDbEntity
  8
0
100
AcDbSpline
 62
7
  6
CONTINUOUS
 70
0
 71
3
 72
9
 73
5
 74
0
 42
0.0000001
 43
0.0000001
 44
0.0000000001
 40
0.0
 40
0.0
 40
0.0
 40
0.0
 40
0.4316622664
 40
1.0
 40
1.0
 40
1.0
 40
1.0
 10
10.389224563
 20
9.0686544141
 30
0.0
 10
10.3894285184
 20
9.0725804652
 30
0.0
 10
10.3897611351
 20
9.081682807
 30
0.0
 10
10.3899261967
 20
9.0907891178
 30
0.0
 10
10.3899861442
 20
9.0959648816
 30
0.0
  0
SPLINE
  5
3E6
100
AcDbEntity
  8
0
100
AcDbSpline
 62
7
  6
CONTINUOUS
 70
0
 71
3
 72
9
 73
5
 74
0
 42
0.0000001
 43
0.0000001
 44
0.0000000001
 40
0.0
 40
0.0
 40
0.0
 40
0.0
 40
0.4308974327
 40
1.0
 40
1.0
 40
1.0
 40
1.0
 10
10.3891835118
 20
9.1512051684
 30
0.0
 10
10.3893970298
 20
9.1472049248
 30
0.0
 10
10.3897425311
 20
9.137913606
 30
0.0
 10
10.3899227733
 20
9.1286182675
 30
0.0
 10
10.3899861442
 20
9.1233278529
 30
0.0
  0
SPLINE
  5
3E7
100
AcDbEntity
  8
0
100
AcDbSpline
 62
7
  6
CONTINUOUS
 70
0
 71
3
 72
11
 73
7
 74
0
 42
0.0000001
 43
0.0000001
 44
0.0000000001
 40
0.0
 40
0.0
 40
0.0
 40
0.0
 40
0.2497154947
 40
0.4996590163
 40
0.7497740835
 40
1.0
 40
1.0
 40
1.0
 40
1.0
 10
10.4121765995
 20
9.0686539405
 30
0.0
 10
10.4096894776
 20
9.0702970584
 30
0.0
 10
10.4049034528
 20
9.0738900881
 30
0.0
 10
10.3985808246
 20
9.0802774457
 30
0.0
 10
10.3934189331
 20
9.0876519809
 30
0.0
 10
10.3909412381
 20
9.0931347281
 30
0.0
 10
10.3899861442
 20
9.0959648816
 30
0.0
  0
SPLINE
  5
3E8
100
AcDbEntity
  8
0
100
AcDbSpline
 62
7
  6
CONTINUOUS
 70
0
 71
3
 72
11
 73
7
 74
0
 42
0.0000001
 43
0.0000001
 44
0.0000000001
 40
0.0
 40
0.0
 40
0.0
 40
0.0
 40
0.2502346885
 40
0.5003661221
 40
0.7503193543
 40
1.0
 40
1.0
 40
1.0
 40
1.0
 10
10.3899861442
 20
9.1233278529
 30
0.0
 10
10.3910034096
 20
9.1262425595
 30
0.0
 10
10.3936850755
 20
9.1318591212
 30
0.0
 10
10.3991806431
 20
9.139361282
 30
0.0
 10
10.4058026512
 20
9.1458691355
 30
0.0
 10
10.4107812524
 20
9.1495392122
 30
0.0
 10
10.4133721553
 20
9.1512051684
 30
0.0
  0
SPLINE
  5
3E9
100
AcDbEntity
  8
0
100
AcDbSpline
 62
7
  6
CONTINUOUS
 70
0
 71
3
 72
11
 73
7
 74
0
 42
0.0000001
 43
0.0000001
 44
0.0000000001
 40
0.0
 40
0.0
 40
0.0
 40
0.0
 40
0.1987385913
 40
0.4327886506
 40
0.7016192254
 40
1.0
 40
1.0
 40
1.0
 40
1.0
 10
10.4134950763
 20
9.0686540538
 30
0.0
 10
10.4137743745
 20
9.070448944
 30
0.0
 10
10.4142987338
 20
9.0743708554
 30
0.0
 10
10.4149326522
 20
9.0807532806
 30
0.0
 10
10.4154462132
 20
9.0880597267
 30
0.0
 10
10.4156817511
 20
9.0932392912
 30
0.0
 10
10.4157763101
 20
9.0959648816
 30
0.0
  0
SPLINE
  5
3EA
100
AcDbEntity
  8
0
100
AcDbSpline
 62
7
  6
CONTINUOUS
 70
0
 71
3
 72
11
 73
7
 74
0
 42
0.0000001
 43
0.0000001
 44
0.0000000001
 40
0.0
 40
0.0
 40
0.0
 40
0.0
 40
0.1983712013
 40
0.4320644217
 40
0.7003733001
 40
1.0
 40
1.0
 40
1.0
 40
1.0
 10
10.4133721553
 20
9.1512051684
 30
0.0
 10
10.4136644102
 20
9.1493772029
 30
0.0
 10
10.4142081265
 20
9.1453808512
 30
0.0
 10
10.4148733644
 20
9.1388780896
 30
0.0
 10
10.4154224489
 20
9.1314166436
 30
0.0
 10
10.4156760526
 20
9.1261221424
 30
0.0
 10
10.4157763101
 20
9.1233278529
 30
0.0
  0
SPLINE
  5
3EB
100
AcDbEntity
  8
0
100
AcDbSpline
 62
7
  6
CONTINUOUS
 70
0
 71
3
 72
11
 73
7
 74
0
 42
0.0000001
 43
0.0000001
 44
0.0000000001
 40
0.0
 40
0.0
 40
0.0
 40
0.0
 40
0.2491766688
 40
0.4989180872
 40
0.7492188437
 40
1.0
 40
1.0
 40
1.0
 40
1.0
 10
10.4377583407
 20
9.068654908
 30
0.0
 10
10.4352931812
 20
9.0702989612
 30
0.0
 10
10.430548768
 20
9.073894738
 30
0.0
 10
10.4242856177
 20
9.0802832767
 30
0.0
 10
10.4191736697
 20
9.0876582593
 30
0.0
 10
10.4167218584
 20
9.0931365791
 30
0.0
 10
10.4157763101
 20
9.0959648816
 30
0.0
  0
SPLINE
  5
3EC
100
AcDbEntity
  8
0
100
AcDbSpline
 62
7
  6
CONTINUOUS
 70
0
 71
3
 72
11
 73
7
 74
0
 42
0.0000001
 43
0.0000001
 44
0.0000000001
 40
0.0
 40
0.0
 40
0.0
 40
0.0
 40
0.2507923331
 40
0.5010977944
 40
0.7508496418
 40
1.0
 40
1.0
 40
1.0
 40
1.0
 10
10.4157763101
 20
9.1233278529
 30
0.0
 10
10.4167833824
 20
9.1262405782
 30
0.0
 10
10.4194369735
 20
9.1318528896
 30
0.0
 10
10.4248802867
 20
9.139356018
 30
0.0
 10
10.4314403192
 20
9.1458651841
 30
0.0
 10
10.4363755566
 20
9.1495382419
 30
0.0
 10
10.4389437377
 20
9.1512051684
 30
0.0
  0
SPLINE
  5
3ED
100
AcDbEntity
  8
0
100
AcDbSpline
 62
7
  6
CONTINUOUS
 70
0
 71
3
 72
11
 73
7
 74
0
 42
0.0000001
 43
0.0000001
 44
0.0000000001
 40
0.0
 40
0.0
 40
0.0
 40
0.0
 40
0.2004789421
 40
0.4349646696
 40
0.7031299614
 40
1.0
 40
1.0
 40
1.0
 40
1.0
 10
10.4391481548
 20
9.0686550327
 30
0.0
 10
10.4396099834
 20
9.0704414032
 30
0.0
 10
10.4404797041
 20
9.0743518644
 30
0.0
 10
10.4415345934
 20
9.0807391923
 30
0.0
 10
10.4423888842
 20
9.0880501705
 30
0.0
 10
10.4427809752
 20
9.0932371733
 30
0.0
 10
10.4429382058
 20
9.0959648816
 30
0.0
  0
SPLINE
  5
3EE
100
AcDbEntity
  8
0
100
AcDbSpline
 62
7
  6
CONTINUOUS
 70
0
 71
3
 72
11
 73
7
 74
0
 42
0.0000001
 43
0.0000001
 44
0.0000000001
 40
0.0
 40
0.0
 40
0.0
 40
0.0
 40
0.2001665796
 40
0.4343182739
 40
0.7019571873
 40
1.0
 40
1.0
 40
1.0
 40
1.0
 10
10.4389437377
 20
9.1512051684
 30
0.0
 10
10.4394268405
 20
9.1493865184
 30
0.0
 10
10.4403288339
 20
9.1454012915
 30
0.0
 10
10.4414358032
 20
9.1388934081
 30
0.0
 10
10.442349229
 20
9.131427582
 30
0.0
 10
10.4427714755
 20
9.126124722
 30
0.0
 10
10.4429382058
 20
9.1233278529
 30
0.0
  0
SPLINE
  5
3EF
100
AcDbEntity
  8
0
100
AcDbSpline
 62
7
  6
CONTINUOUS
 70
0
 71
3
 72
11
 73
7
 74
0
 42
0.0000001
 43
0.0000001
 44
0.0000000001
 40
0.0
 40
0.0
 40
0.0
 40
0.0
 40
0.2483636989
 40
0.497804217
 40
0.7483840065
 40
1.0
 40
1.0
 40
1.0
 40
1.0
 10
10.4646115677
 20
9.0686537284
 30
0.0
 10
10.4621788847
 20
9.0702992261
 30
0.0
 10
10.4574964623
 20
9.073899965
 30
0.0
 10
10.4513215619
 20
9.0802907796
 30
0.0
 10
10.4462828926
 20
9.0876666342
 30
0.0
 10
10.4438696179
 20
9.0931390255
 30
0.0
 10
10.4429382058
 20
9.0959648816
 30
0.0
  0
SPLINE
  5
3F0
100
AcDbEntity
  8
0
100
AcDbSpline
 62
7
  6
CONTINUOUS
 70
0
 71
3
 72
11
 73
7
 74
0
 42
0.0000001
 43
0.0000001
 44
0.0000000001
 40
0.0
 40
0.0
 40
0.0
 40
0.0
 40
0.2516309469
 40
0.50219948
 40
0.7516490285
 40
1.0
 40
1.0
 40
1.0
 40
1.0
 10
10.4429382058
 20
9.1233278529
 30
0.0
 10
10.4439300777
 20
9.1262376353
 30
0.0
 10
10.4465418237
 20
9.131843574
 30
0.0
 10
10.4519070354
 20
9.139348084
 30
0.0
 10
10.4583744159
 20
9.1458591858
 30
0.0
 10
10.4632448082
 20
9.149536762
 30
0.0
 10
10.4657790326
 20
9.1512051684
 30
0.0
  0
SPLINE
  5
3F1
100
AcDbEntity
  8
0
100
AcDbSpline
 62
7
  6
CONTINUOUS
 70
0
 71
3
 72
11
 73
7
 74
0
 42
0.0000001
 43
0.0000001
 44
0.0000000001
 40
0.0
 40
0.0
 40
0.0
 40
0.0
 40
0.2029473702
 40
0.4380650348
 40
0.7052838088
 40
1.0
 40
1.0
 40
1.0
 40
1.0
 10
10.4660635327
 20
9.0686537152
 30
0.0
 10
10.4667030421
 20
9.0704287904
 30
0.0
 10
10.4679118761
 20
9.0743231895
 30
0.0
 10
10.469385183
 20
9.0807174851
 30
0.0
 10
10.4705778985
 20
9.0880354334
 30
0.0
 10
10.4711258203
 20
9.0932337613
 30
0.0
 10
10.4713451898
 20
9.0959648816
 30
0.0
  0
SPLINE
  5
3F2
100
AcDbEntity
  8
0
100
AcDbSpline
 62
7
  6
CONTINUOUS
 70
0
 71
3
 72
11
 73
7
 74
0
 42
0.0000001
 43
0.0000001
 44
0.0000000001
 40
0.0
 40
0.0
 40
0.0
 40
0.0
 40
0.2027059055
 40
0.4375200381
 40
0.7042141593
 40
1.0
 40
1.0
 40
1.0
 40
1.0
 10
10.4657790326
 20
9.1512051684
 30
0.0
 10
10.4664475997
 20
9.1493990005
 30
0.0
 10
10.4677015606
 20
9.1454298694
 30
0.0
 10
10.4692473125
 20
9.1389153154
 30
0.0
 10
10.4705223491
 20
9.1314435102
 30
0.0
 10
10.4711125425
 20
9.1261285058
 30
0.0
 10
10.4713451898
 20
9.1233278529
 30
0.0
  0
SPLINE
  5
3F3
100
AcDbEntity
  8
0
100
AcDbSpline
 62
7
  6
CONTINUOUS
 70
0
 71
3
 72
11
 73
7
 74
0
 42
0.0000001
 43
0.0000001
 44
0.0000000001
 40
0.0
 40
0.0
 40
0.0
 40
0.0
 40
0.2472745902
 40
0.4963118081
 40
0.7472686312
 40
1.0
 40
1.0
 40
1.0
 40
1.0
 10
10.4926065184
 20
9.0686547868
 30
0.0
 10
10.4902172608
 20
9.0703022335
 30
0.0
 10
10.4856173785
 20
9.0739088804
 30
0.0
 10
10.4795602617
 20
9.0803021169
 30
0.0
 10
10.4746201228
 20
9.0876787229
 30
0.0
 10
10.4722578042
 20
9.0931425412
 30
0.0
 10
10.4713451898
 20
9.0959648816
 30
0.0
  0
SPLINE
  5
3F4
100
AcDbEntity
  8
0
100
AcDbSpline
 62
7
  6
CONTINUOUS
 70
0
 71
3
 72
11
 73
7
 74
0
 42
0.0000001
 43
0.0000001
 44
0.0000000001
 40
0.0
 40
0.0
 40
0.0
 40
0.0
 40
0.2527527629
 40
0.5036757611
 40
0.7527219807
 40
1.0
 40
1.0
 40
1.0
 40
1.0
 10
10.4713451898
 20
9.1233278529
 30
0.0
 10
10.4723169605
 20
9.126233766
 30
0.0
 10
10.4748734102
 20
9.1318312171
 30
0.0
 10
10.480135012
 20
9.1393374378
 30
0.0
 10
10.4864794381
 20
9.1458510555
 30
0.0
 10
10.4912637399
 20
9.1495347423
 30
0.0
 10
10.4937529214
 20
9.1512051684
 30
0.0
  0
SPLINE
  5
3F5
100
AcDbEntity
  8
0
100
AcDbSpline
 62
7
  6
CONTINUOUS
 70
0
 71
3
 72
10
 73
6
 74
0
 42
0.0000001
 43
0.0000001
 44
0.0000000001
 40
0.0
 40
0.0
 40
0.0
 40
0.0
 40
0.441655954
 40
0.7078378532
 40
1.0
 40
1.0
 40
1.0
 40
1.0
 10
10.4941168503
 20
9.0686549658
 30
0.0
 10
10.4958547846
 20
9.0724306571
 30
0.0
 10
10.4979599284
 20
9.0788014182
 30
0.0
 10
10.4998812929
 20
9.0880159847
 30
0.0
 10
10.5005841077
 20
9.0932296784
 30
0.0
 10
10.5008648157
 20
9.0959648816
 30
0.0
  0
SPLINE
  5
3F6
100
AcDbEntity
  8
0
100
AcDbSpline
 62
7
  6
CONTINUOUS
 70
0
 71
3
 72
11
 73
7
 74
0
 42
0.0000001
 43
0.0000001
 44
0.0000000001
 40
0.0
 40
0.0
 40
0.0
 40
0.0
 40
0.2058333804
 40
0.441485852
 40
0.7070211398
 40
1.0
 40
1.0
 40
1.0
 40
1.0
 10
10.4937529214
 20
9.1512051684
 30
0.0
 10
10.4946003655
 20
9.1494133485
 30
0.0
 10
10.4961975671
 20
9.1454644888
 30
0.0
 10
10.4981774314
 20
9.138942683
 30
0.0
 10
10.4998099877
 20
9.1314638854
 30
0.0
 10
10.5005670427
 20
9.1261333952
 30
0.0
 10
10.5008648157
 20
9.1233278529
 30
0.0
  0
SPLINE
  5
3F7
100
AcDbEntity
  8
0
100
AcDbSpline
 62
7
  6
CONTINUOUS
 70
0
 71
3
 72
11
 73
7
 74
0
 42
0.0000001
 43
0.0000001
 44
0.0000000001
 40
0.0
 40
0.0
 40
0.0
 40
0.0
 40
0.2459030501
 40
0.4944384628
 40
0.7458705334
 40
1.0
 40
1.0
 40
1.0
 40
1.0
 10
10.5216167656
 20
9.0686540917
 30
0.0
 10
10.519281173
 20
9.070304061
 30
0.0
 10
10.514783751
 20
9.0739188337
 30
0.0
 10
10.5088724769
 20
9.0803153854
 30
0.0
 10
10.5040536361
 20
9.0876929395
 30
0.0
 10
10.5017542479
 20
9.0931466224
 30
0.0
 10
10.5008648157
 20
9.0959648816
 30
0.0
  0
SPLINE
  5
3F8
100
AcDbEntity
  8
0
100
AcDbSpline
 62
7
  6
CONTINUOUS
 70
0
 71
3
 72
11
 73
7
 74
0
 42
0.0000001
 43
0.0000001
 44
0.0000000001
 40
0.0
 40
0.0
 40
0.0
 40
0.0
 40
0.2541601579
 40
0.5055319866
 40
0.7540739508
 40
1.0
 40
1.0
 40
1.0
 40
1.0
 10
10.5008648157
 20
9.1233278529
 30
0.0
 10
10.5018117237
 20
9.1262290183
 30
0.0
 10
10.5042998502
 20
9.1318158839
 30
0.0
 10
10.5094327906
 20
9.1393240305
 30
0.0
 10
10.5156244579
 20
9.1458406808
 30
0.0
 10
10.5203017294
 20
9.1495321416
 30
0.0
 10
10.5227349769
 20
9.1512051684
 30
0.0
  0
SPLINE
  5
3F9
100
AcDbEntity
  8
0
100
AcDbSpline
 62
7
  6
CONTINUOUS
 70
0
 71
3
 72
10
 73
6
 74
0
 42
0.0000001
 43
0.0000001
 44
0.0000000001
 40
0.0
 40
0.0
 40
0.0
 40
0.0
 40
0.4459774838
 40
0.7108831018
 40
1.0
 40
1.0
 40
1.0
 40
1.0
 10
10.5231759335
 20
9.0686540533
 30
0.0
 10
10.5252522208
 20
9.0723735737
 30
0.0
 10
10.5278181839
 20
9.0787301956
 30
0.0
 10
10.5301620304
 20
9.0879936261
 30
0.0
 10
10.5310183951
 20
9.0932245003
 30
0.0
 10
10.5313594495
 20
9.0959648816
 30
0.0
  0
SPLINE
  5
3FA
100
AcDbEntity
  8
0
100
AcDbSpline
 62
7
  6
CONTINUOUS
 70
0
 71
3
 72
9
 73
5
 74
0
 42
0.0000001
 43
0.0000001
 44
0.0000000001
 40
0.0
 40
0.0
 40
0.0
 40
0.0
 40
0.2445503337
 40
1.0
 40
1.0
 40
1.0
 40
1.0
 10
10.2401734939
 20
9.0686537148
 30
0.0
 10
10.2394640674
 20
9.0692722831
 30
0.0
 10
10.2366257297
 20
9.07187221
 30
0.0
 10
10.2340566788
 20
9.0747693415
 30
0.0
 10
10.2323173522
 20
9.0770993212
 30
0.0
  0
SPLINE
  5
3FB
100
AcDbEntity
  8
0
100
AcDbSpline
 62
7
  6
CONTINUOUS
 70
0
 71
3
 72
11
 73
7
 74
0
 42
0.0000001
 43
0.0000001
 44
0.0000000001
 40
0.0
 40
0.0
 40
0.0
 40
0.0
 40
0.2093795187
 40
0.4460124707
 40
0.7102407058
 40
1.0
 40
1.0
 40
1.0
 40
1.0
 10
10.5227349769
 20
9.1512051684
 30
0.0
 10
10.5237540358
 20
9.1494283816
 30
0.0
 10
10.5256835993
 20
9.1455029129
 30
0.0
 10
10.5280908101
 20
9.1389742192
 30
0.0
 10
10.5300752486
 20
9.1314880382
 30
0.0
 10
10.5309975895
 20
9.1261392661
 30
0.0
 10
10.5313594495
 20
9.1233278529
 30
0.0
  0
SPLINE
  5
3FC
100
AcDbEntity
  8
0
100
AcDbSpline
 62
7
  6
CONTINUOUS
 70
0
 71
3
 72
11
 73
7
 74
0
 42
0.0000001
 43
0.0000001
 44
0.0000000001
 40
0.0
 40
0.0
 40
0.0
 40
0.0
 40
0.2442431996
 40
0.4921808815
 40
0.7441887367
 40
1.0
 40
1.0
 40
1.0
 40
1.0
 10
10.5515047229
 20
9.0686540538
 30
0.0
 10
10.5492331421
 20
9.0703071426
 30
0.0
 10
10.5448583635
 20
9.0739321595
 30
0.0
 10
10.5391208256
 20
9.0803320313
 30
0.0
 10
10.5344456476
 20
9.08770979
 30
0.0
 10
10.5322213832
 20
9.0931514837
 30
0.0
 10
10.5313594495
 20
9.0959648816
 30
0.0
  0
SPLINE
  5
3FD
100
AcDbEntity
  8
0
100
AcDbSpline
 62
7
  6
CONTINUOUS
 70
0
 71
3
 72
11
 73
7
 74
0
 42
0.0000001
 43
0.0000001
 44
0.0000000001
 40
0.0
 40
0.0
 40
0.0
 40
0.0
 40
0.2558550275
 40
0.5077735451
 40
0.7557109178
 40
1.0
 40
1.0
 40
1.0
 40
1.0
 10
10.5313594495
 20
9.1233278529
 30
0.0
 10
10.5322769038
 20
9.1262234524
 30
0.0
 10
10.5346842171
 20
9.1317976624
 30
0.0
 10
10.5396640175
 20
9.1393078098
 30
0.0
 10
10.5456737391
 20
9.145827928
 30
0.0
 10
10.5502234119
 20
9.1495289073
 30
0.0
 10
10.5525900714
 20
9.1512051684
 30
0.0
  0
SPLINE
  5
3FE
100
AcDbEntity
  8
0
100
AcDbSpline
 62
7
  6
CONTINUOUS
 70
0
 71
3
 72
11
 73
7
 74
0
 42
0.0000001
 43
0.0000001
 44
0.0000000001
 40
0.0
 40
0.0
 40
0.0
 40
0.0
 40
0.2131914624
 40
0.4510922534
 40
0.7144263221
 40
1.0
 40
1.0
 40
1.0
 40
1.0
 10
10.5531065591
 20
9.0686545668
 30
0.0
 10
10.5542398917
 20
9.0703888275
 30
0.0
 10
10.556406562
 20
9.0742137166
 30
0.0
 10
10.559100733
 20
9.0806278914
 30
0.0
 10
10.5612802113
 20
9.0879707835
 30
0.0
 10
10.5622867936
 20
9.0932187468
 30
0.0
 10
10.5626869109
 20
9.0959648816
 30
0.0
  0
SPLINE
  5
3FF
100
AcDbEntity
  8
0
100
AcDbSpline
 62
7
  6
CONTINUOUS
 70
0
 71
3
 72
11
 73
7
 74
0
 42
0.0000001
 43
0.0000001
 44
0.0000000001
 40
0.0
 40
0.0
 40
0.0
 40
0.0
 40
0.2131860323
 40
0.4509026998
 40
0.7137293761
 40
1.0
 40
1.0
 40
1.0
 40
1.0
 10
10.5525900714
 20
9.1512051684
 30
0.0
 10
10.5537731961
 20
9.1494431369
 30
0.0
 10
10.5560221443
 20
9.1455427638
 30
0.0
 10
10.5588477848
 20
9.1390085075
 30
0.0
 10
10.5611771751
 20
9.1315153015
 30
0.0
 10
10.5622622556
 20
9.1261460273
 30
0.0
 10
10.5626869109
 20
9.1233278529
 30
0.0
  0
SPLINE
  5
400
100
AcDbEntity
  8
0
100
AcDbSpline
 62
7
  6
CONTINUOUS
 70
0
 71
3
 72
21
 73
17
 74
0
 42
0.0000001
 43
0.0000001
 44
0.0000000001
 40
0.0
 40
0.0
 40
0.0
 40
0.0
 40
0.124999269
 40
0.1875180341
 40
0.2500329502
 40
0.3125375283
 40
0.3750336826
 40
0.4375214081
 40
0.5000000025
 40
0.562478595
 40
0.6249663181
 40
0.6874624715
 40
0.7499670496
 40
0.812481966
 40
0.8750007313
 40
1.0
 40
1.0
 40
1.0
 40
1.0
 10
11.2224834891
 20
8.0853802055
 30
0.0
 10
11.201115127
 20
8.0862733436
 30
0.0
 10
11.1690896459
 20
8.0883000195
 30
0.0
 10
11.1264242439
 20
8.0914147729
 30
0.0
 10
11.0944200129
 20
8.093724822
 30
0.0
 10
11.0624036023
 20
8.0958053554
 30
0.0
 10
11.0303646582
 20
8.0974324945
 30
0.0
 10
10.9983053061
 20
8.0984745631
 30
0.0
 10
10.9662334881
 20
8.0988527019
 30
0.0
 10
10.9341616701
 20
8.0984745808
 30
0.0
 10
10.9021023192
 20
8.0974324995
 30
0.0
 10
10.870063376
 20
8.0958053536
 30
0.0
 10
10.8380469656
 20
8.0937248206
 30
0.0
 10
10.8060427343
 20
8.0914147734
 30
0.0
 10
10.7633773323
 20
8.0883000196
 30
0.0
 10
10.7313518512
 20
8.0862733436
 30
0.0
 10
10.7099834891
 20
8.0853802055
 30
0.0
  0
SPLINE
  5
401
100
AcDbEntity
  8
0
100
AcDbSpline
 62
7
  6
CONTINUOUS
 70
0
 71
3
 72
11
 73
7
 74
0
 42
0.0000001
 43
0.0000001
 44
0.0000000001
 40
0.0
 40
0.0
 40
0.0
 40
0.0
 40
0.2422959649
 40
0.4895309815
 40
0.7422254615
 40
1.0
 40
1.0
 40
1.0
 40
1.0
 10
10.582130844
 20
9.0686545343
 30
0.0
 10
10.5799332896
 20
9.0703114278
 30
0.0
 10
10.5756997108
 20
9.0739473106
 30
0.0
 10
10.5701635625
 20
9.0803512991
 30
0.0
 10
10.565656771
 20
9.0877299724
 30
0.0
 10
10.5635172106
 20
9.0931570669
 30
0.0
 10
10.5626869109
 20
9.0959648816
 30
0.0
  0
SPLINE
  5
402
100
AcDbEntity
  8
0
100
AcDbSpline
 62
7
  6
CONTINUOUS
 70
0
 71
3
 72
11
 73
7
 74
0
 42
0.0000001
 43
0.0000001
 44
0.0000000001
 40
0.0
 40
0.0
 40
0.0
 40
0.0
 40
0.2578382697
 40
0.5104047527
 40
0.7576384446
 40
1.0
 40
1.0
 40
1.0
 40
1.0
 10
10.5626869109
 20
9.1233278529
 30
0.0
 10
10.5635705219
 20
9.1262171452
 30
0.0
 10
10.565885125
 20
9.1317766994
 30
0.0
 10
10.5706880336
 20
9.139288743
 30
0.0
 10
10.5764873911
 20
9.145812626
 30
0.0
 10
10.5808893116
 20
9.1495249727
 30
0.0
 10
10.5831790067
 20
9.1512051684
 30
0.0
  0
SPLINE
  5
403
100
AcDbEntity
  8
0
100
AcDbSpline
 62
7
  6
CONTINUOUS
 70
0
 71
3
 72
21
 73
17
 74
0
 42
0.0000001
 43
0.0000001
 44
0.0000000001
 40
0.0
 40
0.0
 40
0.0
 40
0.0
 40
0.1249992431
 40
0.1875180536
 40
0.2500330314
 40
0.3125376174
 40
0.3750337004
 40
0.4375213954
 40
0.5000000016
 40
0.5624786063
 40
0.6249662997
 40
0.6874623827
 40
0.7499669687
 40
0.8124819465
 40
0.8750007572
 40
1.0
 40
1.0
 40
1.0
 40
1.0
 10
10.7099834891
 20
8.0853802055
 30
0.0
 10
10.6886151311
 20
8.0862733435
 30
0.0
 10
10.6565896455
 20
8.0883000123
 30
0.0
 10
10.6139242342
 20
8.0914148342
 30
0.0
 10
10.5819199741
 20
8.0937247645
 30
0.0
 10
10.5499035622
 20
8.0958052553
 30
0.0
 10
10.5178646487
 20
8.0974326957
 30
0.0
 10
10.4858053056
 20
8.0984746457
 30
0.0
 10
10.4537334885
 20
8.0988526745
 30
0.0
 10
10.4216616714
 20
8.0984746569
 30
0.0
 10
10.3896023291
 20
8.0974326969
 30
0.0
 10
10.357563416
 20
8.0958052549
 30
0.0
 10
10.325547004
 20
8.0937247652
 30
0.0
 10
10.2935427438
 20
8.0914148355
 30
0.0
 10
10.2508773327
 20
8.088300012
 30
0.0
 10
10.2188518471
 20
8.0862733435
 30
0.0
 10
10.1974834891
 20
8.0853802055
 30
0.0
  0
SPLINE
  5
404
100
AcDbEntity
  8
0
100
AcDbSpline
 62
7
  6
CONTINUOUS
 70
0
 71
3
 72
11
 73
7
 74
0
 42
0.0000001
 43
0.0000001
 44
0.0000000001
 40
0.0
 40
0.0
 40
0.0
 40
0.0
 40
0.2170385422
 40
0.4560535769
 40
0.7179443626
 40
1.0
 40
1.0
 40
1.0
 40
1.0
 10
10.5837683947
 20
9.0686545622
 30
0.0
 10
10.5850519762
 20
9.0703757606
 30
0.0
 10
10.5875125462
 20
9.074174405
 30
0.0
 10
10.5905948625
 20
9.0805928779
 30
0.0
 10
10.5930887701
 20
9.087944024
 30
0.0
 10
10.5942434754
 20
9.0932123541
 30
0.0
 10
10.594701137
 20
9.0959648816
 30
0.0
  0
SPLINE
  5
405
100
AcDbEntity
  8
0
100
AcDbSpline
 62
7
  6
CONTINUOUS
 70
0
 71
3
 72
11
 73
7
 74
0
 42
0.0000001
 43
0.0000001
 44
0.0000000001
 40
0.0
 40
0.0
 40
0.0
 40
0.0
 40
0.2170868808
 40
0.4559599765
 40
0.7173758129
 40
1.0
 40
1.0
 40
1.0
 40
1.0
 10
10.5831790067
 20
9.1512051684
 30
0.0
 10
10.5845183972
 20
9.149457162
 30
0.0
 10
10.5870733359
 20
9.1455831437
 30
0.0
 10
10.5903052719
 20
9.1390445132
 30
0.0
 10
10.5929696146
 20
9.13154462
 30
0.0
 10
10.5942152757
 20
9.1261533592
 30
0.0
 10
10.594701137
 20
9.1233278529
 30
0.0
  0
SPLINE
  5
406
100
AcDbEntity
  8
0
100
AcDbSpline
 62
7
  6
CONTINUOUS
 70
0
 71
3
 72
11
 73
7
 74
0
 42
0.0000001
 43
0.0000001
 44
0.0000000001
 40
0.0
 40
0.0
 40
0.0
 40
0.0
 40
0.2400527149
 40
0.4864956495
 40
0.7399815652
 40
1.0
 40
1.0
 40
1.0
 40
1.0
 10
10.6133542053
 20
9.0686539254
 30
0.0
 10
10.6112402415
 20
9.0703153669
 30
0.0
 10
10.6071670991
 20
9.0739649377
 30
0.0
 10
10.601858265
 20
9.0803731071
 30
0.0
 10
10.5975398447
 20
9.0877518172
 30
0.0
 10
10.5954959352
 20
9.0931630825
 30
0.0
 10
10.594701137
 20
9.0959648816
 30
0.0
  0
SPLINE
  5
407
100
AcDbEntity
  8
0
100
AcDbSpline
 62
7
  6
CONTINUOUS
 70
0
 71
3
 72
11
 73
7
 74
0
 42
0.0000001
 43
0.0000001
 44
0.0000000001
 40
0.0
 40
0.0
 40
0.0
 40
0.0
 40
0.2601082075
 40
0.5134275885
 40
0.7598611069
 40
1.0
 40
1.0
 40
1.0
 40
1.0
 10
10.594701137
 20
9.1233278529
 30
0.0
 10
10.5955467408
 20
9.1262101833
 30
0.0
 10
10.5977574869
 20
9.1317531555
 30
0.0
 10
10.602360575
 20
9.139266803
 30
0.0
 10
10.607922016
 20
9.1457946115
 30
0.0
 10
10.6121565027
 20
9.1495202603
 30
0.0
 10
10.614359163
 20
9.1512051684
 30
0.0
  0
SPLINE
  5
408
100
AcDbEntity
  8
0
100
AcDbSpline
 62
7
  6
CONTINUOUS
 70
0
 71
3
 72
11
 73
7
 74
0
 42
0.0000001
 43
0.0000001
 44
0.0000000001
 40
0.0
 40
0.0
 40
0.0
 40
0.0
 40
0.2208857833
 40
0.4610511907
 40
0.7215072385
 40
1.0
 40
1.0
 40
1.0
 40
1.0
 10
10.6150183873
 20
9.0686540342
 30
0.0
 10
10.6164447791
 20
9.0703632346
 30
0.0
 10
10.6191846227
 20
9.0741359379
 30
0.0
 10
10.6226417802
 20
9.0805570141
 30
0.0
 10
10.625440163
 20
9.087915692
 30
0.0
 10
10.6267394372
 20
9.0932054491
 30
0.0
 10
10.6272528626
 20
9.0959648816
 30
0.0
  0
SPLINE
  5
409
100
AcDbEntity
  8
0
100
AcDbSpline
 62
7
  6
CONTINUOUS
 70
0
 71
3
 72
10
 73
6
 74
0
 42
0.0000001
 43
0.0000001
 44
0.0000000001
 40
0.0
 40
0.0
 40
0.0
 40
0.0
 40
0.2211243242
 40
0.5885752862
 40
1.0
 40
1.0
 40
1.0
 40
1.0
 10
10.614359163
 20
9.1512051684
 30
0.0
 10
10.6158470204
 20
9.1494699571
 30
0.0
 10
10.6194765779
 20
9.1445612912
 30
0.0
 10
10.6241892548
 20
9.1352909559
 30
0.0
 10
10.6264492451
 20
9.1275041227
 30
0.0
 10
10.6272528626
 20
9.1233278529
 30
0.0
  0
SPLINE
  5
40A
100
AcDbEntity
  8
0
100
AcDbSpline
 62
7
  6
CONTINUOUS
 70
0
 71
3
 72
11
 73
7
 74
0
 42
0.0000001
 43
0.0000001
 44
0.0000000001
 40
0.0
 40
0.0
 40
0.0
 40
0.0
 40
0.2375153254
 40
0.4830755638
 40
0.7374653032
 40
1.0
 40
1.0
 40
1.0
 40
1.0
 10
10.6450267025
 20
9.0686549016
 30
0.0
 10
10.6430058974
 20
9.0703216951
 30
0.0
 10
10.6391117187
 20
9.0739865308
 30
0.0
 10
10.6340559136
 20
9.0803984983
 30
0.0
 10
10.6299471506
 20
9.087776348
 30
0.0
 10
10.6280084294
 20
9.0931697539
 30
0.0
 10
10.6272528626
 20
9.0959648816
 30
0.0
  0
SPLINE
  5
40B
100
AcDbEntity
  8
0
100
AcDbSpline
 62
7
  6
CONTINUOUS
 70
0
 71
3
 72
9
 73
5
 74
0
 42
0.0000001
 43
0.0000001
 44
0.0000000001
 40
0.0
 40
0.0
 40
0.0
 40
0.0
 40
0.5166246566
 40
1.0
 40
1.0
 40
1.0
 40
1.0
 10
10.6272528626
 20
9.1233278529
 30
0.0
 10
10.6288288333
 20
9.1289651863
 30
0.0
 10
10.6338381298
 20
9.1394008575
 30
0.0
 10
10.6417142604
 20
9.1477767229
 30
0.0
 10
10.6459851641
 20
9.1512051684
 30
0.0
  0
SPLINE
  5
40C
100
AcDbEntity
  8
0
100
AcDbSpline
 62
7
  6
CONTINUOUS
 70
0
 71
3
 72
11
 73
7
 74
0
 42
0.0000001
 43
0.0000001
 44
0.0000000001
 40
0.0
 40
0.0
 40
0.0
 40
0.0
 40
0.2246358218
 40
0.4659571331
 40
0.7250268659
 40
1.0
 40
1.0
 40
1.0
 40
1.0
 10
10.6467121102
 20
9.0686550282
 30
0.0
 10
10.6482735281
 20
9.0703533613
 30
0.0
 10
10.6512771696
 20
9.0741007688
 30
0.0
 10
10.6550931893
 20
9.0805223646
 30
0.0
 10
10.6581838053
 20
9.0878871231
 30
0.0
 10
10.6596232275
 20
9.0931984146
 30
0.0
 10
10.6601903166
 20
9.0959648816
 30
0.0
  0
LINE
  5
40D
100
AcDbEntity
  8
0
100
AcDbLine
 62
7
  6
CONTINUOUS
 10
10.3891835118
 20
9.0678525567
 11
10.389224563
 21
9.0686544141
  0
SPLINE
  5
40E
100
AcDbEntity
  8
0
100
AcDbSpline
 62
7
  6
CONTINUOUS
 70
0
 71
3
 72
10
 73
6
 74
0
 42
0.0000001
 43
0.0000001
 44
0.0000000001
 40
0.0
 40
0.0
 40
0.0
 40
0.0
 40
0.4654322565
 40
0.72437268
 40
1.0
 40
1.0
 40
1.0
 40
1.0
 10
10.6459851641
 20
9.1512051684
 30
0.0
 10
10.6493535367
 20
9.1476394845
 30
0.0
 10
10.6537880044
 20
9.1412737955
 30
0.0
 10
10.658032399
 20
9.13160915
 30
0.0
 10
10.6595879001
 20
9.126169484
 30
0.0
 10
10.6601903166
 20
9.1233278529
 30
0.0
  0
SPLINE
  5
40F
100
AcDbEntity
  8
0
100
AcDbSpline
 62
7
  6
CONTINUOUS
 70
0
 71
3
 72
11
 73
7
 74
0
 42
0.0000001
 43
0.0000001
 44
0.0000000001
 40
0.0
 40
0.0
 40
0.0
 40
0.0
 40
0.2346889781
 40
0.4792861863
 40
0.7346871936
 40
1.0
 40
1.0
 40
1.0
 40
1.0
 10
10.6770038658
 20
9.0686537338
 30
0.0
 10
10.6750850025
 20
9.0703268369
 30
0.0
 10
10.6713876565
 20
9.0740096437
 30
0.0
 10
10.6666086505
 20
9.0804255072
 30
0.0
 10
10.662728071
 20
9.0878019443
 30
0.0
 10
10.6609032838
 20
9.0931765494
 30
0.0
 10
10.6601903166
 20
9.0959648816
 30
0.0
  0
SPLINE
  5
410
100
AcDbEntity
  8
0
100
AcDbSpline
 62
7
  6
CONTINUOUS
 70
0
 71
3
 72
9
 73
5
 74
0
 42
0.0000001
 43
0.0000001
 44
0.0000000001
 40
0.0
 40
0.0
 40
0.0
 40
0.0
 40
0.5204700722
 40
1.0
 40
1.0
 40
1.0
 40
1.0
 10
10.6601903166
 20
9.1233278529
 30
0.0
 10
10.6616722772
 20
9.1289319843
 30
0.0
 10
10.6663462718
 20
9.1392866345
 30
0.0
 10
10.6738374636
 20
9.1477494284
 30
0.0
 10
10.6779095549
 20
9.1512051684
 30
0.0
  0
SPLINE
  5
411
100
AcDbEntity
  8
0
100
AcDbSpline
 62
7
  6
CONTINUOUS
 70
0
 71
3
 72
11
 73
7
 74
0
 42
0.0000001
 43
0.0000001
 44
0.0000000001
 40
0.0
 40
0.0
 40
0.0
 40
0.0
 40
0.2282171861
 40
0.4706757259
 40
0.7284290925
 40
1.0
 40
1.0
 40
1.0
 40
1.0
 10
10.6786992629
 20
9.0686537167
 30
0.0
 10
10.6803880894
 20
9.0703424901
 30
0.0
 10
10.6836397098
 20
9.0740665557
 30
0.0
 10
10.6877971617
 20
9.0804875963
 30
0.0
 10
10.6911670382
 20
9.0878577271
 30
0.0
 10
10.692741468
 20
9.0931909639
 30
0.0
 10
10.6933599294
 20
9.0959648816
 30
0.0
  0
SPLINE
  5
412
100
AcDbEntity
  8
0
100
AcDbSpline
 62
7
  6
CONTINUOUS
 70
0
 71
3
 72
9
 73
5
 74
0
 42
0.0000001
 43
0.0000001
 44
0.0000000001
 40
0.0
 40
0.0
 40
0.0
 40
0.0
 40
0.4708260433
 40
1.0
 40
1.0
 40
1.0
 40
1.0
 10
10.6779095549
 20
9.1512051684
 30
0.0
 10
10.6815305239
 20
9.1476810182
 30
0.0
 10
10.6881343342
 20
9.1390271008
 30
0.0
 10
10.6920839433
 20
9.1288616554
 30
0.0
 10
10.6933599294
 20
9.1233278529
 30
0.0
  0
SPLINE
  5
413
100
AcDbEntity
  8
0
100
AcDbSpline
 62
7
  6
CONTINUOUS
 70
0
 71
3
 72
11
 73
7
 74
0
 42
0.0000001
 43
0.0000001
 44
0.0000000001
 40
0.0
 40
0.0
 40
0.0
 40
0.0
 40
0.231584429
 40
0.4751445113
 40
0.7316687091
 40
1.0
 40
1.0
 40
1.0
 40
1.0
 10
10.709133053
 20
9.0686547303
 30
0.0
 10
10.7073250977
 20
9.0703351154
 30
0.0
 10
10.7038421563
 20
9.0740373816
 30
0.0
 10
10.6993633357
 20
9.0804561021
 30
0.0
 10
10.6957300343
 20
9.0878297437
 30
0.0
 10
10.6940270597
 20
9.0931838457
 30
0.0
 10
10.6933599294
 20
9.0959648816
 30
0.0
  0
SPLINE
  5
414
100
AcDbEntity
  8
0
100
AcDbSpline
 62
7
  6
CONTINUOUS
 70
0
 71
3
 72
9
 73
5
 74
0
 42
0.0000001
 43
0.0000001
 44
0.0000000001
 40
0.0
 40
0.0
 40
0.0
 40
0.0
 40
0.5246780994
 40
1.0
 40
1.0
 40
1.0
 40
1.0
 10
10.6933599294
 20
9.1233278529
 30
0.0
 10
10.6947416757
 20
9.1288974144
 30
0.0
 10
10.6990611415
 20
9.139161737
 30
0.0
 10
10.7061281888
 20
9.1477177601
 30
0.0
 10
10.7099834891
 20
9.1512051684
 30
0.0
  0
SPLINE
  5
415
100
AcDbEntity
  8
0
100
AcDbSpline
 62
7
  6
CONTINUOUS
 70
0
 71
3
 72
11
 73
7
 74
0
 42
0.0000001
 43
0.0000001
 44
0.0000000001
 40
0.0
 40
0.0
 40
0.0
 40
0.0
 40
0.2315772651
 40
0.4751302069
 40
0.7316610852
 40
1.0
 40
1.0
 40
1.0
 40
1.0
 10
10.7108340963
 20
9.0686549007
 30
0.0
 10
10.7126419734
 20
9.0703352281
 30
0.0
 10
10.7161248615
 20
9.0740372771
 30
0.0
 10
10.7206035052
 20
9.0804559627
 30
0.0
 10
10.7242366754
 20
9.0878296563
 30
0.0
 10
10.7259399051
 20
9.0931837894
 30
0.0
 10
10.7266070489
 20
9.0959648816
 30
0.0
  0
SPLINE
  5
416
100
AcDbEntity
  8
0
100
AcDbSpline
 62
7
  6
CONTINUOUS
 70
0
 71
3
 72
9
 73
5
 74
0
 42
0.0000001
 43
0.0000001
 44
0.0000000001
 40
0.0
 40
0.0
 40
0.0
 40
0.0
 40
0.4753622926
 40
1.0
 40
1.0
 40
1.0
 40
1.0
 10
10.7099834891
 20
9.1512051684
 30
0.0
 10
10.7138391198
 20
9.1477174613
 30
0.0
 10
10.7209062001
 20
9.1391613972
 30
0.0
 10
10.725225408
 20
9.1288969895
 30
0.0
 10
10.7266070489
 20
9.1233278529
 30
0.0
  0
SPLINE
  5
417
100
AcDbEntity
  8
0
100
AcDbSpline
 62
7
  6
CONTINUOUS
 70
0
 71
3
 72
11
 73
7
 74
0
 42
0.0000001
 43
0.0000001
 44
0.0000000001
 40
0.0
 40
0.0
 40
0.0
 40
0.0
 40
0.2282247469
 40
0.4706901839
 40
0.7284367457
 40
1.0
 40
1.0
 40
1.0
 40
1.0
 10
10.7412674745
 20
9.0686540608
 30
0.0
 10
10.739578627
 20
9.0703428812
 30
0.0
 10
10.736327044
 20
9.0740670934
 30
0.0
 10
10.7321695233
 20
9.0804880509
 30
0.0
 10
10.728799626
 20
9.0878579905
 30
0.0
 10
10.7272254848
 20
9.0931910781
 30
0.0
 10
10.7266070489
 20
9.0959648816
 30
0.0
  0
SPLINE
  5
418
100
AcDbEntity
  8
0
100
AcDbSpline
 62
7
  6
CONTINUOUS
 70
0
 71
3
 72
10
 73
6
 74
0
 42
0.0000001
 43
0.0000001
 44
0.0000000001
 40
0.0
 40
0.0
 40
0.0
 40
0.0
 40
0.2721725285
 40
0.5298750887
 40
1.0
 40
1.0
 40
1.0
 40
1.0
 10
10.7266070489
 20
9.1233278529
 30
0.0
 10
10.7272642549
 20
9.1261780786
 30
0.0
 10
10.7289666853
 20
9.1316409756
 30
0.0
 10
10.7336134249
 20
9.1413546443
 30
0.0
 10
10.7384367665
 20
9.1476813221
 30
0.0
 10
10.7420574234
 20
9.1512051684
 30
0.0
  0
SPLINE
  5
419
100
AcDbEntity
  8
0
100
AcDbSpline
 62
7
  6
CONTINUOUS
 70
0
 71
3
 72
11
 73
7
 74
0
 42
0.0000001
 43
0.0000001
 44
0.0000000001
 40
0.0
 40
0.0
 40
0.0
 40
0.0
 40
0.2346814878
 40
0.4792710764
 40
0.7346795522
 40
1.0
 40
1.0
 40
1.0
 40
1.0
 10
10.7429633562
 20
9.0686540225
 30
0.0
 10
10.7448821243
 20
9.070327065
 30
0.0
 10
10.7485794605
 20
9.0740095558
 30
0.0
 10
10.7533582694
 20
9.0804253798
 30
0.0
 10
10.7572385867
 20
9.0878019036
 30
0.0
 10
10.7590636824
 20
9.0931765024
 30
0.0
 10
10.7597766616
 20
9.0959648816
 30
0.0
  0
SPLINE
  5
41A
100
AcDbEntity
  8
0
100
AcDbSpline
 62
7
  6
CONTINUOUS
 70
0
 71
3
 72
9
 73
5
 74
0
 42
0.0000001
 43
0.0000001
 44
0.0000000001
 40
0.0
 40
0.0
 40
0.0
 40
0.0
 40
0.4795704195
 40
1.0
 40
1.0
 40
1.0
 40
1.0
 10
10.7420574234
 20
9.1512051684
 30
0.0
 10
10.7461298616
 20
9.147749134
 30
0.0
 10
10.7536210952
 20
9.1392863006
 30
0.0
 10
10.7582948153
 20
9.1289315525
 30
0.0
 10
10.7597766616
 20
9.1233278529
 30
0.0
  0
SPLINE
  5
41B
100
AcDbEntity
  8
0
100
AcDbSpline
 62
7
  6
CONTINUOUS
 70
0
 71
3
 72
11
 73
7
 74
0
 42
0.0000001
 43
0.0000001
 44
0.0000000001
 40
0.0
 40
0.0
 40
0.0
 40
0.0
 40
0.2246469594
 40
0.4659771717
 40
0.7250304533
 40
1.0
 40
1.0
 40
1.0
 40
1.0
 10
10.7732556092
 20
9.0686540829
 30
0.0
 10
10.7716940156
 20
9.0703525274
 30
0.0
 10
10.7686907282
 20
9.0741007291
 30
0.0
 10
10.764874187
 20
9.0805222701
 30
0.0
 10
10.761782454
 20
9.0878868365
 30
0.0
 10
10.7603437647
 20
9.0931983469
 30
0.0
 10
10.7597766616
 20
9.0959648816
 30
0.0
  0
SPLINE
  5
41C
100
AcDbEntity
  8
0
100
AcDbSpline
 62
7
  6
CONTINUOUS
 70
0
 71
3
 72
10
 73
6
 74
0
 42
0.0000001
 43
0.0000001
 44
0.0000000001
 40
0.0
 40
0.0
 40
0.0
 40
0.0
 40
0.2756462589
 40
0.5346077232
 40
1.0
 40
1.0
 40
1.0
 40
1.0
 10
10.7597766616
 20
9.1233278529
 30
0.0
 10
10.760379119
 20
9.1261696767
 30
0.0
 10
10.7619350413
 20
9.1316096545
 30
0.0
 10
10.7661792728
 20
9.1412743479
 30
0.0
 10
10.770613734
 20
9.1476397941
 30
0.0
 10
10.7739818142
 20
9.1512051684
 30
0.0
  0
SPLINE
  5
41D
100
AcDbEntity
  8
0
100
AcDbSpline
 62
7
  6
CONTINUOUS
 70
0
 71
3
 72
11
 73
7
 74
0
 42
0.0000001
 43
0.0000001
 44
0.0000000001
 40
0.0
 40
0.0
 40
0.0
 40
0.0
 40
0.2375082627
 40
0.4830614268
 40
0.7374572288
 40
1.0
 40
1.0
 40
1.0
 40
1.0
 10
10.7749400613
 20
9.0686546064
 30
0.0
 10
10.7769608369
 20
9.0703213549
 30
0.0
 10
10.7808549866
 20
9.0739860766
 30
0.0
 10
10.7859107082
 20
9.0803981121
 30
0.0
 10
10.790019499
 20
9.0877761094
 30
0.0
 10
10.791958518
 20
9.0931696396
 30
0.0
 10
10.7927141156
 20
9.0959648816
 30
0.0
  0
SPLINE
  5
41E
100
AcDbEntity
  8
0
100
AcDbSpline
 62
7
  6
CONTINUOUS
 70
0
 71
3
 72
9
 73
5
 74
0
 42
0.0000001
 43
0.0000001
 44
0.0000000001
 40
0.0
 40
0.0
 40
0.0
 40
0.0
 40
0.4834159303
 40
1.0
 40
1.0
 40
1.0
 40
1.0
 10
10.7739818142
 20
9.1512051684
 30
0.0
 10
10.7782530799
 20
9.1477764323
 30
0.0
 10
10.7861292606
 20
9.1394005295
 30
0.0
 10
10.7911382675
 20
9.128964748
 30
0.0
 10
10.7927141156
 20
9.1233278529
 30
0.0
  0
SPLINE
  5
41F
100
AcDbEntity
  8
0
100
AcDbSpline
 62
7
  6
CONTINUOUS
 70
0
 71
3
 72
11
 73
7
 74
0
 42
0.0000001
 43
0.0000001
 44
0.0000000001
 40
0.0
 40
0.0
 40
0.0
 40
0.0
 40
0.2208930575
 40
0.4610648201
 40
0.7215149134
 40
1.0
 40
1.0
 40
1.0
 40
1.0
 10
10.8049482575
 20
9.0686546201
 30
0.0
 10
10.8035218718
 20
9.0703638577
 30
0.0
 10
10.8007820504
 20
9.0741366168
 30
0.0
 10
10.797324866
 20
9.0805575815
 30
0.0
 10
10.7945265631
 20
9.0879160395
 30
0.0
 10
10.7932275157
 20
9.0932055854
 30
0.0
 10
10.7927141156
 20
9.0959648816
 30
0.0
  0
SPLINE
  5
420
100
AcDbEntity
  8
0
100
AcDbSpline
 62
7
  6
CONTINUOUS
 70
0
 71
3
 72
9
 73
5
 74
0
 42
0.0000001
 43
0.0000001
 44
0.0000000001
 40
0.0
 40
0.0
 40
0.0
 40
0.0
 40
0.2800901888
 40
1.0
 40
1.0
 40
1.0
 40
1.0
 10
10.7927141156
 20
9.1233278529
 30
0.0
 10
10.7932593684
 20
9.1261614433
 30
0.0
 10
10.7958382216
 20
9.1361356376
 30
0.0
 10
10.800780075
 20
9.1455748241
 30
0.0
 10
10.8056078153
 20
9.1512051684
 30
0.0
  0
SPLINE
  5
421
100
AcDbEntity
  8
0
100
AcDbSpline
 62
7
  6
CONTINUOUS
 70
0
 71
3
 72
11
 73
7
 74
0
 42
0.0000001
 43
0.0000001
 44
0.0000000001
 40
0.0
 40
0.0
 40
0.0
 40
0.0
 40
0.2400456023
 40
0.4864805227
 40
0.7399737311
 40
1.0
 40
1.0
 40
1.0
 40
1.0
 10
10.8066134636
 20
9.0686546558
 30
0.0
 10
10.8087272732
 20
9.0703160324
 30
0.0
 10
10.8128003217
 20
9.0739651949
 30
0.0
 10
10.8181088437
 20
9.0803732285
 30
0.0
 10
10.8224268364
 20
9.0877519432
 30
0.0
 10
10.8244710432
 20
9.0931630832
 30
0.0
 10
10.8252658413
 20
9.0959648816
 30
0.0
  0
SPLINE
  5
422
100
AcDbEntity
  8
0
100
AcDbSpline
 62
7
  6
CONTINUOUS
 70
0
 71
3
 72
11
 73
7
 74
0
 42
0.0000001
 43
0.0000001
 44
0.0000000001
 40
0.0
 40
0.0
 40
0.0
 40
0.0
 40
0.2401535447
 40
0.4866130045
 40
0.7399114724
 40
1.0
 40
1.0
 40
1.0
 40
1.0
 10
10.8056078153
 20
9.1512051684
 30
0.0
 10
10.8078106141
 20
9.1495201543
 30
0.0
 10
10.8120455611
 20
9.1457942841
 30
0.0
 10
10.8176069115
 20
9.1392660841
 30
0.0
 10
10.822210124
 20
9.1317526808
 30
0.0
 10
10.8244202998
 20
9.1262099707
 30
0.0
 10
10.8252658413
 20
9.1233278529
 30
0.0
  0
SPLINE
  5
423
100
AcDbEntity
  8
0
100
AcDbSpline
 62
7
  6
CONTINUOUS
 70
0
 71
3
 72
11
 73
7
 74
0
 42
0.0000001
 43
0.0000001
 44
0.0000000001
 40
0.0
 40
0.0
 40
0.0
 40
0.0
 40
0.2170469955
 40
0.4560691366
 40
0.717950957
 40
1.0
 40
1.0
 40
1.0
 40
1.0
 10
10.8361989598
 20
9.0686538822
 30
0.0
 10
10.8349152685
 20
9.0703751735
 30
0.0
 10
10.8324547036
 20
9.0741741517
 30
0.0
 10
10.829372171
 20
9.0805927782
 30
0.0
 10
10.8268780152
 20
9.0879439838
 30
0.0
 10
10.8257235042
 20
9.0932123461
 30
0.0
 10
10.8252658413
 20
9.0959648816
 30
0.0
  0
SPLINE
  5
424
100
AcDbEntity
  8
0
100
AcDbSpline
 62
7
  6
CONTINUOUS
 70
0
 71
3
 72
11
 73
7
 74
0
 42
0.0000001
 43
0.0000001
 44
0.0000000001
 40
0.0
 40
0.0
 40
0.0
 40
0.0
 40
0.282643113
 40
0.5440800482
 40
0.7829258003
 40
1.0
 40
1.0
 40
1.0
 40
1.0
 10
10.8252658413
 20
9.1233278529
 30
0.0
 10
10.8257517346
 20
9.1261535455
 30
0.0
 10
10.8269977452
 20
9.1315451329
 30
0.0
 10
10.8296619843
 20
9.1390451914
 30
0.0
 10
10.8328940311
 20
9.1455835429
 30
0.0
 10
10.8354486607
 20
9.1494572659
 30
0.0
 10
10.8367879716
 20
9.1512051684
 30
0.0
  0
SPLINE
  5
425
100
AcDbEntity
  8
0
100
AcDbSpline
 62
7
  6
CONTINUOUS
 70
0
 71
3
 72
11
 73
7
 74
0
 42
0.0000001
 43
0.0000001
 44
0.0000000001
 40
0.0
 40
0.0
 40
0.0
 40
0.0
 40
0.2422888245
 40
0.4895166113
 40
0.7422171795
 40
1.0
 40
1.0
 40
1.0
 40
1.0
 10
10.8378356287
 20
9.0686539775
 30
0.0
 10
10.8400331848
 20
9.0703108311
 30
0.0
 10
10.8442667842
 20
9.0739466269
 30
0.0
 10
10.8498029186
 20
9.0803507522
 30
0.0
 10
10.8543098039
 20
9.08772965
 30
0.0
 10
10.8564497234
 20
9.0931569171
 30
0.0
 10
10.8572800674
 20
9.0959648816
 30
0.0
  0
SPLINE
  5
426
100
AcDbEntity
  8
0
100
AcDbSpline
 62
7
  6
CONTINUOUS
 70
0
 71
3
 72
11
 73
7
 74
0
 42
0.0000001
 43
0.0000001
 44
0.0000000001
 40
0.0
 40
0.0
 40
0.0
 40
0.0
 40
0.2423763966
 40
0.4896359081
 40
0.742181487
 40
1.0
 40
1.0
 40
1.0
 40
1.0
 10
10.8367879716
 20
9.1512051684
 30
0.0
 10
10.8390778113
 20
9.1495248665
 30
0.0
 10
10.8434802047
 20
9.1458123039
 30
0.0
 10
10.8492794774
 20
9.1392880202
 30
0.0
 10
10.8540825127
 20
9.1317762301
 30
0.0
 10
10.8563965223
 20
9.1262169294
 30
0.0
 10
10.8572800674
 20
9.1233278529
 30
0.0
  0
SPLINE
  5
427
100
AcDbEntity
  8
0
100
AcDbSpline
 62
7
  6
CONTINUOUS
 70
0
 71
3
 72
11
 73
7
 74
0
 42
0.0000001
 43
0.0000001
 44
0.0000000001
 40
0.0
 40
0.0
 40
0.0
 40
0.0
 40
0.213195459
 40
0.4511020477
 40
0.7144357863
 40
1.0
 40
1.0
 40
1.0
 40
1.0
 10
10.8668602312
 20
9.068654964
 30
0.0
 10
10.8657269076
 20
9.0703892423
 30
0.0
 10
10.8635600429
 20
9.0742140547
 30
0.0
 10
10.8608659143
 20
9.0806282645
 30
0.0
 10
10.8586867704
 20
9.0879710964
 30
0.0
 10
10.8576801658
 20
9.0932188762
 30
0.0
 10
10.8572800674
 20
9.0959648816
 30
0.0
  0
SPLINE
  5
428
100
AcDbEntity
  8
0
100
AcDbSpline
 62
7
  6
CONTINUOUS
 70
0
 71
3
 72
11
 73
7
 74
0
 42
0.0000001
 43
0.0000001
 44
0.0000000001
 40
0.0
 40
0.0
 40
0.0
 40
0.0
 40
0.2862838906
 40
0.5491414468
 40
0.7868326717
 40
1.0
 40
1.0
 40
1.0
 40
1.0
 10
10.8572800674
 20
9.1233278529
 30
0.0
 10
10.8577047422
 20
9.1261461569
 30
0.0
 10
10.8587904989
 20
9.1315157332
 30
0.0
 10
10.861119378
 20
9.13900926
 30
0.0
 10
10.8639448939
 20
9.1455434624
 30
0.0
 10
10.8661938864
 20
9.1494432921
 30
0.0
 10
10.8673769069
 20
9.1512051684
 30
0.0
  0
SPLINE
  5
429
100
AcDbEntity
  8
0
100
AcDbSpline
 62
7
  6
CONTINUOUS
 70
0
 71
3
 72
11
 73
7
 74
0
 42
0.0000001
 43
0.0000001
 44
0.0000000001
 40
0.0
 40
0.0
 40
0.0
 40
0.0
 40
0.244238223
 40
0.4921640002
 40
0.7441812225
 40
1.0
 40
1.0
 40
1.0
 40
1.0
 10
10.8684632767
 20
9.0686549256
 30
0.0
 10
10.8707346915
 20
9.0703079652
 30
0.0
 10
10.8751097317
 20
9.0739319964
 30
0.0
 10
10.8808467289
 20
9.0803320002
 30
0.0
 10
10.8855203521
 20
9.0877102852
 30
0.0
 10
10.8877456022
 20
9.0931515072
 30
0.0
 10
10.8886075288
 20
9.0959648816
 30
0.0
  0
SPLINE
  5
42A
100
AcDbEntity
  8
0
100
AcDbSpline
 62
7
  6
CONTINUOUS
 70
0
 71
3
 72
11
 73
7
 74
0
 42
0.0000001
 43
0.0000001
 44
0.0000000001
 40
0.0
 40
0.0
 40
0.0
 40
0.0
 40
0.2443041263
 40
0.4922671856
 40
0.744164759
 40
1.0
 40
1.0
 40
1.0
 40
1.0
 10
10.8673769069
 20
9.1512051684
 30
0.0
 10
10.869743717
 20
9.1495288006
 30
0.0
 10
10.8742938729
 20
9.1458276088
 30
0.0
 10
10.8803035194
 20
9.1393070864
 30
0.0
 10
10.8852834511
 20
9.1317972015
 30
0.0
 10
10.8876901435
 20
9.1262232344
 30
0.0
 10
10.8886075288
 20
9.1233278529
 30
0.0
  0
SPLINE
  5
42B
100
AcDbEntity
  8
0
100
AcDbSpline
 62
7
  6
CONTINUOUS
 70
0
 71
3
 72
10
 73
6
 74
0
 42
0.0000001
 43
0.0000001
 44
0.0000000001
 40
0.0
 40
0.0
 40
0.0
 40
0.0
 40
0.4460021317
 40
0.7108855453
 40
1.0
 40
1.0
 40
1.0
 40
1.0
 10
10.8967911819
 20
9.0686537211
 30
0.0
 10
10.8947147297
 20
9.0723734798
 30
0.0
 10
10.89214928
 20
9.0787303894
 30
0.0
 10
10.8898044053
 20
9.0879936792
 30
0.0
 10
10.8889485845
 20
9.0932244894
 30
0.0
 10
10.8886075288
 20
9.0959648816
 30
0.0
  0
SPLINE
  5
42C
100
AcDbEntity
  8
0
100
AcDbSpline
 62
7
  6
CONTINUOUS
 70
0
 71
3
 72
11
 73
7
 74
0
 42
0.0000001
 43
0.0000001
 44
0.0000000001
 40
0.0
 40
0.0
 40
0.0
 40
0.0
 40
0.2897778508
 40
0.5540273487
 40
0.7906325623
 40
1.0
 40
1.0
 40
1.0
 40
1.0
 10
10.8886075288
 20
9.1233278529
 30
0.0
 10
10.8889694117
 20
9.1261394443
 30
0.0
 10
10.8898920225
 20
9.1314885589
 30
0.0
 10
10.8918763728
 20
9.1389748812
 30
0.0
 10
10.8942836787
 20
9.1455033398
 30
0.0
 10
10.896213002
 20
9.1494284853
 30
0.0
 10
10.8972320014
 20
9.1512051684
 30
0.0
  0
SPLINE
  5
42D
100
AcDbEntity
  8
0
100
AcDbSpline
 62
7
  6
CONTINUOUS
 70
0
 71
3
 72
11
 73
7
 74
0
 42
0.0000001
 43
0.0000001
 44
0.0000000001
 40
0.0
 40
0.0
 40
0.0
 40
0.0
 40
0.2458959782
 40
0.4944237895
 40
0.7458621933
 40
1.0
 40
1.0
 40
1.0
 40
1.0
 10
10.8983498392
 20
9.068653715
 30
0.0
 10
10.9006854116
 20
9.0703036421
 30
0.0
 10
10.9051828558
 20
9.0739182501
 30
0.0
 10
10.9110940807
 20
9.0803149122
 30
0.0
 10
10.915912905
 20
9.0876926917
 30
0.0
 10
10.9182126883
 20
9.0931464891
 30
0.0
 10
10.9191021625
 20
9.0959648816
 30
0.0
  0
SPLINE
  5
42E
100
AcDbEntity
  8
0
100
AcDbSpline
 62
7
  6
CONTINUOUS
 70
0
 71
3
 72
11
 73
7
 74
0
 42
0.0000001
 43
0.0000001
 44
0.0000000001
 40
0.0
 40
0.0
 40
0.0
 40
0.0
 40
0.2459411868
 40
0.4945087802
 40
0.745859748
 40
1.0
 40
1.0
 40
1.0
 40
1.0
 10
10.8972320014
 20
9.1512051684
 30
0.0
 10
10.8996654036
 20
9.1495320352
 30
0.0
 10
10.9043431707
 20
9.1458403701
 30
0.0
 10
10.9105347614
 20
9.1393233015
 30
0.0
 10
10.9156678266
 20
9.1318154211
 30
0.0
 10
10.9181553268
 20
9.126228797
 30
0.0
 10
10.9191021625
 20
9.1233278529
 30
0.0
  0
SPLINE
  5
42F
100
AcDbEntity
  8
0
100
AcDbSpline
 62
7
  6
CONTINUOUS
 70
0
 71
3
 72
10
 73
6
 74
0
 42
0.0000001
 43
0.0000001
 44
0.0000000001
 40
0.0
 40
0.0
 40
0.0
 40
0.0
 40
0.4416696525
 40
0.7078444472
 40
1.0
 40
1.0
 40
1.0
 40
1.0
 10
10.9258501996
 20
9.0686548035
 30
0.0
 10
10.9241121878
 20
9.0724306308
 30
0.0
 10
10.9220070339
 20
9.0788014984
 30
0.0
 10
10.9200855634
 20
9.0880161075
 30
0.0
 10
10.9193828661
 20
9.0932297224
 30
0.0
 10
10.9191021625
 20
9.0959648816
 30
0.0
  0
SPLINE
  5
430
100
AcDbEntity
  8
0
100
AcDbSpline
 62
7
  6
CONTINUOUS
 70
0
 71
3
 72
11
 73
7
 74
0
 42
0.0000001
 43
0.0000001
 44
0.0000000001
 40
0.0
 40
0.0
 40
0.0
 40
0.0
 40
0.2929974761
 40
0.5585539388
 40
0.7941783041
 40
1.0
 40
1.0
 40
1.0
 40
1.0
 10
10.9191021625
 20
9.1233278529
 30
0.0
 10
10.9193999544
 20
9.1261335721
 30
0.0
 10
10.9201572293
 20
9.1314644137
 30
0.0
 10
10.9217897115
 20
9.1389433402
 30
0.0
 10
10.9237696641
 20
9.1454649269
 30
0.0
 10
10.9253666613
 20
9.1494134511
 30
0.0
 10
10.9262140569
 20
9.1512051684
 30
0.0
  0
SPLINE
  5
431
100
AcDbEntity
  8
0
100
AcDbSpline
 62
7
  6
CONTINUOUS
 70
0
 71
3
 72
11
 73
7
 74
0
 42
0.0000001
 43
0.0000001
 44
0.0000000001
 40
0.0
 40
0.0
 40
0.0
 40
0.0
 40
0.2472676656
 40
0.496297127
 40
0.7472602337
 40
1.0
 40
1.0
 40
1.0
 40
1.0
 10
10.9273607229
 20
9.0686549853
 30
0.0
 10
10.9297498812
 20
9.0703023803
 30
0.0
 10
10.9343496544
 20
9.073908787
 30
0.0
 10
10.9404065555
 20
9.0803019962
 30
0.0
 10
10.9453465113
 20
9.0876786762
 30
0.0
 10
10.9477091531
 20
9.0931424764
 30
0.0
 10
10.9486217885
 20
9.0959648816
 30
0.0
  0
SPLINE
  5
432
100
AcDbEntity
  8
0
100
AcDbSpline
 62
7
  6
CONTINUOUS
 70
0
 71
3
 72
11
 73
7
 74
0
 42
0.0000001
 43
0.0000001
 44
0.0000000001
 40
0.0
 40
0.0
 40
0.0
 40
0.0
 40
0.2472932704
 40
0.4963650487
 40
0.7472671986
 40
1.0
 40
1.0
 40
1.0
 40
1.0
 10
10.9262140569
 20
9.1512051684
 30
0.0
 10
10.928703397
 20
9.1495346358
 30
0.0
 10
10.9334882026
 20
9.1458507485
 30
0.0
 10
10.939832556
 20
9.1393367064
 30
0.0
 10
10.9450942824
 20
9.1318307574
 30
0.0
 10
10.9476500925
 20
9.1262335425
 30
0.0
 10
10.9486217885
 20
9.1233278529
 30
0.0
  0
SPLINE
  5
433
100
AcDbEntity
  8
0
100
AcDbSpline
 62
7
  6
CONTINUOUS
 70
0
 71
3
 72
11
 73
7
 74
0
 42
0.0000001
 43
0.0000001
 44
0.0000000001
 40
0.0
 40
0.0
 40
0.0
 40
0.0
 40
0.2029557978
 40
0.4380793191
 40
0.705290834
 40
1.0
 40
1.0
 40
1.0
 40
1.0
 10
10.9539033475
 20
9.0686541041
 30
0.0
 10
10.9532638306
 20
9.0704292311
 30
0.0
 10
10.9520550248
 20
9.0743237163
 30
0.0
 10
10.9505816779
 20
9.0807179707
 30
0.0
 10
10.9493889656
 20
9.0880357358
 30
0.0
 10
10.9488411496
 20
9.0932338656
 30
0.0
 10
10.9486217885
 20
9.0959648816
 30
0.0
  0
SPLINE
  5
434
100
AcDbEntity
  8
0
100
AcDbSpline
 62
7
  6
CONTINUOUS
 70
0
 71
3
 72
11
 73
7
 74
0
 42
0.0000001
 43
0.0000001
 44
0.0000000001
 40
0.0
 40
0.0
 40
0.0
 40
0.0
 40
0.2958043748
 40
0.5625196899
 40
0.7973054963
 40
1.0
 40
1.0
 40
1.0
 40
1.0
 10
10.9486217885
 20
9.1233278529
 30
0.0
 10
10.9488544503
 20
9.1261286804
 30
0.0
 10
10.9494448168
 20
9.1314440425
 30
0.0
 10
10.9507197929
 20
9.1389159666
 30
0.0
 10
10.9522656186
 20
9.1454303189
 30
0.0
 10
10.9535194164
 20
9.1493991026
 30
0.0
 10
10.9541879457
 20
9.1512051684
 30
0.0
  0
SPLINE
  5
435
100
AcDbEntity
  8
0
100
AcDbSpline
 62
7
  6
CONTINUOUS
 70
0
 71
3
 72
11
 73
7
 74
0
 42
0.0000001
 43
0.0000001
 44
0.0000000001
 40
0.0
 40
0.0
 40
0.0
 40
0.0
 40
0.2483569302
 40
0.4977892692
 40
0.74837563
 40
1.0
 40
1.0
 40
1.0
 40
1.0
 10
10.9553557771
 20
9.0686540658
 30
0.0
 10
10.9577883466
 20
9.0702995122
 30
0.0
 10
10.9624707033
 20
9.0738998967
 30
0.0
 10
10.9686453753
 20
9.0802906663
 30
0.0
 10
10.9736837024
 20
9.0876666494
 30
0.0
 10
10.9760973429
 20
9.0931389726
 30
0.0
 10
10.9770287725
 20
9.0959648816
 30
0.0
  0
SPLINE
  5
436
100
AcDbEntity
  8
0
100
AcDbSpline
 62
7
  6
CONTINUOUS
 70
0
 71
3
 72
11
 73
7
 74
0
 42
0.0000001
 43
0.0000001
 44
0.0000000001
 40
0.0
 40
0.0
 40
0.0
 40
0.0
 40
0.2483663125
 40
0.4978413647
 40
0.7483890595
 40
1.0
 40
1.0
 40
1.0
 40
1.0
 10
10.9541879457
 20
9.1512051684
 30
0.0
 10
10.9567223319
 20
9.1495366554
 30
0.0
 10
10.9615932347
 20
9.1458588818
 30
0.0
 10
10.9680605457
 20
9.1393473507
 30
0.0
 10
10.9734258816
 20
9.1318431166
 30
0.0
 10
10.9760369773
 20
9.12623741
 30
0.0
 10
10.9770287725
 20
9.1233278529
 30
0.0
  0
SPLINE
  5
437
100
AcDbEntity
  8
0
100
AcDbSpline
 62
7
  6
CONTINUOUS
 70
0
 71
3
 72
11
 73
7
 74
0
 42
0.0000001
 43
0.0000001
 44
0.0000000001
 40
0.0
 40
0.0
 40
0.0
 40
0.0
 40
0.200498528
 40
0.4349891989
 40
0.7031298266
 40
1.0
 40
1.0
 40
1.0
 40
1.0
 10
10.9808190347
 20
9.0686540656
 30
0.0
 10
10.9803571238
 20
9.0704406688
 30
0.0
 10
10.9794876002
 20
9.0743515535
 30
0.0
 10
10.978432483
 20
9.0807390629
 30
0.0
 10
10.9775778759
 20
9.0880500949
 30
0.0
 10
10.9771860087
 20
9.093237075
 30
0.0
 10
10.9770287725
 20
9.0959648816
 30
0.0
  0
SPLINE
  5
438
100
AcDbEntity
  8
0
100
AcDbSpline
 62
7
  6
CONTINUOUS
 70
0
 71
3
 72
11
 73
7
 74
0
 42
0.0000001
 43
0.0000001
 44
0.0000000001
 40
0.0
 40
0.0
 40
0.0
 40
0.0
 40
0.2980611038
 40
0.5657213459
 40
0.7998446803
 40
1.0
 40
1.0
 40
1.0
 40
1.0
 10
10.9770287725
 20
9.1233278529
 30
0.0
 10
10.9771955129
 20
9.1261248932
 30
0.0
 10
10.9776178865
 20
9.1314281152
 30
0.0
 10
10.9785312665
 20
9.1388940527
 30
0.0
 10
10.9796382894
 20
9.1454017509
 30
0.0
 10
10.9805401651
 20
9.149386621
 30
0.0
 10
10.9810232405
 20
9.1512051684
 30
0.0
  0
SPLINE
  5
439
100
AcDbEntity
  8
0
100
AcDbSpline
 62
7
  6
CONTINUOUS
 70
0
 71
3
 72
11
 73
7
 74
0
 42
0.0000001
 43
0.0000001
 44
0.0000000001
 40
0.0
 40
0.0
 40
0.0
 40
0.0
 40
0.2491695754
 40
0.4989034837
 40
0.749210303
 40
1.0
 40
1.0
 40
1.0
 40
1.0
 10
10.9822083239
 20
9.0686545685
 30
0.0
 10
10.9846734533
 20
9.0702985778
 30
0.0
 10
10.9894178264
 20
9.0738942412
 30
0.0
 10
10.9956809046
 20
9.0802828707
 30
0.0
 10
11.0007928997
 20
9.0876580186
 30
0.0
 10
11.0032450765
 20
9.0931364493
 30
0.0
 10
11.0041906681
 20
9.0959648816
 30
0.0
  0
SPLINE
  5
43A
100
AcDbEntity
  8
0
100
AcDbSpline
 62
7
  6
CONTINUOUS
 70
0
 71
3
 72
11
 73
7
 74
0
 42
0.0000001
 43
0.0000001
 44
0.0000000001
 40
0.0
 40
0.0
 40
0.0
 40
0.0
 40
0.2491657663
 40
0.4989430767
 40
0.7492277072
 40
1.0
 40
1.0
 40
1.0
 40
1.0
 10
10.9810232405
 20
9.1512051684
 30
0.0
 10
10.9835915859
 20
9.1495381353
 30
0.0
 10
10.9885273388
 20
9.1458648824
 30
0.0
 10
10.9950873041
 20
9.1393552833
 30
0.0
 10
11.0005307413
 20
9.1318524341
 30
0.0
 10
11.0031836742
 20
9.1262403516
 30
0.0
 10
11.0041906681
 20
9.1233278529
 30
0.0
  0
SPLINE
  5
43B
100
AcDbEntity
  8
0
100
AcDbSpline
 62
7
  6
CONTINUOUS
 70
0
 71
3
 72
11
 73
7
 74
0
 42
0.0000001
 43
0.0000001
 44
0.0000000001
 40
0.0
 40
0.0
 40
0.0
 40
0.0
 40
0.1987462284
 40
0.4328018574
 40
0.7016264191
 40
1.0
 40
1.0
 40
1.0
 40
1.0
 10
11.0064718437
 20
9.0686546046
 30
0.0
 10
11.006192547
 20
9.0704495285
 30
0.0
 10
11.0056681935
 20
9.0743714818
 30
0.0
 10
11.0050342643
 20
9.0807538417
 30
0.0
 10
11.0045207187
 20
9.0880600712
 30
0.0
 10
11.004285223
 20
9.0932394119
 30
0.0
 10
11.0041906681
 20
9.0959648816
 30
0.0
  0
SPLINE
  5
43C
100
AcDbEntity
  8
0
100
AcDbSpline
 62
7
  6
CONTINUOUS
 70
0
 71
3
 72
11
 73
7
 74
0
 42
0.0000001
 43
0.0000001
 44
0.0000000001
 40
0.0
 40
0.0
 40
0.0
 40
0.0
 40
0.2996451227
 40
0.5679752198
 40
0.8016398039
 40
1.0
 40
1.0
 40
1.0
 40
1.0
 10
11.0041906681
 20
9.1233278529
 30
0.0
 10
11.0042909318
 20
9.1261223141
 30
0.0
 10
11.0045446109
 20
9.1314171814
 30
0.0
 10
11.0050936678
 20
9.1388787322
 30
0.0
 10
11.0057589404
 20
9.1453813168
 30
0.0
 10
11.0063025843
 20
9.1493773044
 30
0.0
 10
11.006594823
 20
9.1512051684
 30
0.0
  0
SPLINE
  5
43D
100
AcDbEntity
  8
0
100
AcDbSpline
 62
7
  6
CONTINUOUS
 70
0
 71
3
 72
11
 73
7
 74
0
 42
0.0000001
 43
0.0000001
 44
0.0000000001
 40
0.0
 40
0.0
 40
0.0
 40
0.0
 40
0.2497088932
 40
0.499644042
 40
0.7497656396
 40
1.0
 40
1.0
 40
1.0
 40
1.0
 10
11.0077911663
 20
9.0686546395
 30
0.0
 10
11.0102781231
 20
9.0702977016
 30
0.0
 10
11.0150640049
 20
9.0738903113
 30
0.0
 10
11.0213862896
 20
9.0802775462
 30
0.0
 10
11.0265476983
 20
9.0876521356
 30
0.0
 10
11.0290257366
 20
9.0931347177
 30
0.0
 10
11.0299808341
 20
9.0959648816
 30
0.0
  0
SPLINE
  5
43E
100
AcDbEntity
  8
0
100
AcDbSpline
 62
7
  6
CONTINUOUS
 70
0
 71
3
 72
11
 73
7
 74
0
 42
0.0000001
 43
0.0000001
 44
0.0000000001
 40
0.0
 40
0.0
 40
0.0
 40
0.0
 40
0.2496960982
 40
0.4996747667
 40
0.7497853745
 40
1.0
 40
1.0
 40
1.0
 40
1.0
 10
11.006594823
 20
9.1512051684
 30
0.0
 10
11.0091858917
 20
9.1495391055
 30
0.0
 10
11.0141650117
 20
9.1458688352
 30
0.0
 10
11.0207869543
 20
9.1393605463
 30
0.0
 10
11.0262826457
 20
9.1318586669
 30
0.0
 10
11.0289636481
 20
9.1262423321
 30
0.0
 10
11.0299808341
 20
9.1233278529
 30
0.0
  0
SPLINE
  5
43F
100
AcDbEntity
  8
0
100
AcDbSpline
 62
7
  6
CONTINUOUS
 70
0
 71
3
 72
9
 73
5
 74
0
 42
0.0000001
 43
0.0000001
 44
0.0000000001
 40
0.0
 40
0.0
 40
0.0
 40
0.0
 40
0.4316780299
 40
1.0
 40
1.0
 40
1.0
 40
1.0
 10
11.030742437
 20
9.0686538492
 30
0.0
 10
11.0305384646
 20
9.0725801246
 30
0.0
 10
11.0302058509
 20
9.0816826553
 30
0.0
 10
11.0300407812
 20
9.0907891543
 30
0.0
 10
11.0299808341
 20
9.0959648816
 30
0.0
  0
SPLINE
  5
440
100
AcDbEntity
  8
0
100
AcDbSpline
 62
7
  6
CONTINUOUS
 70
0
 71
3
 72
9
 73
5
 74
0
 42
0.0000001
 43
0.0000001
 44
0.0000000001
 40
0.0
 40
0.0
 40
0.0
 40
0.0
 40
0.5691421896
 40
1.0
 40
1.0
 40
1.0
 40
1.0
 10
11.0299808341
 20
9.1233278529
 30
0.0
 10
11.0300442094
 20
9.1286186358
 30
0.0
 10
11.0302244632
 20
9.1379139741
 30
0.0
 10
11.0305699681
 20
9.1472052927
 30
0.0
 10
11.0307834664
 20
9.1512051684
 30
0.0
  0
SPLINE
  5
441
100
AcDbEntity
  8
0
100
AcDbSpline
 62
7
  6
CONTINUOUS
 70
0
 71
3
 72
11
 73
7
 74
0
 42
0.0000001
 43
0.0000001
 44
0.0000000001
 40
0.0
 40
0.0
 40
0.0
 40
0.0
 40
0.2499775818
 40
0.5000136964
 40
0.7500429282
 40
1.0
 40
1.0
 40
1.0
 40
1.0
 10
11.0319846189
 20
9.068653927
 30
0.0
 10
11.0344826099
 20
9.0702965376
 30
0.0
 10
11.0392894035
 20
9.0738877918
 30
0.0
 10
11.0456415649
 20
9.0802744852
 30
0.0
 10
11.0508280451
 20
9.0876489155
 30
0.0
 10
11.0533191278
 20
9.0931337583
 30
0.0
 10
11.0542790247
 20
9.0959648816
 30
0.0
  0
SPLINE
  5
442
100
AcDbEntity
  8
0
100
AcDbSpline
 62
7
  6
CONTINUOUS
 70
0
 71
3
 72
11
 73
7
 74
0
 42
0.0000001
 43
0.0000001
 44
0.0000000001
 40
0.0
 40
0.0
 40
0.0
 40
0.0
 40
0.2499604538
 40
0.5000397466
 40
0.750063755
 40
1.0
 40
1.0
 40
1.0
 40
1.0
 10
11.0307834664
 20
9.1512051684
 30
0.0
 10
11.0333859222
 20
9.1495395858
 30
0.0
 10
11.0383867662
 20
9.1458707974
 30
0.0
 10
11.0450397599
 20
9.1393631699
 30
0.0
 10
11.0505616341
 20
9.1318617893
 30
0.0
 10
11.0532567246
 20
9.126243328
 30
0.0
 10
11.0542790247
 20
9.1233278529
 30
0.0
  0
SPLINE
  5
443
100
AcDbEntity
  8
0
100
AcDbSpline
 62
7
  6
CONTINUOUS
 70
0
 71
3
 72
11
 73
7
 74
0
 42
0.0000001
 43
0.0000001
 44
0.0000000001
 40
0.0
 40
0.0
 40
0.0
 40
0.0
 40
0.2499777961
 40
0.500013587
 40
0.7500429565
 40
1.0
 40
1.0
 40
1.0
 40
1.0
 10
11.0546782299
 20
9.068654541
 30
0.0
 10
11.0571761377
 20
9.0702971434
 30
0.0
 10
11.061982834
 20
9.073888261
 30
0.0
 10
11.0683348221
 20
9.0802748182
 30
0.0
 10
11.0735210434
 20
9.0876491406
 30
0.0
 10
11.0760120784
 20
9.0931338311
 30
0.0
 10
11.0769719506
 20
9.0959648816
 30
0.0
  0
SPLINE
  5
444
100
AcDbEntity
  8
0
100
AcDbSpline
 62
7
  6
CONTINUOUS
 70
0
 71
3
 72
11
 73
7
 74
0
 42
0.0000001
 43
0.0000001
 44
0.0000000001
 40
0.0
 40
0.0
 40
0.0
 40
0.0
 40
0.2499604538
 40
0.5000397466
 40
0.750063755
 40
1.0
 40
1.0
 40
1.0
 40
1.0
 10
11.0534763923
 20
9.1512051684
 30
0.0
 10
11.0560788481
 20
9.1495395858
 30
0.0
 10
11.0610796921
 20
9.1458707974
 30
0.0
 10
11.0677326858
 20
9.1393631699
 30
0.0
 10
11.07325456
 20
9.1318617893
 30
0.0
 10
11.0759496505
 20
9.126243328
 30
0.0
 10
11.0769719506
 20
9.1233278529
 30
0.0
  0
SPLINE
  5
445
100
AcDbEntity
  8
0
100
AcDbSpline
 62
7
  6
CONTINUOUS
 70
0
 71
3
 72
11
 73
7
 74
0
 42
0.0000001
 43
0.0000001
 44
0.0000000001
 40
0.0
 40
0.0
 40
0.0
 40
0.0
 40
0.2497085978
 40
0.4996442089
 40
0.7497655918
 40
1.0
 40
1.0
 40
1.0
 40
1.0
 10
11.0757631896
 20
9.0686537845
 30
0.0
 10
11.0782502623
 20
9.0702968581
 30
0.0
 10
11.0830362807
 20
9.0738896561
 30
0.0
 10
11.089358812
 20
9.0802770753
 30
0.0
 10
11.0945205808
 20
9.0876518175
 30
0.0
 10
11.096998675
 20
9.0931346161
 30
0.0
 10
11.0979538069
 20
9.0959648816
 30
0.0
  0
SPLINE
  5
446
100
AcDbEntity
  8
0
100
AcDbSpline
 62
7
  6
CONTINUOUS
 70
0
 71
3
 72
11
 73
7
 74
0
 42
0.0000001
 43
0.0000001
 44
0.0000000001
 40
0.0
 40
0.0
 40
0.0
 40
0.0
 40
0.2496960982
 40
0.4996747667
 40
0.7497853745
 40
1.0
 40
1.0
 40
1.0
 40
1.0
 10
11.0745677958
 20
9.1512051684
 30
0.0
 10
11.0771588645
 20
9.1495391055
 30
0.0
 10
11.0821379845
 20
9.1458688352
 30
0.0
 10
11.0887599271
 20
9.1393605463
 30
0.0
 10
11.0942556185
 20
9.1318586669
 30
0.0
 10
11.0969366209
 20
9.1262423321
 30
0.0
 10
11.0979538069
 20
9.1233278529
 30
0.0
  0
SPLINE
  5
447
100
AcDbEntity
  8
0
100
AcDbSpline
 62
7
  6
CONTINUOUS
 70
0
 71
3
 72
11
 73
7
 74
0
 42
0.0000001
 43
0.0000001
 44
0.0000000001
 40
0.0
 40
0.0
 40
0.0
 40
0.0
 40
0.2491675412
 40
0.4989046411
 40
0.7492117552
 40
1.0
 40
1.0
 40
1.0
 40
1.0
 10
11.0951437534
 20
9.0686541
 30
0.0
 10
11.0976089367
 20
9.0702981047
 30
0.0
 10
11.1023533235
 20
9.0738940069
 30
0.0
 10
11.1086166042
 20
9.080282682
 30
0.0
 10
11.1137292105
 20
9.0876577201
 30
0.0
 10
11.1161811591
 20
9.0931364023
 30
0.0
 10
11.1171267664
 20
9.0959648816
 30
0.0
  0
SPLINE
  5
448
100
AcDbEntity
  8
0
100
AcDbSpline
 62
7
  6
CONTINUOUS
 70
0
 71
3
 72
11
 73
7
 74
0
 42
0.0000001
 43
0.0000001
 44
0.0000000001
 40
0.0
 40
0.0
 40
0.0
 40
0.0
 40
0.2491657443
 40
0.4989430821
 40
0.7492277336
 40
1.0
 40
1.0
 40
1.0
 40
1.0
 10
11.0939593388
 20
9.1512051684
 30
0.0
 10
11.096527684
 20
9.1495381355
 30
0.0
 10
11.1014634368
 20
9.1458648825
 30
0.0
 10
11.1080233998
 20
9.1393552811
 30
0.0
 10
11.1134668364
 20
9.1318524319
 30
0.0
 10
11.1161197727
 20
9.1262403513
 30
0.0
 10
11.1171267664
 20
9.1233278529
 30
0.0
  0
SPLINE
  5
449
100
AcDbEntity
  8
0
100
AcDbSpline
 62
7
  6
CONTINUOUS
 70
0
 71
3
 72
9
 73
5
 74
0
 42
0.0000001
 43
0.0000001
 44
0.0000000001
 40
0.0
 40
0.0
 40
0.0
 40
0.0
 40
0.2494405833
 40
1.0
 40
1.0
 40
1.0
 40
1.0
 10
11.1127280661
 20
9.0686537204
 30
0.0
 10
11.1136297795
 20
9.0692636506
 30
0.0
 10
11.1171883538
 20
9.0717899913
 30
0.0
 10
11.1205050398
 20
9.0746662541
 30
0.0
 10
11.1227807783
 20
9.0770222705
 30
0.0
  0
SPLINE
  5
44A
100
AcDbEntity
  8
0
100
AcDbSpline
 62
7
  6
CONTINUOUS
 70
0
 71
3
 72
9
 73
5
 74
0
 42
0.0000001
 43
0.0000001
 44
0.0000000001
 40
0.0
 40
0.0
 40
0.0
 40
0.0
 40
0.2496309718
 40
1.0
 40
1.0
 40
1.0
 40
1.0
 10
11.1227807783
 20
9.0770222705
 30
0.0
 10
11.1234471385
 20
9.0777121369
 30
0.0
 10
11.1260445273
 20
9.0805438861
 30
0.0
 10
11.1283394681
 20
9.0836565289
 30
0.0
 10
11.1298387319
 20
9.0861191379
 30
0.0
  0
SPLINE
  5
44B
100
AcDbEntity
  8
0
100
AcDbSpline
 62
7
  6
CONTINUOUS
 70
0
 71
3
 72
9
 73
5
 74
0
 42
0.0000001
 43
0.0000001
 44
0.0000000001
 40
0.0
 40
0.0
 40
0.0
 40
0.0
 40
0.2498945636
 40
1.0
 40
1.0
 40
1.0
 40
1.0
 10
11.1298387319
 20
9.0861191379
 30
0.0
 10
11.130309353
 20
9.0868921544
 30
0.0
 10
11.1321064334
 20
9.09003698
 30
0.0
 10
11.1335510531
 20
9.0933848633
 30
0.0
 10
11.1344014361
 20
9.0959648816
 30
0.0
  0
SPLINE
  5
44C
100
AcDbEntity
  8
0
100
AcDbSpline
 62
7
  6
CONTINUOUS
 70
0
 71
3
 72
11
 73
7
 74
0
 42
0.0000001
 43
0.0000001
 44
0.0000000001
 40
0.0
 40
0.0
 40
0.0
 40
0.0
 40
0.2483663125
 40
0.4978413647
 40
0.7483890595
 40
1.0
 40
1.0
 40
1.0
 40
1.0
 10
11.1115606093
 20
9.1512051684
 30
0.0
 10
11.1140949955
 20
9.1495366554
 30
0.0
 10
11.1189658983
 20
9.1458588818
 30
0.0
 10
11.1254332093
 20
9.1393473507
 30
0.0
 10
11.1307985452
 20
9.1318431166
 30
0.0
 10
11.1334096409
 20
9.12623741
 30
0.0
 10
11.1344014361
 20
9.1233278529
 30
0.0
  0
SPLINE
  5
44D
100
AcDbEntity
  8
0
100
AcDbSpline
 62
7
  6
CONTINUOUS
 70
0
 71
3
 72
9
 73
5
 74
0
 42
0.0000001
 43
0.0000001
 44
0.0000000001
 40
0.0
 40
0.0
 40
0.0
 40
0.0
 40
0.2445982968
 40
1.0
 40
1.0
 40
1.0
 40
1.0
 10
11.1797934862
 20
9.068653717
 30
0.0
 10
11.1804971572
 20
9.0692672669
 30
0.0
 10
11.1833124576
 20
9.0718449947
 30
0.0
 10
11.1858631018
 20
9.0747149251
 30
0.0
 10
11.1875920731
 20
9.0770222585
 30
0.0
  0
SPLINE
  5
44E
100
AcDbEntity
  8
0
100
AcDbSpline
 62
7
  6
CONTINUOUS
 70
0
 71
3
 72
9
 73
5
 74
0
 42
0.0000001
 43
0.0000001
 44
0.0000000001
 40
0.0
 40
0.0
 40
0.0
 40
0.0
 40
0.2490855413
 40
1.0
 40
1.0
 40
1.0
 40
1.0
 10
11.1284352201
 20
9.068654057
 30
0.0
 10
11.1293202223
 20
9.0692642659
 30
0.0
 10
11.1328163914
 20
9.0717943876
 30
0.0
 10
11.1360684515
 20
9.0746704979
 30
0.0
 10
11.1382975212
 20
9.0770228522
 30
0.0
  0
SPLINE
  5
44F
100
AcDbEntity
  8
0
100
AcDbSpline
 62
7
  6
CONTINUOUS
 70
0
 71
3
 72
9
 73
5
 74
0
 42
0.0000001
 43
0.0000001
 44
0.0000000001
 40
0.0
 40
0.0
 40
0.0
 40
0.0
 40
0.249244015
 40
1.0
 40
1.0
 40
1.0
 40
1.0
 10
11.1382975212
 20
9.0770228522
 30
0.0
 10
11.1389560742
 20
9.0777178283
 30
0.0
 10
11.1415251828
 20
9.0805741262
 30
0.0
 10
11.1437873825
 20
9.0837096604
 30
0.0
 10
11.1452621219
 20
9.0861879989
 30
0.0
  0
SPLINE
  5
450
100
AcDbEntity
  8
0
100
AcDbSpline
 62
7
  6
CONTINUOUS
 70
0
 71
3
 72
9
 73
5
 74
0
 42
0.0000001
 43
0.0000001
 44
0.0000000001
 40
0.0
 40
0.0
 40
0.0
 40
0.0
 40
0.2495821591
 40
1.0
 40
1.0
 40
1.0
 40
1.0
 10
11.1452621219
 20
9.0861879989
 30
0.0
 10
11.1457193816
 20
9.0869564359
 30
0.0
 10
11.1474670519
 20
9.0900846195
 30
0.0
 10
11.1488700842
 20
9.0934067264
 30
0.0
 10
11.1496972734
 20
9.0959648816
 30
0.0
  0
SPLINE
  5
451
100
AcDbEntity
  8
0
100
AcDbSpline
 62
7
  6
CONTINUOUS
 70
0
 71
3
 72
11
 73
7
 74
0
 42
0.0000001
 43
0.0000001
 44
0.0000000001
 40
0.0
 40
0.0
 40
0.0
 40
0.0
 40
0.2472932704
 40
0.4963650487
 40
0.7472671986
 40
1.0
 40
1.0
 40
1.0
 40
1.0
 10
11.1272895418
 20
9.1512051684
 30
0.0
 10
11.129778882
 20
9.1495346358
 30
0.0
 10
11.1345636875
 20
9.1458507485
 30
0.0
 10
11.1409080409
 20
9.1393367064
 30
0.0
 10
11.1461697673
 20
9.1318307574
 30
0.0
 10
11.1487255774
 20
9.1262335425
 30
0.0
 10
11.1496972734
 20
9.1233278529
 30
0.0
  0
SPLINE
  5
452
100
AcDbEntity
  8
0
100
AcDbSpline
 62
7
  6
CONTINUOUS
 70
0
 71
3
 72
9
 73
5
 74
0
 42
0.0000001
 43
0.0000001
 44
0.0000000001
 40
0.0
 40
0.0
 40
0.0
 40
0.0
 40
0.4962418291
 40
1.0
 40
1.0
 40
1.0
 40
1.0
 10
11.1421907694
 20
9.0686538408
 30
0.0
 10
11.1454555904
 20
9.0709602439
 30
0.0
 10
11.1516508237
 20
9.0761943908
 30
0.0
 10
11.1565762456
 20
9.0826789686
 30
0.0
 10
11.158614193
 20
9.0861879608
 30
0.0
  0
SPLINE
  5
453
100
AcDbEntity
  8
0
100
AcDbSpline
 62
7
  6
CONTINUOUS
 70
0
 71
3
 72
9
 73
5
 74
0
 42
0.0000001
 43
0.0000001
 44
0.0000000001
 40
0.0
 40
0.0
 40
0.0
 40
0.0
 40
0.2491902504
 40
1.0
 40
1.0
 40
1.0
 40
1.0
 10
11.158614193
 20
9.0861879608
 30
0.0
 10
11.1590607396
 20
9.0869568367
 30
0.0
 10
11.1607690759
 20
9.0900900265
 30
0.0
 10
11.1621366845
 20
9.0934101073
 30
0.0
 10
11.162942962
 20
9.0959648816
 30
0.0
  0
SPLINE
  5
454
100
AcDbEntity
  8
0
100
AcDbSpline
 62
7
  6
CONTINUOUS
 70
0
 71
3
 72
11
 73
7
 74
0
 42
0.0000001
 43
0.0000001
 44
0.0000000001
 40
0.0
 40
0.0
 40
0.0
 40
0.0
 40
0.2459411868
 40
0.4945087802
 40
0.745859748
 40
1.0
 40
1.0
 40
1.0
 40
1.0
 10
11.1410728008
 20
9.1512051684
 30
0.0
 10
11.1435062031
 20
9.1495320352
 30
0.0
 10
11.1481839701
 20
9.1458403701
 30
0.0
 10
11.1543755609
 20
9.1393233015
 30
0.0
 10
11.159508626
 20
9.1318154211
 30
0.0
 10
11.1619961263
 20
9.126228797
 30
0.0
 10
11.162942962
 20
9.1233278529
 30
0.0
  0
SPLINE
  5
455
100
AcDbEntity
  8
0
100
AcDbSpline
 62
7
  6
CONTINUOUS
 70
0
 71
3
 72
9
 73
5
 74
0
 42
0.0000001
 43
0.0000001
 44
0.0000000001
 40
0.0
 40
0.0
 40
0.0
 40
0.0
 40
0.2456321771
 40
1.0
 40
1.0
 40
1.0
 40
1.0
 10
10.2434036438
 20
9.068653711
 30
0.0
 10
10.2426546791
 20
9.0692714364
 30
0.0
 10
10.2396672378
 20
9.0718596055
 30
0.0
 10
10.2369454471
 20
9.0747587753
 30
0.0
 10
10.2350983548
 20
9.0770992996
 30
0.0
  0
SPLINE
  5
456
100
AcDbEntity
  8
0
100
AcDbSpline
 62
7
  6
CONTINUOUS
 70
0
 71
3
 72
9
 73
5
 74
0
 42
0.0000001
 43
0.0000001
 44
0.0000000001
 40
0.0
 40
0.0
 40
0.0
 40
0.0
 40
0.2545702787
 40
1.0
 40
1.0
 40
1.0
 40
1.0
 10
10.2296038831
 20
9.133337192
 30
0.0
 10
10.230047477
 20
9.1341883043
 30
0.0
 10
10.2318791378
 20
9.1374846274
 30
0.0
 10
10.2340544763
 20
9.1405882859
 30
0.0
 10
10.2358339224
 20
9.1427635854
 30
0.0
  0
SPLINE
  5
457
100
AcDbEntity
  8
0
100
AcDbSpline
 62
7
  6
CONTINUOUS
 70
0
 71
3
 72
9
 73
5
 74
0
 42
0.0000001
 43
0.0000001
 44
0.0000000001
 40
0.0
 40
0.0
 40
0.0
 40
0.0
 40
0.4946566367
 40
1.0
 40
1.0
 40
1.0
 40
1.0
 10
11.1539313393
 20
9.0686537818
 30
0.0
 10
11.157109355
 20
9.070966475
 30
0.0
 10
11.1631415349
 20
9.076222764
 30
0.0
 10
11.167902566
 20
9.0826902285
 30
0.0
 10
11.1698745755
 20
9.0861879742
 30
0.0
  0
SPLINE
  5
458
100
AcDbEntity
  8
0
100
AcDbSpline
 62
7
  6
CONTINUOUS
 70
0
 71
3
 72
11
 73
7
 74
0
 42
0.0000001
 43
0.0000001
 44
0.0000000001
 40
0.0
 40
0.0
 40
0.0
 40
0.0
 40
0.2443041263
 40
0.4922671856
 40
0.744164759
 40
1.0
 40
1.0
 40
1.0
 40
1.0
 10
11.1528461225
 20
9.1512051684
 30
0.0
 10
11.1552129327
 20
9.1495288006
 30
0.0
 10
11.1597630886
 20
9.1458276088
 30
0.0
 10
11.1657727351
 20
9.1393070864
 30
0.0
 10
11.1707526668
 20
9.1317972015
 30
0.0
 10
11.1731593592
 20
9.1262232344
 30
0.0
 10
11.1740767445
 20
9.1233278529
 30
0.0
  0
SPLINE
  5
459
100
AcDbEntity
  8
0
100
AcDbSpline
 62
7
  6
CONTINUOUS
 70
0
 71
3
 72
9
 73
5
 74
0
 42
0.0000001
 43
0.0000001
 44
0.0000000001
 40
0.0
 40
0.0
 40
0.0
 40
0.0
 40
0.4927770545
 40
1.0
 40
1.0
 40
1.0
 40
1.0
 10
11.1636021915
 20
9.0686538956
 30
0.0
 10
11.1666797483
 20
9.0709742194
 30
0.0
 10
11.1725225194
 20
9.0762565773
 30
0.0
 10
11.1770944022
 20
9.0827032858
 30
0.0
 10
11.1789907064
 20
9.0861879705
 30
0.0
  0
SPLINE
  5
45A
100
AcDbEntity
  8
0
100
AcDbSpline
 62
7
  6
CONTINUOUS
 70
0
 71
3
 72
9
 73
5
 74
0
 42
0.0000001
 43
0.0000001
 44
0.0000000001
 40
0.0
 40
0.0
 40
0.0
 40
0.0
 40
0.4905538952
 40
1.0
 40
1.0
 40
1.0
 40
1.0
 10
10.2488090995
 20
9.0686538251
 30
0.0
 10
10.2458313876
 20
9.0709941074
 30
0.0
 10
10.2401793846
 20
9.0763348513
 30
0.0
 10
10.2358087428
 20
9.0827947536
 30
0.0
 10
10.2339960128
 20
9.086285281
 30
0.0
  0
SPLINE
  5
45B
100
AcDbEntity
  8
0
100
AcDbSpline
 62
7
  6
CONTINUOUS
 70
0
 71
3
 72
11
 73
7
 74
0
 42
0.0000001
 43
0.0000001
 44
0.0000000001
 40
0.0
 40
0.0
 40
0.0
 40
0.0
 40
0.2423763938
 40
0.4896359051
 40
0.7421814949
 40
1.0
 40
1.0
 40
1.0
 40
1.0
 10
11.1625546142
 20
9.1512051684
 30
0.0
 10
11.1648444539
 20
9.1495248665
 30
0.0
 10
11.1692468482
 20
9.1458123051
 30
0.0
 10
11.1750461201
 20
9.1392880203
 30
0.0
 10
11.1798491534
 20
9.1317762292
 30
0.0
 10
11.1821631649
 20
9.1262169293
 30
0.0
 10
11.18304671
 20
9.1233278529
 30
0.0
  0
SPLINE
  5
45C
100
AcDbEntity
  8
0
100
AcDbSpline
 62
7
  6
CONTINUOUS
 70
0
 71
3
 72
9
 73
5
 74
0
 42
0.0000001
 43
0.0000001
 44
0.0000000001
 40
0.0
 40
0.0
 40
0.0
 40
0.0
 40
0.2520968838
 40
1.0
 40
1.0
 40
1.0
 40
1.0
 10
10.2309639775
 20
9.1258273311
 30
0.0
 10
10.231194514
 20
9.1264796955
 30
0.0
 10
10.2321635216
 20
9.1290479393
 30
0.0
 10
10.2333424697
 20
9.1315362853
 30
0.0
 10
10.2343274754
 20
9.133337192
 30
0.0
  0
SPLINE
  5
45D
100
AcDbEntity
  8
0
100
AcDbSpline
 62
7
  6
CONTINUOUS
 70
0
 71
3
 72
9
 73
5
 74
0
 42
0.0000001
 43
0.0000001
 44
0.0000000001
 40
0.0
 40
0.0
 40
0.0
 40
0.0
 40
0.5091799326
 40
1.0
 40
1.0
 40
1.0
 40
1.0
 10
10.2343274754
 20
9.133337192
 30
0.0
 10
10.2362637175
 20
9.1368772642
 30
0.0
 10
10.2408791851
 20
9.1434097337
 30
0.0
 10
10.2467246676
 20
9.1488420318
 30
0.0
 10
10.2498139679
 20
9.1512051684
 30
0.0
  0
SPLINE
  5
45E
100
AcDbEntity
  8
0
100
AcDbSpline
 62
7
  6
CONTINUOUS
 70
0
 71
3
 72
9
 73
5
 74
0
 42
0.0000001
 43
0.0000001
 44
0.0000000001
 40
0.0
 40
0.0
 40
0.0
 40
0.0
 40
0.4905925581
 40
1.0
 40
1.0
 40
1.0
 40
1.0
 10
11.1711578562
 20
9.0686537961
 30
0.0
 10
11.1741217764
 20
9.070983236
 30
0.0
 10
11.1797491795
 20
9.0762958847
 30
0.0
 10
11.1841086896
 20
9.082717989
 30
0.0
 10
11.1859201308
 20
9.086187964
 30
0.0
  0
SPLINE
  5
45F
100
AcDbEntity
  8
0
100
AcDbSpline
 62
7
  6
CONTINUOUS
 70
0
 71
3
 72
9
 73
5
 74
0
 42
0.0000001
 43
0.0000001
 44
0.0000000001
 40
0.0
 40
0.0
 40
0.0
 40
0.0
 40
0.4927448734
 40
1.0
 40
1.0
 40
1.0
 40
1.0
 10
10.256364915
 20
9.0686537989
 30
0.0
 10
10.2532716962
 20
9.0709859189
 30
0.0
 10
10.2474019302
 20
9.0762997084
 30
0.0
 10
10.2428157659
 20
9.0827872546
 30
0.0
 10
10.2409178428
 20
9.0862946071
 30
0.0
  0
SPLINE
  5
460
100
AcDbEntity
  8
0
100
AcDbSpline
 62
7
  6
CONTINUOUS
 70
0
 71
3
 72
9
 73
5
 74
0
 42
0.0000001
 43
0.0000001
 44
0.0000000001
 40
0.0
 40
0.0
 40
0.0
 40
0.0
 40
0.4907154197
 40
1.0
 40
1.0
 40
1.0
 40
1.0
 10
11.1701530103
 20
9.1512051684
 30
0.0
 10
11.1732795992
 20
9.1488135082
 30
0.0
 10
11.1791917337
 20
9.1433068968
 30
0.0
 10
11.1838394492
 20
9.1366743184
 30
0.0
 10
11.1857799549
 20
9.1330791883
 30
0.0
  0
SPLINE
  5
461
100
AcDbEntity
  8
0
100
AcDbSpline
 62
7
  6
CONTINUOUS
 70
0
 71
3
 72
9
 73
5
 74
0
 42
0.0000001
 43
0.0000001
 44
0.0000000001
 40
0.0
 40
0.0
 40
0.0
 40
0.0
 40
0.2479869552
 40
1.0
 40
1.0
 40
1.0
 40
1.0
 10
11.1857799549
 20
9.1330791883
 30
0.0
 10
11.1860924509
 20
9.1325002342
 30
0.0
 10
11.1873088166
 20
9.1301423406
 30
0.0
 10
11.1883452976
 20
9.1276910058
 30
0.0
 10
11.1890092808
 20
9.1258096544
 30
0.0
  0
SPLINE
  5
462
100
AcDbEntity
  8
0
100
AcDbSpline
 62
7
  6
CONTINUOUS
 70
0
 71
3
 72
11
 73
7
 74
0
 42
0.0000001
 43
0.0000001
 44
0.0000000001
 40
0.0
 40
0.0
 40
0.0
 40
0.0
 40
0.2578382099
 40
0.510404764
 40
0.7576384901
 40
1.0
 40
1.0
 40
1.0
 40
1.0
 10
10.2369202683
 20
9.1233278529
 30
0.0
 10
10.2378038791
 20
9.1262171444
 30
0.0
 10
10.2401184925
 20
9.1317766942
 30
0.0
 10
10.2449213949
 20
9.1392887403
 30
0.0
 10
10.2507207467
 20
9.1458126297
 30
0.0
 10
10.2551226696
 20
9.1495249731
 30
0.0
 10
10.2574123641
 20
9.1512051684
 30
0.0
  0
LINE
  5
463
100
AcDbEntity
  8
0
100
AcDbLine
 62
7
  6
CONTINUOUS
 10
11.030742437
 20
9.0686538492
 11
11.0307834664
 21
9.0678523196
  0
SPLINE
  5
464
100
AcDbEntity
  8
0
100
AcDbSpline
 62
7
  6
CONTINUOUS
 70
0
 71
3
 72
9
 73
5
 74
0
 42
0.0000001
 43
0.0000001
 44
0.0000000001
 40
0.0
 40
0.0
 40
0.0
 40
0.0
 40
0.4946372231
 40
1.0
 40
1.0
 40
1.0
 40
1.0
 10
10.266035697
 20
9.0686537246
 30
0.0
 10
10.2628429946
 20
9.0709770994
 30
0.0
 10
10.2567846152
 20
9.0762609157
 30
0.0
 10
10.2520109866
 20
9.0827666919
 30
0.0
 10
10.2500375107
 20
9.0862852572
 30
0.0
  0
SPLINE
  5
465
100
AcDbEntity
  8
0
100
AcDbSpline
 62
7
  6
CONTINUOUS
 70
0
 71
3
 72
11
 73
7
 74
0
 42
0.0000001
 43
0.0000001
 44
0.0000000001
 40
0.0
 40
0.0
 40
0.0
 40
0.0
 40
0.2558550811
 40
0.5077735304
 40
0.755710874
 40
1.0
 40
1.0
 40
1.0
 40
1.0
 10
10.2458902338
 20
9.1233278529
 30
0.0
 10
10.2468076884
 20
9.1262234531
 30
0.0
 10
10.249214991
 20
9.1317976678
 30
0.0
 10
10.2541947979
 20
9.1393078125
 30
0.0
 10
10.2602045253
 20
9.1458279242
 30
0.0
 10
10.2647541957
 20
9.1495289069
 30
0.0
 10
10.2671208557
 20
9.1512051684
 30
0.0
  0
SPLINE
  5
466
100
AcDbEntity
  8
0
100
AcDbSpline
 62
7
  6
CONTINUOUS
 70
0
 71
3
 72
9
 73
5
 74
0
 42
0.0000001
 43
0.0000001
 44
0.0000000001
 40
0.0
 40
0.0
 40
0.0
 40
0.0
 40
0.2456709268
 40
1.0
 40
1.0
 40
1.0
 40
1.0
 10
11.1765633351
 20
9.0686537119
 30
0.0
 10
11.1773062333
 20
9.0692664338
 30
0.0
 10
11.1802695432
 20
9.0718326115
 30
0.0
 10
11.1829717574
 20
9.0747045544
 30
0.0
 10
11.1848077883
 20
9.0770222494
 30
0.0
  0
SPLINE
  5
467
100
AcDbEntity
  8
0
100
AcDbSpline
 62
7
  6
CONTINUOUS
 70
0
 71
3
 72
9
 73
5
 74
0
 42
0.0000001
 43
0.0000001
 44
0.0000000001
 40
0.0
 40
0.0
 40
0.0
 40
0.0
 40
0.4962301878
 40
1.0
 40
1.0
 40
1.0
 40
1.0
 10
10.2777761263
 20
9.0686539301
 30
0.0
 10
10.2744962881
 20
9.0709709509
 30
0.0
 10
10.268274206
 20
9.0762322969
 30
0.0
 10
10.2633356683
 20
9.0827553967
 30
0.0
 10
10.2612962036
 20
9.0862853059
 30
0.0
  0
SPLINE
  5
468
100
AcDbEntity
  8
0
100
AcDbSpline
 62
7
  6
CONTINUOUS
 70
0
 71
3
 72
9
 73
5
 74
0
 42
0.0000001
 43
0.0000001
 44
0.0000000001
 40
0.0
 40
0.0
 40
0.0
 40
0.0
 40
0.2491986649
 40
1.0
 40
1.0
 40
1.0
 40
1.0
 10
10.2612962036
 20
9.0862853059
 30
0.0
 10
10.2608560426
 20
9.0870471375
 30
0.0
 10
10.2591718229
 20
9.0901508292
 30
0.0
 10
10.2578218281
 20
9.0934369318
 30
0.0
 10
10.2570240162
 20
9.0959648816
 30
0.0
  0
SPLINE
  5
469
100
AcDbEntity
  8
0
100
AcDbSpline
 62
7
  6
CONTINUOUS
 70
0
 71
3
 72
9
 73
5
 74
0
 42
0.0000001
 43
0.0000001
 44
0.0000000001
 40
0.0
 40
0.0
 40
0.0
 40
0.0
 40
0.2459070784
 40
1.0
 40
1.0
 40
1.0
 40
1.0
 10
11.1842963557
 20
9.142563167
 30
0.0
 10
11.1848817164
 20
9.1418408798
 30
0.0
 10
11.1871897116
 20
9.1388458722
 30
0.0
 10
11.189192921
 20
9.1356144926
 30
0.0
 10
11.1904969332
 20
9.1330791883
 30
0.0
  0
SPLINE
  5
46A
100
AcDbEntity
  8
0
100
AcDbSpline
 62
7
  6
CONTINUOUS
 70
0
 71
3
 72
9
 73
5
 74
0
 42
0.0000001
 43
0.0000001
 44
0.0000000001
 40
0.0
 40
0.0
 40
0.0
 40
0.0
 40
0.2472561418
 40
1.0
 40
1.0
 40
1.0
 40
1.0
 10
11.1904969332
 20
9.1330791883
 30
0.0
 10
11.1908292655
 20
9.1324330565
 30
0.0
 10
11.1921201493
 20
9.1297929272
 30
0.0
 10
11.1931923247
 20
9.1270450567
 30
0.0
 10
11.1938592189
 20
9.1249359627
 30
0.0
  0
SPLINE
  5
46B
100
AcDbEntity
  8
0
100
AcDbSpline
 62
7
  6
CONTINUOUS
 70
0
 71
3
 72
11
 73
7
 74
0
 42
0.0000001
 43
0.0000001
 44
0.0000000001
 40
0.0
 40
0.0
 40
0.0
 40
0.0
 40
0.2541601579
 40
0.5055319866
 40
0.7540739508
 40
1.0
 40
1.0
 40
1.0
 40
1.0
 10
10.2570240162
 20
9.1233278529
 30
0.0
 10
10.2579709242
 20
9.1262290183
 30
0.0
 10
10.2604590507
 20
9.1318158839
 30
0.0
 10
10.2655919911
 20
9.1393240305
 30
0.0
 10
10.2717836584
 20
9.1458406808
 30
0.0
 10
10.2764609299
 20
9.1495321416
 30
0.0
 10
10.2788941774
 20
9.1512051684
 30
0.0
  0
ENDSEC
  0
SECTION
  2
OBJECTS
  0
DICTIONARY
  5
C
100
AcDbDictionary
280
0
281
1
  3
ACAD_GROUP
350
D
  3
ACAD_MLINESTYLE
350
17
  3
ACAD_LAYOUT
350
1A
  3
ACAD_PLOTSETTINGS
350
19
  3
ACAD_PLOTSTYLENAME
350
E
  0
DICTIONARY
  5
D
102
{ACAD_REACTORS
330
C
102
}
100
AcDbDictionary
280
0
281
1
  0
ACDBDICTIONARYWDFLT
  5
E
102
{ACAD_REACTORS
330
C
102
}
100
AcDbDictionary
281
1
  3
Normal
350
F
100
AcDbDictionaryWithDefault
340
F
  0
DICTIONARY
  5
17
102
{ACAD_REACTORS
330
C
102
}
100
AcDbDictionary
280
0
281
1
  3
Standard
350
18
  0
DICTIONARY
  5
19
102
{ACAD_REACTORS
330
C
102
}
100
AcDbDictionary
281
1
  0
DICTIONARY
  5
1A
102
{ACAD_REACTORS
330
C
102
}
100
AcDbDictionary
281
1
  3
Model
350
46C
  3
Layout1
350
46D
  0
ACDBPLACEHOLDER
  5
F
102
{ACAD_REACTORS
330
E
102
}
  0
MLINESTYLE
  5
18
102
{ACAD_REACTORS
330
17
102
}
100
AcDbMlineStyle
  2
STANDARD
 70
0
  3

 62
256
 51
90.0
 52
90.0
 71
2
 49
0.5
 62
256
  6
BYLAYER
 49
-0.5
 62
256
  6
BYLAYER
  0
LAYOUT
  5
46C
102
{ACAD_REACTORS
330
1A
102
}
100
AcDbPlotSettings
  1

  2
none_device
  4
ANSI_C_(22.00_x_17.00_Inches)
  6

 40
0.0
 41
0.0
 42
0.0
 43
0.0
 44
558.8
 45
431.8
 46
0.0
 47
0.0
 48
0.0
 49
0.0
140
0.0
141
0.0
142
1.0
143
1.0
 70
1024
 72
0
 73
0
 74
0
  7

 75
0
147
1.0
148
0.0
149
0.0
100
AcDbLayout
  1
Model
 70
0
 71
0
 10
0.0
 20
0.0
 11
22.0
 21
17.0
 12
0.0
 22
0.0
 32
0.0
 14
0.0
 24
0.0
 34
0.0
 15
0.0
 25
0.0
 35
0.0
146
0.0
 13
0.0
 23
0.0
 33
0.0
 16
1.0
 26
0.0
 36
0.0
 17
0.0
 27
1.0
 37
0.0
 76
0
330
202
345
0
346
0
  0
LAYOUT
  5
46D
102
{ACAD_REACTORS
330
1A
102
}
100
AcDbPlotSettings
  1

  2
none_device
  4
ANSI_C_(22.00_x_17.00_Inches)
  6

 40
0.0
 41
0.0
 42
0.0
 43
0.0
 44
558.8
 45
431.8
 46
0.0
 47
0.0
 48
0.0
 49
0.0
140
0.0
141
0.0
142
1.0
143
1.0
 70
0
 72
0
 73
0
 74
0
  7

 75
0
147
1.0
148
0.0
149
0.0
100
AcDbLayout
  1
Layout1
 70
0
 71
1
 10
0.0
 20
0.0
 11
22.0
 21
17.0
 12
0.0
 22
0.0
 32
0.0
 14
0.0
 24
0.0
 34
0.0
 15
0.0
 25
0.0
 35
0.0
146
0.0
 13
0.0
 23
0.0
 33
0.0
 16
1.0
 26
0.0
 36
0.0
 17
0.0
 27
1.0
 37
0.0
 76
0
330
203
345
0
346
0
  0
ENDSEC
  0
EOF
