999
DXF file: E:\BT Custom\CADOUTPUT\_TOP.dxf
999
Pro/ENGINEER 2018400 by Parametric Technology Corporation
  0
SECTION
  2
HEADER
  9
$ACADVER
  1
AC1018
  9
$DWGCODEPAGE
  3
ANSI_1252
  9
$EXTMAX
 10
22.0
 20
17.0
 30
0.0
  9
$EXTMIN
 10
0.0
 20
0.0
 30
0.0
  9
$LIMMIN
 10
0.0
 20
0.0
  9
$LIMMAX
 10
22.0
 20
17.0
  9
$VIEWCTR
 10
11.0
 20
8.5
  9
$VIEWSIZE
 40
17.0
  9
$CLAYER
  8
0
  9
$LTSCALE
 40
1.21
  9
$CELTYPE
  6
BYLAYER
  9
$DIMSCALE
 40
1.0
  9
$DIMASZ
 40
0.1
  9
$DIMEXO
 40
0.0625
  9
$DIMDLI
 40
0.836
  9
$DIMEXE
 40
0.125
  9
$DIMCEN
 40
0.198
  9
$DIMLFAC
 40
1.0
  9
$DIMBLK
  1
_FILLED
  9
$DIMALT
 70
1
  9
$DIMALTD
 70
2
  9
$DIMALTTD
 70
2
  9
$DIMALTF
 40
25.4
  9
$DIMTXT
 40
0.08
  9
$DIMTOL
 70
1
  9
$DIMLIM
 70
0
  9
$DIMTFAC
 40
1.0
  9
$DIMTP
 40
0.001
  9
$DIMTM
 40
0.001
  9
$DIMGAP
 40
0.09
  9
$DIMDSEP
 70
46
  9
$AUNITS
 70
0
  9
$PDMODE
 70
3
  9
$PDSIZE
 40
0.06
  9
$HANDSEED
  5
237
  9
$TILEMODE
 70
1
  9
$MEASUREMENT
 70
0
  9
$INSUNITS
 70
1
  0
ENDSEC
  0
SECTION
  2
CLASSES
  0
CLASS
  1
ACDBDICTIONARYWDFLT
  2
AcDbDictionaryWithDefault
  3
AutoCAD 2000
 90
0
 91
1
280
0
281
0
  0
CLASS
  1
ACDBPLACEHOLDER
  2
AcDbPlaceHolder
  3
AutoCAD 2000
 90
0
 91
1
280
0
281
0
  0
CLASS
  1
LAYOUT
  2
AcDbLayout
  3
AutoCAD 2000
 90
0
 91
0
280
0
281
0
  0
ENDSEC
  0
SECTION
  2
TABLES
  0
TABLE
  2
VPORT
  5
8
100
AcDbSymbolTable
 70
2
  0
VPORT
  5
1F4
100
AcDbSymbolTableRecord
100
AcDbViewportTableRecord
  2
*ACTIVE
 70
0
 10
0.0
 20
0.0
 11
1.0
 21
1.0
 12
11.0
 22
8.5
 13
0.0
 23
0.0
 14
1.0
 24
1.0
 15
0.0
 25
0.0
 16
0.0
 26
0.0
 36
1.0
 17
0.0
 27
0.0
 37
0.0
 40
17.0
 41
1.2941176471
 42
50.0
 43
0.0
 44
0.0
 50
0.0
 51
0.0
 71
0
 72
100
 73
1
 74
1
 75
0
 76
0
 77
0
 78
0
  0
ENDTAB
  0
TABLE
  2
LTYPE
  5
5
100
AcDbSymbolTable
 70
6
  0
LTYPE
  5
14
100
AcDbSymbolTableRecord
100
AcDbLinetypeTableRecord
  2
BYBLOCK
 70
0
  3

 72
65
 73
0
 40
0.0
  0
LTYPE
  5
15
100
AcDbSymbolTableRecord
100
AcDbLinetypeTableRecord
  2
BYLAYER
 70
0
  3

 72
65
 73
0
 40
0.0
  0
LTYPE
  5
16
100
AcDbSymbolTableRecord
100
AcDbLinetypeTableRecord
  2
CONTINUOUS
 70
64
  3
Solid line
 72
65
 73
0
 40
0.0
  0
LTYPE
  5
1F5
100
AcDbSymbolTableRecord
100
AcDbLinetypeTableRecord
  2
CENTER
 70
64
  3
____ _ ____ _ ____ _ ____ _ ____ _ ____ _ ____
 72
65
 73
4
 40
0.6
 49
0.375
 74
0
 49
-0.075
 74
0
 49
0.075
 74
0
 49
-0.075
 74
0
  0
LTYPE
  5
1F6
100
AcDbSymbolTableRecord
100
AcDbLinetypeTableRecord
  2
HIDDEN
 70
64
  3
- - - - - - - - - - - - - - - - - - - -
 72
65
 73
2
 40
0.2
 49
0.1
 74
0
 49
-0.1
 74
0
  0
LTYPE
  5
1F7
100
AcDbSymbolTableRecord
100
AcDbLinetypeTableRecord
  2
PHANTOM
 70
64
  3
_____ _ _ _____ _ _ _____ _ _ _____
 72
65
 73
6
 40
0.8
 49
0.45
 74
0
 49
-0.05
 74
0
 49
0.1
 74
0
 49
-0.05
 74
0
 49
0.1
 74
0
 49
-0.05
 74
0
  0
LTYPE
  5
1F8
100
AcDbSymbolTableRecord
100
AcDbLinetypeTableRecord
  2
DOT
 70
64
  3
. . . . . . . . . . . . . . . . . . . .
 72
65
 73
2
 40
0.2
 49
0.1
 74
0
 49
-0.1
 74
0
  0
LTYPE
  5
1F9
100
AcDbSymbolTableRecord
100
AcDbLinetypeTableRecord
  2
DASHED
 70
64
  3
- - - - - - - - - - - - - - - - - - - -
 72
65
 73
2
 40
0.2
 49
0.1
 74
0
 49
-0.1
 74
0
  0
ENDTAB
  0
TABLE
  2
LAYER
  5
2
100
AcDbSymbolTable
 70
36
  0
LAYER
  5
10
100
AcDbSymbolTableRecord
100
AcDbLayerTableRecord
  2
0
 70
0
 62
7
  6
CONTINUOUS
370
-3
390
F
  0
LAYER
  5
1FA
100
AcDbSymbolTableRecord
100
AcDbLayerTableRecord
  2
DEFAULT_1
 70
0
 62
7
  6
CENTER
370
-3
390
F
  0
LAYER
  5
1FB
100
AcDbSymbolTableRecord
100
AcDbLayerTableRecord
  2
DEFAULT_2
 70
0
 62
8
  6
HIDDEN
370
-3
390
F
  0
LAYER
  5
1FC
100
AcDbSymbolTableRecord
100
AcDbLayerTableRecord
  2
DEFAULT_3
 70
0
 62
7
  6
PHANTOM
370
-3
390
F
  0
LAYER
  5
1FD
100
AcDbSymbolTableRecord
100
AcDbLayerTableRecord
  2
ALL_FEATURES
 70
0
 62
7
  6
CONTINUOUS
370
-3
390
F
  0
LAYER
  5
1FE
100
AcDbSymbolTableRecord
100
AcDbLayerTableRecord
  2
AXES_FEATURES
 70
0
 62
7
  6
CONTINUOUS
370
-3
390
F
  0
LAYER
  5
1FF
100
AcDbSymbolTableRecord
100
AcDbLayerTableRecord
  2
DIMENSIONS
 70
0
 62
7
  6
CONTINUOUS
370
-3
390
F
  0
ENDTAB
  0
TABLE
  2
STYLE
  5
3
100
AcDbSymbolTable
 70
1
  0
STYLE
  5
11
100
AcDbSymbolTableRecord
100
AcDbTextStyleTableRecord
  2
STANDARD
 70
0
 40
0.0
 41
0.8
 50
0.0
 71
0
 42
0.2
  3
txt
  4

  0
STYLE
  5
200
100
AcDbSymbolTableRecord
100
AcDbTextStyleTableRecord
  2
TEXTSTYLE_1
 70
0
 40
0.0
 41
0.8
 50
0.0
 71
0
 42
0.2
  3
gdt
  4

  0
ENDTAB
  0
TABLE
  2
VIEW
  5
6
100
AcDbSymbolTable
 70
0
  0
ENDTAB
  0
TABLE
  2
UCS
  5
7
100
AcDbSymbolTable
 70
0
  0
ENDTAB
  0
TABLE
  2
APPID
  5
9
100
AcDbSymbolTable
 70
1
  0
APPID
  5
201
100
AcDbSymbolTableRecord
100
AcDbRegAppTableRecord
  2
ACAD
 70
0
  0
ENDTAB
  0
TABLE
  2
BLOCK_RECORD
  5
1
100
AcDbSymbolTable
 70
0
  0
BLOCK_RECORD
  5
202
100
AcDbSymbolTableRecord
100
AcDbBlockTableRecord
  2
*Model_Space
  0
BLOCK_RECORD
  5
203
100
AcDbSymbolTableRecord
100
AcDbBlockTableRecord
  2
*Paper_Space
  0
BLOCK_RECORD
  5
204
100
AcDbSymbolTableRecord
100
AcDbBlockTableRecord
  2
_FILLED
  0
ENDTAB
  0
TABLE
  2
DIMSTYLE
  5
A
100
AcDbSymbolTable
 70
1
100
AcDbDimStyleTable
 71
0
  0
DIMSTYLE
105
205
100
AcDbSymbolTableRecord
100
AcDbDimStyleTableRecord
  2
STANDARD
 70
0
  3

  4

 40
1.0
 41
0.1
 42
0.0625
 43
0.38
 44
0.125
 45
0.0
 46
0.0
 47
0.001
 48
0.001
140
0.08
141
0.09
142
0.0
143
25.4
144
1.0
145
0.0
146
1.0
147
0.09
 71
1.0
 72
0.0
 73
1
 74
1
 75
0
 76
0
 77
0
 78
4
 79
1
170
1
171
2
172
0
173
0
174
0
175
0
176
0
177
0
178
0
270
2
179
3
271
3
272
3
273
2
274
2
275
0
280
0
281
0
282
0
283
1
284
4
285
0
286
0
287
3
288
0
340
11
278
46
341
204
342
204
343
204
344
204
  0
ENDTAB
  0
ENDSEC
  0
SECTION
  2
BLOCKS
  0
BLOCK
  5
20
100
AcDbEntity
  8
0
100
AcDbBlockBegin
  2
*Model_Space
 70
0
 10
0.0
 20
0.0
 30
0.0
  3
*Model_Space
  1

  0
ENDBLK
  5
21
100
AcDbEntity
  8
0
100
AcDbBlockEnd
  0
BLOCK
  5
1C
100
AcDbEntity
  8
0
100
AcDbBlockBegin
  2
*Paper_Space
 70
0
 10
0.0
 20
0.0
 30
0.0
  3
*Paper_Space
  1

  0
ENDBLK
  5
1D
100
AcDbEntity
  8
0
100
AcDbBlockEnd
  0
BLOCK
  5
206
100
AcDbEntity
  8
0
100
AcDbBlockBegin
  2
_FILLED
 70
64
 10
0.0
 20
0.0
  3
_FILLED
  1

  0
SOLID
  5
207
100
AcDbEntity
  8
0
  6
BYBLOCK
 62
0
100
AcDbTrace
 10
0.0
 20
0.0
 11
-1.0
 21
0.2
 12
-1.0
 22
-0.2
 13
-1.0
 23
-0.2
  0
ENDBLK
  5
208
100
AcDbEntity
  8
0
  6
BYBLOCK
 62
0
100
AcDbBlockEnd
  0
ENDSEC
  0
SECTION
  2
ENTITIES
  0
LINE
  5
209
100
AcDbEntity
  8
0
100
AcDbLine
 62
7
  6
CONTINUOUS
 10
9.3953654892
 20
7.4823318604
 11
9.6912575022
 21
7.9948318604
  0
LINE
  5
20A
100
AcDbEntity
  8
0
100
AcDbLine
 62
7
  6
CONTINUOUS
 10
9.6912575022
 20
6.9698318604
 11
9.3953654892
 21
7.4823318604
  0
LINE
  5
20B
100
AcDbEntity
  8
0
100
AcDbLine
 62
7
  6
CONTINUOUS
 10
10.2830415281
 20
6.9698318604
 11
9.6912575022
 21
6.9698318604
  0
LINE
  5
20C
100
AcDbEntity
  8
0
100
AcDbLine
 62
7
  6
CONTINUOUS
 10
10.4542581772
 20
7.2663877957
 11
10.2830415281
 21
6.9698318604
  0
LINE
  5
20D
100
AcDbEntity
  8
0
100
AcDbLine
 62
7
  6
CONTINUOUS
 10
10.2830415281
 20
7.9948318604
 11
10.454258736
 21
7.6982749572
  0
LINE
  5
20E
100
AcDbEntity
  8
0
100
AcDbLine
 62
9
  6
CONTINUOUS
 10
10.7566681097
 20
7.1899298211
 11
10.7566681097
 21
7.7747338997
  0
LINE
  5
20F
100
AcDbEntity
  8
0
100
AcDbLine
 62
9
  6
CONTINUOUS
 10
10.8176899759
 20
7.1601830918
 11
10.8176899759
 21
7.804480629
  0
LINE
  5
210
100
AcDbEntity
  8
0
100
AcDbLine
 62
7
  6
CONTINUOUS
 10
10.8680749551
 20
7.1823327754
 11
10.8680749551
 21
7.7823309454
  0
LINE
  5
211
100
AcDbEntity
  8
0
100
AcDbLine
 62
7
  6
CONTINUOUS
 10
10.8680749551
 20
7.2123318604
 11
13.1195345483
 21
7.1323318604
  0
LINE
  5
212
100
AcDbEntity
  8
0
100
AcDbLine
 62
9
  6
CONTINUOUS
 10
9.5191806787
 20
7.4823318604
 11
9.4912002993
 21
7.4823318604
  0
LINE
  5
213
100
AcDbEntity
  8
0
100
AcDbLine
 62
9
  6
CONTINUOUS
 10
10.4551183516
 20
7.4823318604
 11
10.7566681024
 21
7.4823318604
  0
LINE
  5
214
100
AcDbEntity
  8
0
100
AcDbLine
 62
9
  6
CONTINUOUS
 10
10.8176900314
 20
7.4823318604
 11
10.8680749551
 21
7.4823318604
  0
LINE
  5
215
100
AcDbEntity
  8
0
100
AcDbLine
 62
7
  6
CONTINUOUS
 10
10.8680749551
 20
7.7523318604
 11
13.1195345483
 21
7.8323318604
  0
LINE
  5
216
100
AcDbEntity
  8
0
100
AcDbLine
 62
7
  6
CONTINUOUS
 10
9.6912575022
 20
7.9948318604
 11
10.2830415281
 21
7.9948318604
  0
LINE
  5
217
100
AcDbEntity
  8
0
100
AcDbLine
 62
7
  6
CONTINUOUS
 10
13.1195345483
 20
7.8623172189
 11
13.1195345483
 21
7.1023465019
  0
LINE
  5
218
100
AcDbEntity
  8
0
100
AcDbLine
 62
9
  6
CONTINUOUS
 10
13.1984978719
 20
7.0932842414
 11
13.1984978719
 21
7.8713794795
  0
ARC
  5
219
100
AcDbEntity
  8
0
100
AcDbCircle
 62
7
  6
CONTINUOUS
 10
11.5230749551
 20
7.4823318604
 40
1.72
100
AcDbArc
 50
346.9271076843
 51
13.0728923157
  0
ARC
  5
21A
100
AcDbEntity
  8
0
100
AcDbCircle
 62
7
  6
CONTINUOUS
 10
9.9871495151
 20
7.4823318604
 40
1.1355877937
100
AcDbArc
 50
14.1537354567
 51
345.8461558129
  0
ARC
  5
21B
100
AcDbEntity
  8
0
100
AcDbCircle
 62
9
  6
CONTINUOUS
 10
9.9871495151
 20
7.4823318604
 40
1.1018951051
100
AcDbArc
 50
14.5436089534
 51
345.4563753575
  0
ARC
  5
21C
100
AcDbEntity
  8
0
100
AcDbCircle
 62
9
  6
CONTINUOUS
 10
9.9871495151
 20
7.4823318604
 40
1.0686940646
100
AcDbArc
 50
14.9664567689
 51
345.0335432311
  0
ARC
  5
21D
100
AcDbEntity
  8
0
100
AcDbCircle
 62
9
  6
CONTINUOUS
 10
9.9871495151
 20
7.4823318604
 40
0.9981262705
100
AcDbArc
 50
15.8736322343
 51
344.1264069357
  0
ARC
  5
21E
100
AcDbEntity
  8
0
100
AcDbCircle
 62
9
  6
CONTINUOUS
 10
9.9871495151
 20
7.4823318604
 40
0.9302280237
100
AcDbArc
 50
341.2901686887
 51
343.0934848478
  0
ARC
  5
21F
100
AcDbEntity
  8
0
100
AcDbCircle
 62
9
  6
CONTINUOUS
 10
9.9871495151
 20
7.4823318604
 40
0.9302280237
100
AcDbArc
 50
16.9064692113
 51
18.7099479661
  0
ARC
  5
220
100
AcDbEntity
  8
0
100
AcDbCircle
 62
9
  6
CONTINUOUS
 10
9.9871495151
 20
7.4823318604
 40
0.9302280237
100
AcDbArc
 50
18.946973676
 51
341.0520241999
  0
ARC
  5
221
100
AcDbEntity
  8
0
100
AcDbCircle
 62
9
  6
CONTINUOUS
 10
9.9871495151
 20
7.4823318604
 40
0.7616485311
100
AcDbArc
 50
21.5207469927
 51
338.4792477954
  0
ARC
  5
222
100
AcDbEntity
  8
0
100
AcDbCircle
 62
7
  6
CONTINUOUS
 10
9.9871495151
 20
7.4823318604
 40
0.6917203626
100
AcDbArc
 50
22.4176087828
 51
337.5840124565
  0
ARC
  5
223
100
AcDbEntity
  8
0
100
AcDbCircle
 62
9
  6
CONTINUOUS
 10
9.9871495151
 20
7.4823318604
 40
0.5085759512
100
AcDbArc
 50
24.9630654284
 51
335.0367948294
  0
CIRCLE
  5
224
100
AcDbEntity
  8
0
100
AcDbCircle
 62
7
  6
CONTINUOUS
 10
9.9871495151
 20
7.4823318604
 40
0.4959492158
  0
CIRCLE
  5
225
100
AcDbEntity
  8
0
100
AcDbCircle
 62
9
  6
CONTINUOUS
 10
9.9871495151
 20
7.4823318604
 40
0.4679685482
  0
CIRCLE
  5
226
100
AcDbEntity
  8
0
100
AcDbCircle
 62
9
  6
CONTINUOUS
 10
9.9871494965
 20
7.4823319173
 40
0.3452421898
  0
ARC
  5
227
100
AcDbEntity
  8
0
100
AcDbCircle
 62
7
  6
CONTINUOUS
 10
10.7367441957
 20
7.0715953807
 40
0.1200000078
100
AcDbArc
 50
47.5809307701
 51
80.4427741189
  0
ARC
  5
228
100
AcDbEntity
  8
0
100
AcDbCircle
 62
7
  6
CONTINUOUS
 10
10.7367441957
 20
7.8930683401
 40
0.1200000078
100
AcDbArc
 50
279.557225881
 51
312.4190692299
  0
ARC
  5
229
100
AcDbEntity
  8
0
100
AcDbCircle
 62
7
  6
CONTINUOUS
 10
13.1595345483
 20
7.1023318604
 40
0.04
100
AcDbArc
 50
180.0
 51
346.9271076842
  0
ARC
  5
22A
100
AcDbEntity
  8
0
100
AcDbCircle
 62
7
  6
CONTINUOUS
 10
13.1595345483
 20
7.8623318604
 40
0.04
100
AcDbArc
 50
13.0728923158
 51
180.0
  0
SPLINE
  5
22B
100
AcDbEntity
  8
0
100
AcDbSpline
 62
7
  6
CONTINUOUS
 70
0
 71
3
 72
21
 73
17
 74
0
 42
0.0000001
 43
0.0000001
 44
0.0000000001
 40
0.0
 40
0.0
 40
0.0
 40
0.0
 40
0.1246853177
 40
0.1873118613
 40
0.2499099749
 40
0.3124082806
 40
0.3748459933
 40
0.4373588076
 40
0.499966374
 40
0.562588997
 40
0.6251341666
 40
0.6875827826
 40
0.7500517602
 40
0.8126243108
 40
0.8752529985
 40
1.0
 40
1.0
 40
1.0
 40
1.0
 10
10.8680749551
 20
7.7823315664
 30
0.0
 10
10.8680749551
 20
7.7852155712
 30
0.0
 10
10.8674080985
 20
7.7895783477
 30
0.0
 10
10.8653527136
 20
7.7949936636
 30
0.0
 10
10.863253583
 20
7.7988125346
 30
0.0
 10
10.8606352119
 20
7.8022899544
 30
0.0
 10
10.8575259431
 20
7.8053356521
 30
0.0
 10
10.8539974374
 20
7.8078858195
 30
0.0
 10
10.8501405179
 20
7.8099121604
 30
0.0
 10
10.8460375023
 20
7.8113797254
 30
0.0
 10
10.8417718673
 20
7.8122544712
 30
0.0
 10
10.837426037
 20
7.8124973422
 30
0.0
 10
10.8330937056
 20
7.8120789602
 30
0.0
 10
10.8288626065
 20
7.8110404334
 30
0.0
 10
10.8234846444
 20
7.8088863085
 30
0.0
 10
10.8198201332
 20
7.8064269314
 30
0.0
 10
10.8176899918
 20
7.8044805983
 30
0.0
  0
SPLINE
  5
22C
100
AcDbEntity
  8
0
100
AcDbSpline
 62
7
  6
CONTINUOUS
 70
0
 71
3
 72
21
 73
17
 74
0
 42
0.0000001
 43
0.0000001
 44
0.0000000001
 40
0.0
 40
0.0
 40
0.0
 40
0.0
 40
0.1246853178
 40
0.1873118613
 40
0.2499099749
 40
0.3124082806
 40
0.3748459933
 40
0.4373588076
 40
0.499966374
 40
0.562588997
 40
0.6251341666
 40
0.6875827826
 40
0.7500517602
 40
0.8126243108
 40
0.8752529985
 40
1.0
 40
1.0
 40
1.0
 40
1.0
 10
10.8680749551
 20
7.1823321544
 30
0.0
 10
10.8680749551
 20
7.1794481496
 30
0.0
 10
10.8674080985
 20
7.1750853731
 30
0.0
 10
10.8653527136
 20
7.1696700572
 30
0.0
 10
10.863253583
 20
7.1658511862
 30
0.0
 10
10.8606352119
 20
7.1623737664
 30
0.0
 10
10.8575259431
 20
7.1593280687
 30
0.0
 10
10.8539974374
 20
7.1567779013
 30
0.0
 10
10.8501405179
 20
7.1547515605
 30
0.0
 10
10.8460375023
 20
7.1532839955
 30
0.0
 10
10.8417718673
 20
7.1524092496
 30
0.0
 10
10.837426037
 20
7.1521663786
 30
0.0
 10
10.8330937056
 20
7.1525847606
 30
0.0
 10
10.8288626065
 20
7.1536232874
 30
0.0
 10
10.8234846444
 20
7.1557774123
 30
0.0
 10
10.8198201332
 20
7.1582367894
 30
0.0
 10
10.8176899918
 20
7.1601831225
 30
0.0
  0
SPLINE
  5
22D
100
AcDbEntity
  8
0
100
AcDbSpline
 62
7
  6
CONTINUOUS
 70
0
 71
3
 72
13
 73
9
 74
0
 42
0.0000001
 43
0.0000001
 44
0.0000000001
 40
0.0
 40
0.0
 40
0.0
 40
0.0
 40
0.2508114038
 40
0.501460292
 40
0.7512533288
 40
0.875737576
 40
0.9378905268
 40
1.0
 40
1.0
 40
1.0
 40
1.0
 10
10.433994018
 20
7.2722965137
 30
0.0
 10
10.4609004377
 20
7.2650895792
 30
0.0
 10
10.5144834156
 20
7.2498967864
 30
0.0
 10
10.5946841219
 20
7.2269049649
 30
0.0
 10
10.6618465013
 20
7.2093362941
 30
0.0
 10
10.7091733649
 20
7.198838942
 30
0.0
 10
10.7362799996
 20
7.1935039043
 30
0.0
 10
10.7498660185
 20
7.1910748089
 30
0.0
 10
10.7566681024
 20
7.1899295421
 30
0.0
  0
SPLINE
  5
22E
100
AcDbEntity
  8
0
100
AcDbSpline
 62
7
  6
CONTINUOUS
 70
0
 71
3
 72
13
 73
9
 74
0
 42
0.0000001
 43
0.0000001
 44
0.0000000001
 40
0.0
 40
0.0
 40
0.0
 40
0.0
 40
0.2508113746
 40
0.5014602759
 40
0.7512533318
 40
0.8757375806
 40
0.9378905297
 40
1.0
 40
1.0
 40
1.0
 40
1.0
 10
10.433987463
 20
7.6923654514
 30
0.0
 10
10.4608944447
 20
7.699572468
 30
0.0
 10
10.5144785282
 20
7.7147655163
 30
0.0
 10
10.5946808527
 20
7.7377578581
 30
0.0
 10
10.6618445817
 20
7.7553269717
 30
0.0
 10
10.7091724019
 20
7.7658245808
 30
0.0
 10
10.7362795856
 20
7.7711597412
 30
0.0
 10
10.7498658803
 20
7.7735888887
 30
0.0
 10
10.7566681024
 20
7.7747341787
 30
0.0
  0
SPLINE
  5
22F
100
AcDbEntity
  8
0
100
AcDbSpline
 62
9
  6
CONTINUOUS
 70
0
 71
3
 72
11
 73
7
 74
0
 42
0.0000001
 43
0.0000001
 44
0.0000000001
 40
0.0
 40
0.0
 40
0.0
 40
0.0
 40
0.232260681
 40
0.4775158253
 40
0.7350907377
 40
1.0
 40
1.0
 40
1.0
 40
1.0
 10
10.519678779
 20
7.4133308536
 30
0.0
 10
10.5209388016
 20
7.4186152699
 30
0.0
 10
10.5236969532
 20
7.4294382473
 30
0.0
 10
10.5276052093
 20
7.4461867872
 30
0.0
 10
10.5305996211
 20
7.4639086892
 30
0.0
 10
10.5314463685
 20
7.4761356521
 30
0.0
 10
10.5314471274
 20
7.4823318605
 30
0.0
  0
SPLINE
  5
230
100
AcDbEntity
  8
0
100
AcDbSpline
 62
9
  6
CONTINUOUS
 70
0
 71
3
 72
15
 73
11
 74
0
 42
0.0000001
 43
0.0000001
 44
0.0000000001
 40
0.0
 40
0.0
 40
0.0
 40
0.0
 40
0.1569761844
 40
0.3059100222
 40
0.445978237
 40
0.5763742667
 40
0.6969924327
 40
0.8078815249
 40
0.9089558524
 40
1.0
 40
1.0
 40
1.0
 40
1.0
 10
10.5196796959
 20
7.5513331403
 30
0.0
 10
10.5178756978
 20
7.5588991037
 30
0.0
 10
10.5137377162
 20
7.5735038315
 30
0.0
 10
10.5059170436
 20
7.5941986797
 30
0.0
 10
10.4969173069
 20
7.6129597608
 30
0.0
 10
10.4869839014
 20
7.6296296201
 30
0.0
 10
10.4763994502
 20
7.6441373099
 30
0.0
 10
10.4654395958
 20
7.6564798287
 30
0.0
 10
10.4543712573
 20
7.6666613581
 30
0.0
 10
10.44668766
 20
7.672323578
 30
0.0
 10
10.4428915593
 20
7.6747608523
 30
0.0
  0
SPLINE
  5
231
100
AcDbEntity
  8
0
100
AcDbSpline
 62
9
  6
CONTINUOUS
 70
0
 71
3
 72
11
 73
7
 74
0
 42
0.0000001
 43
0.0000001
 44
0.0000000001
 40
0.0
 40
0.0
 40
0.0
 40
0.0
 40
0.2649075801
 40
0.5224839428
 40
0.7677395469
 40
1.0
 40
1.0
 40
1.0
 40
1.0
 10
10.5314471095
 20
7.4823318603
 30
0.0
 10
10.5314463587
 20
7.4885280291
 30
0.0
 10
10.530599619
 20
7.5007549858
 30
0.0
 10
10.5276052572
 20
7.5184769019
 30
0.0
 10
10.5236969605
 20
7.5352254733
 30
0.0
 10
10.5209387788
 20
7.5460484482
 30
0.0
 10
10.5196787588
 20
7.5513328595
 30
0.0
  0
SPLINE
  5
232
100
AcDbEntity
  8
0
100
AcDbSpline
 62
9
  6
CONTINUOUS
 70
0
 71
3
 72
12
 73
8
 74
0
 42
0.0000001
 43
0.0000001
 44
0.0000000001
 40
0.0
 40
0.0
 40
0.0
 40
0.0
 40
0.2334881065
 40
0.4847473459
 40
0.6141484818
 40
0.7444061183
 40
1.0
 40
1.0
 40
1.0
 40
1.0
 10
10.5196796455
 20
7.5513326362
 30
0.0
 10
10.5164718484
 20
7.5504694859
 30
0.0
 10
10.5097570613
 20
7.5488777772
 30
0.0
 10
10.5011486915
 20
7.5473487571
 30
0.0
 10
10.4939380799
 20
7.5464184718
 30
0.0
 10
10.4866385821
 20
7.5457348728
 30
0.0
 10
10.4811469811
 20
7.5455046432
 30
0.0
 10
10.4775105811
 20
7.5455035566
 30
0.0
  0
SPLINE
  5
233
100
AcDbEntity
  8
0
100
AcDbSpline
 62
9
  6
CONTINUOUS
 70
0
 71
3
 72
11
 73
7
 74
0
 42
0.0000001
 43
0.0000001
 44
0.0000000001
 40
0.0
 40
0.0
 40
0.0
 40
0.0
 40
0.2241348215
 40
0.4713216756
 40
0.7345849008
 40
1.0
 40
1.0
 40
1.0
 40
1.0
 10
10.5196794844
 20
7.4133302069
 30
0.0
 10
10.5165955466
 20
7.4141600792
 30
0.0
 10
10.5100599727
 20
7.4157218518
 30
0.0
 10
10.4997522433
 20
7.4175766999
 30
0.0
 10
10.4887615223
 20
7.4188346651
 30
0.0
 10
10.4812266835
 20
7.4191716489
 30
0.0
 10
10.4774448469
 20
7.4191708879
 30
0.0
  0
SPLINE
  5
234
100
AcDbEntity
  8
0
100
AcDbSpline
 62
9
  6
CONTINUOUS
 70
0
 71
3
 72
15
 73
11
 74
0
 42
0.0000001
 43
0.0000001
 44
0.0000000001
 40
0.0
 40
0.0
 40
0.0
 40
0.0
 40
0.0911484151
 40
0.1922939539
 40
0.3032236206
 40
0.4238541621
 40
0.5542359836
 40
0.6942600996
 40
0.8431211313
 40
1.0
 40
1.0
 40
1.0
 40
1.0
 10
10.4430763132
 20
7.2900218599
 30
0.0
 10
10.4468660031
 20
7.2924663251
 30
0.0
 10
10.4545348611
 20
7.2981391066
 30
0.0
 10
10.4655799946
 20
7.3083286503
 30
0.0
 10
10.4765135253
 20
7.3206699763
 30
0.0
 10
10.4870703585
 20
7.3351672184
 30
0.0
 10
10.4969764612
 20
7.3518172007
 30
0.0
 10
10.5059513921
 20
7.3705487669
 30
0.0
 10
10.5137511831
 20
7.3912051385
 30
0.0
 10
10.5178794627
 20
7.4057804706
 30
0.0
 10
10.5196796809
 20
7.4133305837
 30
0.0
  0
ENDSEC
  0
SECTION
  2
OBJECTS
  0
DICTIONARY
  5
C
100
AcDbDictionary
280
0
281
1
  3
ACAD_GROUP
350
D
  3
ACAD_MLINESTYLE
350
17
  3
ACAD_LAYOUT
350
1A
  3
ACAD_PLOTSETTINGS
350
19
  3
ACAD_PLOTSTYLENAME
350
E
  0
DICTIONARY
  5
D
102
{ACAD_REACTORS
330
C
102
}
100
AcDbDictionary
280
0
281
1
  0
ACDBDICTIONARYWDFLT
  5
E
102
{ACAD_REACTORS
330
C
102
}
100
AcDbDictionary
281
1
  3
Normal
350
F
100
AcDbDictionaryWithDefault
340
F
  0
DICTIONARY
  5
17
102
{ACAD_REACTORS
330
C
102
}
100
AcDbDictionary
280
0
281
1
  3
Standard
350
18
  0
DICTIONARY
  5
19
102
{ACAD_REACTORS
330
C
102
}
100
AcDbDictionary
281
1
  0
DICTIONARY
  5
1A
102
{ACAD_REACTORS
330
C
102
}
100
AcDbDictionary
281
1
  3
Model
350
235
  3
Layout1
350
236
  0
ACDBPLACEHOLDER
  5
F
102
{ACAD_REACTORS
330
E
102
}
  0
MLINESTYLE
  5
18
102
{ACAD_REACTORS
330
17
102
}
100
AcDbMlineStyle
  2
STANDARD
 70
0
  3

 62
256
 51
90.0
 52
90.0
 71
2
 49
0.5
 62
256
  6
BYLAYER
 49
-0.5
 62
256
  6
BYLAYER
  0
LAYOUT
  5
235
102
{ACAD_REACTORS
330
1A
102
}
100
AcDbPlotSettings
  1

  2
none_device
  4
ANSI_C_(22.00_x_17.00_Inches)
  6

 40
0.0
 41
0.0
 42
0.0
 43
0.0
 44
558.8
 45
431.8
 46
0.0
 47
0.0
 48
0.0
 49
0.0
140
0.0
141
0.0
142
1.0
143
1.0
 70
1024
 72
0
 73
0
 74
0
  7

 75
0
147
1.0
148
0.0
149
0.0
100
AcDbLayout
  1
Model
 70
0
 71
0
 10
0.0
 20
0.0
 11
22.0
 21
17.0
 12
0.0
 22
0.0
 32
0.0
 14
0.0
 24
0.0
 34
0.0
 15
0.0
 25
0.0
 35
0.0
146
0.0
 13
0.0
 23
0.0
 33
0.0
 16
1.0
 26
0.0
 36
0.0
 17
0.0
 27
1.0
 37
0.0
 76
0
330
202
345
0
346
0
  0
LAYOUT
  5
236
102
{ACAD_REACTORS
330
1A
102
}
100
AcDbPlotSettings
  1

  2
none_device
  4
ANSI_C_(22.00_x_17.00_Inches)
  6

 40
0.0
 41
0.0
 42
0.0
 43
0.0
 44
558.8
 45
431.8
 46
0.0
 47
0.0
 48
0.0
 49
0.0
140
0.0
141
0.0
142
1.0
143
1.0
 70
0
 72
0
 73
0
 74
0
  7

 75
0
147
1.0
148
0.0
149
0.0
100
AcDbLayout
  1
Layout1
 70
0
 71
1
 10
0.0
 20
0.0
 11
22.0
 21
17.0
 12
0.0
 22
0.0
 32
0.0
 14
0.0
 24
0.0
 34
0.0
 15
0.0
 25
0.0
 35
0.0
146
0.0
 13
0.0
 23
0.0
 33
0.0
 16
1.0
 26
0.0
 36
0.0
 17
0.0
 27
1.0
 37
0.0
 76
0
330
203
345
0
346
0
  0
ENDSEC
  0
EOF
