999
DXF file: E:\BT Custom\CADOUTPUT\_RIGHT.dxf
999
Pro/ENGINEER 2018400 by Parametric Technology Corporation
  0
SECTION
  2
HEADER
  9
$ACADVER
  1
AC1018
  9
$DWGCODEPAGE
  3
ANSI_1252
  9
$EXTMAX
 10
22.0
 20
17.0
 30
0.0
  9
$EXTMIN
 10
0.0
 20
0.0
 30
0.0
  9
$LIMMIN
 10
0.0
 20
0.0
  9
$LIMMAX
 10
22.0
 20
17.0
  9
$VIEWCTR
 10
11.0
 20
8.5
  9
$VIEWSIZE
 40
17.0
  9
$CLAYER
  8
0
  9
$LTSCALE
 40
1.21
  9
$CELTYPE
  6
BYLAYER
  9
$DIMSCALE
 40
1.0
  9
$DIMASZ
 40
0.1
  9
$DIMEXO
 40
0.0625
  9
$DIMDLI
 40
0.836
  9
$DIMEXE
 40
0.125
  9
$DIMCEN
 40
0.198
  9
$DIMLFAC
 40
1.0
  9
$DIMBLK
  1
_FILLED
  9
$DIMALT
 70
1
  9
$DIMALTD
 70
2
  9
$DIMALTTD
 70
2
  9
$DIMALTF
 40
25.4
  9
$DIMTXT
 40
0.08
  9
$DIMTOL
 70
1
  9
$DIMLIM
 70
0
  9
$DIMTFAC
 40
1.0
  9
$DIMTP
 40
0.001
  9
$DIMTM
 40
0.001
  9
$DIMGAP
 40
0.09
  9
$DIMDSEP
 70
46
  9
$AUNITS
 70
0
  9
$PDMODE
 70
3
  9
$PDSIZE
 40
0.06
  9
$HANDSEED
  5
46D
  9
$TILEMODE
 70
1
  9
$MEASUREMENT
 70
0
  9
$INSUNITS
 70
1
  0
ENDSEC
  0
SECTION
  2
CLASSES
  0
CLASS
  1
ACDBDICTIONARYWDFLT
  2
AcDbDictionaryWithDefault
  3
AutoCAD 2000
 90
0
 91
1
280
0
281
0
  0
CLASS
  1
ACDBPLACEHOLDER
  2
AcDbPlaceHolder
  3
AutoCAD 2000
 90
0
 91
1
280
0
281
0
  0
CLASS
  1
LAYOUT
  2
AcDbLayout
  3
AutoCAD 2000
 90
0
 91
0
280
0
281
0
  0
ENDSEC
  0
SECTION
  2
TABLES
  0
TABLE
  2
VPORT
  5
8
100
AcDbSymbolTable
 70
2
  0
VPORT
  5
1F4
100
AcDbSymbolTableRecord
100
AcDbViewportTableRecord
  2
*ACTIVE
 70
0
 10
0.0
 20
0.0
 11
1.0
 21
1.0
 12
11.0
 22
8.5
 13
0.0
 23
0.0
 14
1.0
 24
1.0
 15
0.0
 25
0.0
 16
0.0
 26
0.0
 36
1.0
 17
0.0
 27
0.0
 37
0.0
 40
17.0
 41
1.2941176471
 42
50.0
 43
0.0
 44
0.0
 50
0.0
 51
0.0
 71
0
 72
100
 73
1
 74
1
 75
0
 76
0
 77
0
 78
0
  0
ENDTAB
  0
TABLE
  2
LTYPE
  5
5
100
AcDbSymbolTable
 70
6
  0
LTYPE
  5
14
100
AcDbSymbolTableRecord
100
AcDbLinetypeTableRecord
  2
BYBLOCK
 70
0
  3

 72
65
 73
0
 40
0.0
  0
LTYPE
  5
15
100
AcDbSymbolTableRecord
100
AcDbLinetypeTableRecord
  2
BYLAYER
 70
0
  3

 72
65
 73
0
 40
0.0
  0
LTYPE
  5
16
100
AcDbSymbolTableRecord
100
AcDbLinetypeTableRecord
  2
CONTINUOUS
 70
64
  3
Solid line
 72
65
 73
0
 40
0.0
  0
LTYPE
  5
1F5
100
AcDbSymbolTableRecord
100
AcDbLinetypeTableRecord
  2
CENTER
 70
64
  3
____ _ ____ _ ____ _ ____ _ ____ _ ____ _ ____
 72
65
 73
4
 40
0.6
 49
0.375
 74
0
 49
-0.075
 74
0
 49
0.075
 74
0
 49
-0.075
 74
0
  0
LTYPE
  5
1F6
100
AcDbSymbolTableRecord
100
AcDbLinetypeTableRecord
  2
HIDDEN
 70
64
  3
- - - - - - - - - - - - - - - - - - - -
 72
65
 73
2
 40
0.2
 49
0.1
 74
0
 49
-0.1
 74
0
  0
LTYPE
  5
1F7
100
AcDbSymbolTableRecord
100
AcDbLinetypeTableRecord
  2
PHANTOM
 70
64
  3
_____ _ _ _____ _ _ _____ _ _ _____
 72
65
 73
6
 40
0.8
 49
0.45
 74
0
 49
-0.05
 74
0
 49
0.1
 74
0
 49
-0.05
 74
0
 49
0.1
 74
0
 49
-0.05
 74
0
  0
LTYPE
  5
1F8
100
AcDbSymbolTableRecord
100
AcDbLinetypeTableRecord
  2
DOT
 70
64
  3
. . . . . . . . . . . . . . . . . . . .
 72
65
 73
2
 40
0.2
 49
0.1
 74
0
 49
-0.1
 74
0
  0
LTYPE
  5
1F9
100
AcDbSymbolTableRecord
100
AcDbLinetypeTableRecord
  2
DASHED
 70
64
  3
- - - - - - - - - - - - - - - - - - - -
 72
65
 73
2
 40
0.2
 49
0.1
 74
0
 49
-0.1
 74
0
  0
ENDTAB
  0
TABLE
  2
LAYER
  5
2
100
AcDbSymbolTable
 70
36
  0
LAYER
  5
10
100
AcDbSymbolTableRecord
100
AcDbLayerTableRecord
  2
0
 70
0
 62
7
  6
CONTINUOUS
370
-3
390
F
  0
LAYER
  5
1FA
100
AcDbSymbolTableRecord
100
AcDbLayerTableRecord
  2
DEFAULT_1
 70
0
 62
7
  6
CENTER
370
-3
390
F
  0
LAYER
  5
1FB
100
AcDbSymbolTableRecord
100
AcDbLayerTableRecord
  2
DEFAULT_2
 70
0
 62
8
  6
HIDDEN
370
-3
390
F
  0
LAYER
  5
1FC
100
AcDbSymbolTableRecord
100
AcDbLayerTableRecord
  2
DEFAULT_3
 70
0
 62
7
  6
PHANTOM
370
-3
390
F
  0
LAYER
  5
1FD
100
AcDbSymbolTableRecord
100
AcDbLayerTableRecord
  2
ALL_FEATURES
 70
0
 62
7
  6
CONTINUOUS
370
-3
390
F
  0
LAYER
  5
1FE
100
AcDbSymbolTableRecord
100
AcDbLayerTableRecord
  2
AXES_FEATURES
 70
0
 62
7
  6
CONTINUOUS
370
-3
390
F
  0
LAYER
  5
1FF
100
AcDbSymbolTableRecord
100
AcDbLayerTableRecord
  2
DIMENSIONS
 70
0
 62
7
  6
CONTINUOUS
370
-3
390
F
  0
ENDTAB
  0
TABLE
  2
STYLE
  5
3
100
AcDbSymbolTable
 70
1
  0
STYLE
  5
11
100
AcDbSymbolTableRecord
100
AcDbTextStyleTableRecord
  2
STANDARD
 70
0
 40
0.0
 41
0.8
 50
0.0
 71
0
 42
0.2
  3
txt
  4

  0
STYLE
  5
200
100
AcDbSymbolTableRecord
100
AcDbTextStyleTableRecord
  2
TEXTSTYLE_1
 70
0
 40
0.0
 41
0.8
 50
0.0
 71
0
 42
0.2
  3
gdt
  4

  0
ENDTAB
  0
TABLE
  2
VIEW
  5
6
100
AcDbSymbolTable
 70
0
  0
ENDTAB
  0
TABLE
  2
UCS
  5
7
100
AcDbSymbolTable
 70
0
  0
ENDTAB
  0
TABLE
  2
APPID
  5
9
100
AcDbSymbolTable
 70
1
  0
APPID
  5
201
100
AcDbSymbolTableRecord
100
AcDbRegAppTableRecord
  2
ACAD
 70
0
  0
ENDTAB
  0
TABLE
  2
BLOCK_RECORD
  5
1
100
AcDbSymbolTable
 70
0
  0
BLOCK_RECORD
  5
202
100
AcDbSymbolTableRecord
100
AcDbBlockTableRecord
  2
*Model_Space
  0
BLOCK_RECORD
  5
203
100
AcDbSymbolTableRecord
100
AcDbBlockTableRecord
  2
*Paper_Space
  0
BLOCK_RECORD
  5
204
100
AcDbSymbolTableRecord
100
AcDbBlockTableRecord
  2
_FILLED
  0
ENDTAB
  0
TABLE
  2
DIMSTYLE
  5
A
100
AcDbSymbolTable
 70
1
100
AcDbDimStyleTable
 71
0
  0
DIMSTYLE
105
205
100
AcDbSymbolTableRecord
100
AcDbDimStyleTableRecord
  2
STANDARD
 70
0
  3

  4

 40
1.0
 41
0.1
 42
0.0625
 43
0.38
 44
0.125
 45
0.0
 46
0.0
 47
0.001
 48
0.001
140
0.08
141
0.09
142
0.0
143
25.4
144
1.0
145
0.0
146
1.0
147
0.09
 71
1.0
 72
0.0
 73
1
 74
1
 75
0
 76
0
 77
0
 78
4
 79
1
170
1
171
2
172
0
173
0
174
0
175
0
176
0
177
0
178
0
270
2
179
3
271
3
272
3
273
2
274
2
275
0
280
0
281
0
282
0
283
1
284
4
285
0
286
0
287
3
288
0
340
11
278
46
341
204
342
204
343
204
344
204
  0
ENDTAB
  0
ENDSEC
  0
SECTION
  2
BLOCKS
  0
BLOCK
  5
20
100
AcDbEntity
  8
0
100
AcDbBlockBegin
  2
*Model_Space
 70
0
 10
0.0
 20
0.0
 30
0.0
  3
*Model_Space
  1

  0
ENDBLK
  5
21
100
AcDbEntity
  8
0
100
AcDbBlockEnd
  0
BLOCK
  5
1C
100
AcDbEntity
  8
0
100
AcDbBlockBegin
  2
*Paper_Space
 70
0
 10
0.0
 20
0.0
 30
0.0
  3
*Paper_Space
  1

  0
ENDBLK
  5
1D
100
AcDbEntity
  8
0
100
AcDbBlockEnd
  0
BLOCK
  5
206
100
AcDbEntity
  8
0
100
AcDbBlockBegin
  2
_FILLED
 70
64
 10
0.0
 20
0.0
  3
_FILLED
  1

  0
SOLID
  5
207
100
AcDbEntity
  8
0
  6
BYBLOCK
 62
0
100
AcDbTrace
 10
0.0
 20
0.0
 11
-1.0
 21
0.2
 12
-1.0
 22
-0.2
 13
-1.0
 23
-0.2
  0
ENDBLK
  5
208
100
AcDbEntity
  8
0
  6
BYBLOCK
 62
0
100
AcDbBlockEnd
  0
ENDSEC
  0
SECTION
  2
ENTITIES
  0
LINE
  5
209
100
AcDbEntity
  8
0
100
AcDbLine
 62
7
  6
CONTINUOUS
 10
9.5743956958
 20
7.3487804446
 11
11.8455712825
 21
7.3487804446
  0
LINE
  5
20A
100
AcDbEntity
  8
0
100
AcDbLine
 62
9
  6
CONTINUOUS
 10
9.608088384
 20
7.4894526141
 11
11.8118785943
 21
7.4894526141
  0
LINE
  5
20B
100
AcDbEntity
  8
0
100
AcDbLine
 62
9
  6
CONTINUOUS
 10
9.6412894245
 20
7.5343112804
 11
11.7786775537
 21
7.5343112804
  0
LINE
  5
20C
100
AcDbEntity
  8
0
100
AcDbLine
 62
9
  6
CONTINUOUS
 10
11.7081097596
 20
7.5766667301
 11
9.7118572186
 21
7.5766667301
  0
LINE
  5
20D
100
AcDbEntity
  8
0
100
AcDbLine
 62
9
  6
CONTINUOUS
 10
9.7797554654
 20
7.6086920964
 11
11.6402115128
 21
7.6086920964
  0
LINE
  5
20E
100
AcDbEntity
  8
0
100
AcDbLine
 62
9
  6
CONTINUOUS
 10
9.9483349581
 20
7.7432386849
 11
11.4716320202
 21
7.7432386849
  0
LINE
  5
20F
100
AcDbEntity
  8
0
100
AcDbLine
 62
9
  6
CONTINUOUS
 10
9.4973634476
 20
9.9191476359
 11
9.4973634476
 21
10.5488586911
  0
LINE
  5
210
100
AcDbEntity
  8
0
100
AcDbLine
 62
7
  6
CONTINUOUS
 10
9.5572708294
 20
9.9215031635
 11
9.5572708294
 21
10.5465031635
  0
LINE
  5
211
100
AcDbEntity
  8
0
100
AcDbLine
 62
7
  6
CONTINUOUS
 10
11.4016927201
 20
7.8828031635
 11
10.0182742582
 21
7.8828031635
  0
LINE
  5
212
100
AcDbEntity
  8
0
100
AcDbLine
 62
7
  6
CONTINUOUS
 10
10.1974834891
 20
7.8928031635
 11
11.2224834891
 21
7.8928031635
  0
LINE
  5
213
100
AcDbEntity
  8
0
100
AcDbLine
 62
9
  6
CONTINUOUS
 10
10.2014075379
 20
8.1582961248
 11
11.2185594404
 21
8.1582961248
  0
LINE
  5
214
100
AcDbEntity
  8
0
100
AcDbLine
 62
9
  6
CONTINUOUS
 10
10.2688898593
 20
8.1893177822
 11
11.1510771189
 21
8.1893177822
  0
LINE
  5
215
100
AcDbEntity
  8
0
100
AcDbLine
 62
7
  6
CONTINUOUS
 10
11.6402115128
 20
7.6086920964
 11
11.7081097596
 21
7.5766667301
  0
LINE
  5
216
100
AcDbEntity
  8
0
100
AcDbLine
 62
9
  6
CONTINUOUS
 10
10.2954654523
 20
8.2303891022
 11
11.124501526
 21
8.2303891022
  0
LINE
  5
217
100
AcDbEntity
  8
0
100
AcDbLine
 62
9
  6
CONTINUOUS
 10
10.2986811391
 20
8.3125538503
 11
11.1212858392
 21
8.3125538503
  0
LINE
  5
218
100
AcDbEntity
  8
0
100
AcDbLine
 62
7
  6
CONTINUOUS
 10
10.3377949139
 20
10.0513704112
 11
10.3377972248
 21
10.0513779655
  0
LINE
  5
219
100
AcDbEntity
  8
0
100
AcDbLine
 62
9
  6
CONTINUOUS
 10
11.1405815632
 20
8.4697751848
 11
10.2793854151
 21
8.4697751848
  0
LINE
  5
21A
100
AcDbEntity
  8
0
100
AcDbLine
 62
7
  6
CONTINUOUS
 10
10.1974834891
 20
7.8928031635
 11
10.1974834891
 21
8.1572267601
  0
LINE
  5
21B
100
AcDbEntity
  8
0
100
AcDbLine
 62
7
  6
CONTINUOUS
 10
10.2199834891
 20
7.8928031635
 11
10.2199834891
 21
7.8828031635
  0
LINE
  5
21C
100
AcDbEntity
  8
0
100
AcDbLine
 62
7
  6
CONTINUOUS
 10
10.2233599294
 20
9.1818278347
 11
10.2233599294
 21
9.1544648634
  0
LINE
  5
21D
100
AcDbEntity
  8
0
100
AcDbLine
 62
7
  6
CONTINUOUS
 10
10.2256287931
 20
9.1818278347
 11
10.2256287931
 21
9.1544648634
  0
LINE
  5
21E
100
AcDbEntity
  8
0
100
AcDbLine
 62
7
  6
CONTINUOUS
 10
10.2301559419
 20
9.1818278347
 11
10.2301559419
 21
9.1544648634
  0
LINE
  5
21F
100
AcDbEntity
  8
0
100
AcDbLine
 62
7
  6
CONTINUOUS
 10
10.2369202683
 20
9.1818278347
 11
10.2369202683
 21
9.1544648634
  0
LINE
  5
220
100
AcDbEntity
  8
0
100
AcDbLine
 62
7
  6
CONTINUOUS
 10
10.2458902338
 20
9.1818278347
 11
10.2458902338
 21
9.1544648634
  0
LINE
  5
221
100
AcDbEntity
  8
0
100
AcDbLine
 62
7
  6
CONTINUOUS
 10
10.2570240162
 20
9.1818278347
 11
10.2570240162
 21
9.1544648634
  0
LINE
  5
222
100
AcDbEntity
  8
0
100
AcDbLine
 62
7
  6
CONTINUOUS
 10
10.2702697049
 20
9.1818278347
 11
10.2702697049
 21
9.1544648634
  0
LINE
  5
223
100
AcDbEntity
  8
0
100
AcDbLine
 62
7
  6
CONTINUOUS
 10
10.2855655422
 20
9.1818278347
 11
10.2855655422
 21
9.1544648634
  0
LINE
  5
224
100
AcDbEntity
  8
0
100
AcDbLine
 62
7
  6
CONTINUOUS
 10
10.3028402118
 20
9.1818278347
 11
10.3028402118
 21
9.1544648634
  0
LINE
  5
225
100
AcDbEntity
  8
0
100
AcDbLine
 62
7
  6
CONTINUOUS
 10
10.3220131714
 20
9.1818278347
 11
10.3220131714
 21
9.1544648634
  0
LINE
  5
226
100
AcDbEntity
  8
0
100
AcDbLine
 62
9
  6
CONTINUOUS
 10
10.3338745355
 20
10.0505879438
 11
10.3338745355
 21
10.2601929362
  0
LINE
  5
227
100
AcDbEntity
  8
0
100
AcDbLine
 62
7
  6
CONTINUOUS
 10
10.3429950277
 20
9.1818278347
 11
10.3429950277
 21
9.1544648634
  0
LINE
  5
228
100
AcDbEntity
  8
0
100
AcDbLine
 62
7
  6
CONTINUOUS
 10
10.3656879536
 20
9.1818278347
 11
10.3656879536
 21
9.1544648634
  0
LINE
  5
229
100
AcDbEntity
  8
0
100
AcDbLine
 62
7
  6
CONTINUOUS
 10
10.3669834891
 20
9.375563127
 11
10.3669834891
 21
9.2239870807
  0
LINE
  5
22A
100
AcDbEntity
  8
0
100
AcDbLine
 62
7
  6
CONTINUOUS
 10
10.3891835118
 20
9.1263525415
 11
10.3891835118
 21
9.2097051502
  0
LINE
  5
22B
100
AcDbEntity
  8
0
100
AcDbLine
 62
7
  6
CONTINUOUS
 10
10.3899861442
 20
9.1818278347
 11
10.3899861442
 21
9.1544648634
  0
LINE
  5
22C
100
AcDbEntity
  8
0
100
AcDbLine
 62
7
  6
CONTINUOUS
 10
10.4133721553
 20
9.1263523521
 11
10.4133721553
 21
9.2097051502
  0
LINE
  5
22D
100
AcDbEntity
  8
0
100
AcDbLine
 62
7
  6
CONTINUOUS
 10
10.4157763101
 20
9.1818278347
 11
10.4157763101
 21
9.1544648634
  0
LINE
  5
22E
100
AcDbEntity
  8
0
100
AcDbLine
 62
7
  6
CONTINUOUS
 10
10.4389437377
 20
9.1263528043
 11
10.4389437377
 21
9.2097051502
  0
LINE
  5
22F
100
AcDbEntity
  8
0
100
AcDbLine
 62
7
  6
CONTINUOUS
 10
10.4429382058
 20
9.1818278347
 11
10.4429382058
 21
9.1544648634
  0
LINE
  5
230
100
AcDbEntity
  8
0
100
AcDbLine
 62
7
  6
CONTINUOUS
 10
10.4449834891
 20
9.7970031635
 11
10.4449834891
 21
9.412803127
  0
LINE
  5
231
100
AcDbEntity
  8
0
100
AcDbLine
 62
7
  6
CONTINUOUS
 10
10.2445349567
 20
10.5043748734
 11
10.254798097
 21
10.4277620921
  0
LINE
  5
232
100
AcDbEntity
  8
0
100
AcDbLine
 62
7
  6
CONTINUOUS
 10
10.4657790326
 20
9.1263522256
 11
10.4657790326
 21
9.2097051502
  0
LINE
  5
233
100
AcDbEntity
  8
0
100
AcDbLine
 62
7
  6
CONTINUOUS
 10
10.4713451898
 20
9.1818278347
 11
10.4713451898
 21
9.1544648634
  0
LINE
  5
234
100
AcDbEntity
  8
0
100
AcDbLine
 62
7
  6
CONTINUOUS
 10
10.4937529214
 20
9.12635276
 11
10.4937529214
 21
9.2097051502
  0
LINE
  5
235
100
AcDbEntity
  8
0
100
AcDbLine
 62
7
  6
CONTINUOUS
 10
10.5008648157
 20
9.1818278347
 11
10.5008648157
 21
9.1544648634
  0
LINE
  5
236
100
AcDbEntity
  8
0
100
AcDbLine
 62
7
  6
CONTINUOUS
 10
10.5227349769
 20
9.1263523888
 11
10.5227349769
 21
9.2097051502
  0
LINE
  5
237
100
AcDbEntity
  8
0
100
AcDbLine
 62
7
  6
CONTINUOUS
 10
10.5313594495
 20
9.1818278347
 11
10.5313594495
 21
9.1544648634
  0
LINE
  5
238
100
AcDbEntity
  8
0
100
AcDbLine
 62
7
  6
CONTINUOUS
 10
10.5525900714
 20
9.1263525637
 11
10.5525900714
 21
9.2097051502
  0
LINE
  5
239
100
AcDbEntity
  8
0
100
AcDbLine
 62
7
  6
CONTINUOUS
 10
10.5626869109
 20
9.1818278347
 11
10.5626869109
 21
9.1544648634
  0
LINE
  5
23A
100
AcDbEntity
  8
0
100
AcDbLine
 62
7
  6
CONTINUOUS
 10
10.5831790067
 20
9.1263526092
 11
10.5831790067
 21
9.2097051502
  0
LINE
  5
23B
100
AcDbEntity
  8
0
100
AcDbLine
 62
9
  6
CONTINUOUS
 10
10.2504083998
 20
8.7676839513
 11
11.1695585785
 21
8.7676839513
  0
LINE
  5
23C
100
AcDbEntity
  8
0
100
AcDbLine
 62
7
  6
CONTINUOUS
 10
10.3377951257
 20
10.0513694134
 11
10.3672555434
 21
9.9102146232
  0
LINE
  5
23D
100
AcDbEntity
  8
0
100
AcDbLine
 62
7
  6
CONTINUOUS
 10
10.594701137
 20
9.1818278347
 11
10.594701137
 21
9.1544648634
  0
LINE
  5
23E
100
AcDbEntity
  8
0
100
AcDbLine
 62
7
  6
CONTINUOUS
 10
10.614359163
 20
9.1263523441
 11
10.614359163
 21
9.2097051502
  0
LINE
  5
23F
100
AcDbEntity
  8
0
100
AcDbLine
 62
7
  6
CONTINUOUS
 10
10.6272528626
 20
9.1818278347
 11
10.6272528626
 21
9.1544648634
  0
LINE
  5
240
100
AcDbEntity
  8
0
100
AcDbLine
 62
7
  6
CONTINUOUS
 10
10.6459851641
 20
9.1263528018
 11
10.6459851641
 21
9.2097051502
  0
LINE
  5
241
100
AcDbEntity
  8
0
100
AcDbLine
 62
7
  6
CONTINUOUS
 10
10.6601903166
 20
9.1818278347
 11
10.6601903166
 21
9.1544648634
  0
LINE
  5
242
100
AcDbEntity
  8
0
100
AcDbLine
 62
7
  6
CONTINUOUS
 10
10.6779095549
 20
9.1263522273
 11
10.6779095549
 21
9.2097051502
  0
LINE
  5
243
100
AcDbEntity
  8
0
100
AcDbLine
 62
7
  6
CONTINUOUS
 10
10.6933599294
 20
9.1818278347
 11
10.6933599294
 21
9.1544648634
  0
LINE
  5
244
100
AcDbEntity
  8
0
100
AcDbLine
 62
9
  6
CONTINUOUS
 10
10.7099834891
 20
10.6219634732
 11
10.7099834891
 21
10.5765031635
  0
LINE
  5
245
100
AcDbEntity
  8
0
100
AcDbLine
 62
9
  6
CONTINUOUS
 10
10.7099834891
 20
9.8449577895
 11
10.7099834891
 21
9.7970031635
  0
LINE
  5
246
100
AcDbEntity
  8
0
100
AcDbLine
 62
7
  6
CONTINUOUS
 10
10.7099834891
 20
8.1438801873
 11
10.7099834891
 21
7.8928031635
  0
LINE
  5
247
100
AcDbEntity
  8
0
100
AcDbLine
 62
7
  6
CONTINUOUS
 10
10.7099834891
 20
9.1263527318
 11
10.7099834891
 21
9.2097051502
  0
LINE
  5
248
100
AcDbEntity
  8
0
100
AcDbLine
 62
7
  6
CONTINUOUS
 10
10.7266070489
 20
9.1818278347
 11
10.7266070489
 21
9.1544648634
  0
LINE
  5
249
100
AcDbEntity
  8
0
100
AcDbLine
 62
7
  6
CONTINUOUS
 10
10.7420574234
 20
9.1263523745
 11
10.7420574234
 21
9.2097051502
  0
LINE
  5
24A
100
AcDbEntity
  8
0
100
AcDbLine
 62
7
  6
CONTINUOUS
 10
10.7597766616
 20
9.1818278347
 11
10.7597766616
 21
9.1544648634
  0
LINE
  5
24B
100
AcDbEntity
  8
0
100
AcDbLine
 62
7
  6
CONTINUOUS
 10
10.7739818142
 20
9.1263525925
 11
10.7739818142
 21
9.2097051502
  0
LINE
  5
24C
100
AcDbEntity
  8
0
100
AcDbLine
 62
7
  6
CONTINUOUS
 10
10.7927141156
 20
9.1818278347
 11
10.7927141156
 21
9.1544648634
  0
LINE
  5
24D
100
AcDbEntity
  8
0
100
AcDbLine
 62
7
  6
CONTINUOUS
 10
10.8056078153
 20
9.1263526508
 11
10.8056078153
 21
9.2097051502
  0
LINE
  5
24E
100
AcDbEntity
  8
0
100
AcDbLine
 62
7
  6
CONTINUOUS
 10
10.8252658413
 20
9.1818278347
 11
10.8252658413
 21
9.1544648634
  0
LINE
  5
24F
100
AcDbEntity
  8
0
100
AcDbLine
 62
7
  6
CONTINUOUS
 10
10.8367879716
 20
9.126352321
 11
10.8367879716
 21
9.2097051502
  0
LINE
  5
250
100
AcDbEntity
  8
0
100
AcDbLine
 62
7
  6
CONTINUOUS
 10
10.8572800674
 20
9.1818278347
 11
10.8572800674
 21
9.1544648634
  0
LINE
  5
251
100
AcDbEntity
  8
0
100
AcDbLine
 62
7
  6
CONTINUOUS
 10
11.0821718526
 20
10.0513694134
 11
11.0527114349
 21
9.9102146232
  0
LINE
  5
252
100
AcDbEntity
  8
0
100
AcDbLine
 62
9
  6
CONTINUOUS
 10
11.1575559907
 20
9.0635386847
 11
10.2624109909
 21
9.06353869
  0
LINE
  5
253
100
AcDbEntity
  8
0
100
AcDbLine
 62
9
  6
CONTINUOUS
 10
10.4646116163
 20
9.1271539665
 11
10.439148145
 21
9.1271550165
  0
LINE
  5
254
100
AcDbEntity
  8
0
100
AcDbLine
 62
9
  6
CONTINUOUS
 10
10.344203833
 20
9.1271538349
 11
10.3258034443
 21
9.1271543331
  0
LINE
  5
255
100
AcDbEntity
  8
0
100
AcDbLine
 62
9
  6
CONTINUOUS
 10
10.3879824339
 20
9.1271537632
 11
10.366449612
 21
9.1271543545
  0
LINE
  5
256
100
AcDbEntity
  8
0
100
AcDbLine
 62
9
  6
CONTINUOUS
 10
10.3652898219
 20
9.1271537688
 11
10.3452763396
 21
9.1271542576
  0
LINE
  5
257
100
AcDbEntity
  8
0
100
AcDbLine
 62
9
  6
CONTINUOUS
 10
10.4121768471
 20
9.12715384
 11
10.3892246141
 21
9.1271544855
  0
LINE
  5
258
100
AcDbEntity
  8
0
100
AcDbLine
 62
9
  6
CONTINUOUS
 10
10.5216169464
 20
9.1271538867
 11
10.4941168448
 21
9.1271549581
  0
LINE
  5
259
100
AcDbEntity
  8
0
100
AcDbLine
 62
9
  6
CONTINUOUS
 10
10.4377591353
 20
9.1271536047
 11
10.4134951556
 21
9.1271541751
  0
LINE
  5
25A
100
AcDbEntity
  8
0
100
AcDbLine
 62
9
  6
CONTINUOUS
 10
10.2563651715
 20
9.1271538438
 11
10.2491550351
 21
9.1271539815
  0
LINE
  5
25B
100
AcDbEntity
  8
0
100
AcDbLine
 62
9
  6
CONTINUOUS
 10
10.3248235431
 20
9.1271537227
 11
10.3081219626
 21
9.1271540147
  0
LINE
  5
25C
100
AcDbEntity
  8
0
100
AcDbLine
 62
9
  6
CONTINUOUS
 10
10.582131099
 20
9.1271537439
 11
10.5531065747
 21
9.1271546183
  0
LINE
  5
25D
100
AcDbEntity
  8
0
100
AcDbLine
 62
9
  6
CONTINUOUS
 10
10.2915323153
 20
9.1271538236
 11
10.2784534054
 21
9.127154075
  0
LINE
  5
25E
100
AcDbEntity
  8
0
100
AcDbLine
 62
9
  6
CONTINUOUS
 10
10.5515049022
 20
9.1271536923
 11
10.5231759822
 21
9.1271541731
  0
LINE
  5
25F
100
AcDbEntity
  8
0
100
AcDbLine
 62
9
  6
CONTINUOUS
 10
10.4926071192
 20
9.1271535861
 11
10.4660636223
 21
9.1271538833
  0
LINE
  5
260
100
AcDbEntity
  8
0
100
AcDbLine
 62
9
  6
CONTINUOUS
 10
10.6133542803
 20
9.127153849
 11
10.5837684053
 21
9.1271546101
  0
LINE
  5
261
100
AcDbEntity
  8
0
100
AcDbLine
 62
9
  6
CONTINUOUS
 10
10.2488093827
 20
9.1271538651
 11
10.2436352154
 21
9.1271538871
  0
LINE
  5
262
100
AcDbEntity
  8
0
100
AcDbLine
 62
9
  6
CONTINUOUS
 10
10.6450268912
 20
9.1271536021
 11
10.6150184117
 21
9.1271541559
  0
LINE
  5
263
100
AcDbEntity
  8
0
100
AcDbLine
 62
9
  6
CONTINUOUS
 10
10.6770038726
 20
9.127153964
 11
10.6467121015
 21
9.1271550104
  0
LINE
  5
264
100
AcDbEntity
  8
0
100
AcDbLine
 62
9
  6
CONTINUOUS
 10
10.7091330553
 20
9.1271535993
 11
10.6786992742
 21
9.1271538828
  0
LINE
  5
265
100
AcDbEntity
  8
0
100
AcDbLine
 62
9
  6
CONTINUOUS
 10
10.7732555334
 20
9.1271536739
 11
10.7429633457
 21
9.1271541454
  0
LINE
  5
266
100
AcDbEntity
  8
0
100
AcDbLine
 62
9
  6
CONTINUOUS
 10
10.7412674463
 20
9.1271538886
 11
10.7108340893
 21
9.1271549007
  0
LINE
  5
267
100
AcDbEntity
  8
0
100
AcDbLine
 62
9
  6
CONTINUOUS
 10
10.2660358609
 20
9.1271538992
 11
10.2568234795
 21
9.1271540563
  0
LINE
  5
268
100
AcDbEntity
  8
0
100
AcDbLine
 62
9
  6
CONTINUOUS
 10
10.2777764845
 20
9.1271538412
 11
10.2666049318
 21
9.1271539128
  0
LINE
  5
269
100
AcDbEntity
  8
0
100
AcDbLine
 62
9
  6
CONTINUOUS
 10
10.9258495954
 20
9.1271535806
 11
10.8983497706
 21
9.1271538816
  0
LINE
  5
26A
100
AcDbEntity
  8
0
100
AcDbLine
 62
9
  6
CONTINUOUS
 10
11.1276527828
 20
9.127153807
 11
11.1127279175
 21
9.1271538896
  0
LINE
  5
26B
100
AcDbEntity
  8
0
100
AcDbLine
 62
9
  6
CONTINUOUS
 10
10.8668597505
 20
9.1271536217
 11
10.8378355907
 21
9.1271541068
  0
LINE
  5
26C
100
AcDbEntity
  8
0
100
AcDbLine
 62
9
  6
CONTINUOUS
 10
10.8049480514
 20
9.1271537259
 11
10.7749400494
 21
9.1271546475
  0
LINE
  5
26D
100
AcDbEntity
  8
0
100
AcDbLine
 62
9
  6
CONTINUOUS
 10
10.2434038152
 20
9.127153894
 11
10.2402896368
 21
9.1271538951
  0
LINE
  5
26E
100
AcDbEntity
  8
0
100
AcDbLine
 62
9
  6
CONTINUOUS
 10
10.8361988761
 20
9.1271538676
 11
10.8066134495
 21
9.12715469
  0
LINE
  5
26F
100
AcDbEntity
  8
0
100
AcDbLine
 62
9
  6
CONTINUOUS
 10
11.0941630074
 20
9.1271537095
 11
11.0757630619
 21
9.1271539435
  0
LINE
  5
270
100
AcDbEntity
  8
0
100
AcDbLine
 62
9
  6
CONTINUOUS
 10
11.1631432894
 20
9.1271538425
 11
11.1539311816
 21
9.1271539438
  0
LINE
  5
271
100
AcDbEntity
  8
0
100
AcDbLine
 62
9
  6
CONTINUOUS
 10
11.1808329787
 20
9.1271538874
 11
11.1765631585
 21
9.1271538858
  0
LINE
  5
272
100
AcDbEntity
  8
0
100
AcDbLine
 62
9
  6
CONTINUOUS
 10
10.9808187208
 20
9.1271536858
 11
10.9553557109
 21
9.1271541835
  0
LINE
  5
273
100
AcDbEntity
  8
0
100
AcDbLine
 62
9
  6
CONTINUOUS
 10
11.1763317799
 20
9.1271538996
 11
11.1711576932
 21
9.1271539573
  0
LINE
  5
274
100
AcDbEntity
  8
0
100
AcDbLine
 62
9
  6
CONTINUOUS
 10
10.3072390119
 20
9.1271538767
 11
10.2923139494
 21
9.1271541442
  0
LINE
  5
275
100
AcDbEntity
  8
0
100
AcDbLine
 62
9
  6
CONTINUOUS
 10
11.0535167621
 20
9.1271537097
 11
11.0319845197
 21
9.1271540651
  0
LINE
  5
276
100
AcDbEntity
  8
0
100
AcDbLine
 62
9
  6
CONTINUOUS
 10
10.8967911458
 20
9.1271539588
 11
10.8684632677
 21
9.1271549222
  0
LINE
  5
277
100
AcDbEntity
  8
0
100
AcDbLine
 62
9
  6
CONTINUOUS
 10
11.1533620075
 20
9.1271538839
 11
11.1421906236
 21
9.127153994
  0
LINE
  5
278
100
AcDbEntity
  8
0
100
AcDbLine
 62
9
  6
CONTINUOUS
 10
10.9539031077
 20
9.1271538846
 11
10.9273607167
 21
9.1271549739
  0
LINE
  5
279
100
AcDbEntity
  8
0
100
AcDbLine
 62
9
  6
CONTINUOUS
 10
11.1708118534
 20
9.1271538787
 11
11.1636020445
 21
9.1271540422
  0
LINE
  5
27A
100
AcDbEntity
  8
0
100
AcDbLine
 62
9
  6
CONTINUOUS
 10
11.0064712079
 20
9.1271537289
 11
10.9822082874
 21
9.1271546161
  0
LINE
  5
27B
100
AcDbEntity
  8
0
100
AcDbLine
 62
9
  6
CONTINUOUS
 10
11.0307422474
 20
9.1271538791
 11
11.0077911325
 21
9.1271546774
  0
LINE
  5
27C
100
AcDbEntity
  8
0
100
AcDbLine
 62
9
  6
CONTINUOUS
 10
11.0746905679
 20
9.1271539184
 11
11.0546781821
 21
9.1271545936
  0
LINE
  5
27D
100
AcDbEntity
  8
0
100
AcDbLine
 62
9
  6
CONTINUOUS
 10
11.1415134193
 20
9.1271538733
 11
11.1284351049
 21
9.1271541793
  0
LINE
  5
27E
100
AcDbEntity
  8
0
100
AcDbLine
 62
9
  6
CONTINUOUS
 10
11.1118450074
 20
9.1271539334
 11
11.0951436939
 21
9.1271541616
  0
LINE
  5
27F
100
AcDbEntity
  8
0
100
AcDbLine
 62
9
  6
CONTINUOUS
 10
10.2392617772
 20
9.1271538709
 11
10.2391339715
 21
9.1271539174
  0
LINE
  5
280
100
AcDbEntity
  8
0
100
AcDbLine
 62
7
  6
CONTINUOUS
 10
10.8673769069
 20
9.1263527564
 11
10.8673769069
 21
9.2097051502
  0
LINE
  5
281
100
AcDbEntity
  8
0
100
AcDbLine
 62
7
  6
CONTINUOUS
 10
10.8886075288
 20
9.1818278347
 11
10.8886075288
 21
9.1544648634
  0
LINE
  5
282
100
AcDbEntity
  8
0
100
AcDbLine
 62
7
  6
CONTINUOUS
 10
10.8972320014
 20
9.1263522253
 11
10.8972320014
 21
9.2097051502
  0
LINE
  5
283
100
AcDbEntity
  8
0
100
AcDbLine
 62
7
  6
CONTINUOUS
 10
10.9191021625
 20
9.1818278347
 11
10.9191021625
 21
9.1544648634
  0
LINE
  5
284
100
AcDbEntity
  8
0
100
AcDbLine
 62
7
  6
CONTINUOUS
 10
10.9262140569
 20
9.1263527683
 11
10.9262140569
 21
9.2097051502
  0
LINE
  5
285
100
AcDbEntity
  8
0
100
AcDbLine
 62
7
  6
CONTINUOUS
 10
10.9486217885
 20
9.1818278347
 11
10.9486217885
 21
9.1544648634
  0
LINE
  5
286
100
AcDbEntity
  8
0
100
AcDbLine
 62
7
  6
CONTINUOUS
 10
10.9541879457
 20
9.1263523946
 11
10.9541879457
 21
9.2097051502
  0
LINE
  5
287
100
AcDbEntity
  8
0
100
AcDbLine
 62
7
  6
CONTINUOUS
 10
10.9749834891
 20
9.7970031635
 11
10.9749834891
 21
9.412803127
  0
LINE
  5
288
100
AcDbEntity
  8
0
100
AcDbLine
 62
7
  6
CONTINUOUS
 10
10.9770287725
 20
9.1818278347
 11
10.9770287725
 21
9.1544648634
  0
LINE
  5
289
100
AcDbEntity
  8
0
100
AcDbLine
 62
7
  6
CONTINUOUS
 10
10.9810232405
 20
9.126352576
 11
10.9810232405
 21
9.2097051502
  0
LINE
  5
28A
100
AcDbEntity
  8
0
100
AcDbLine
 62
7
  6
CONTINUOUS
 10
11.1754320216
 20
10.5043748734
 11
11.1651688813
 21
10.4277620921
  0
LINE
  5
28B
100
AcDbEntity
  8
0
100
AcDbLine
 62
7
  6
CONTINUOUS
 10
11.1309839059
 20
9.2228032963
 11
11.1423765535
 21
9.2239870807
  0
LINE
  5
28C
100
AcDbEntity
  8
0
100
AcDbLine
 62
7
  6
CONTINUOUS
 10
10.2775904248
 20
9.2239870807
 11
11.1423765535
 21
9.2239870807
  0
LINE
  5
28D
100
AcDbEntity
  8
0
100
AcDbLine
 62
7
  6
CONTINUOUS
 10
10.2889830723
 20
9.2228032963
 11
10.2775904248
 21
9.2239870807
  0
LINE
  5
28E
100
AcDbEntity
  8
0
100
AcDbLine
 62
7
  6
CONTINUOUS
 10
11.0041906681
 20
9.1818278347
 11
11.0041906681
 21
9.1544648634
  0
LINE
  5
28F
100
AcDbEntity
  8
0
100
AcDbLine
 62
7
  6
CONTINUOUS
 10
11.006594823
 20
9.1263526434
 11
11.006594823
 21
9.2097051502
  0
LINE
  5
290
100
AcDbEntity
  8
0
100
AcDbLine
 62
7
  6
CONTINUOUS
 10
11.0299808341
 20
9.1818278347
 11
11.0299808341
 21
9.1544648634
  0
LINE
  5
291
100
AcDbEntity
  8
0
100
AcDbLine
 62
7
  6
CONTINUOUS
 10
11.0307834664
 20
9.126352302
 11
11.0307834664
 21
9.2097051502
  0
LINE
  5
292
100
AcDbEntity
  8
0
100
AcDbLine
 62
7
  6
CONTINUOUS
 10
11.0529834891
 20
9.375563127
 11
11.0529834891
 21
9.2239870807
  0
LINE
  5
293
100
AcDbEntity
  8
0
100
AcDbLine
 62
7
  6
CONTINUOUS
 10
11.0542790247
 20
9.1818278347
 11
11.0542790247
 21
9.1544648634
  0
LINE
  5
294
100
AcDbEntity
  8
0
100
AcDbLine
 62
7
  6
CONTINUOUS
 10
11.0769719506
 20
9.1818278347
 11
11.0769719506
 21
9.1544648634
  0
LINE
  5
295
100
AcDbEntity
  8
0
100
AcDbLine
 62
9
  6
CONTINUOUS
 10
11.0860924427
 20
10.2601929362
 11
11.0860924427
 21
10.0505879438
  0
LINE
  5
296
100
AcDbEntity
  8
0
100
AcDbLine
 62
7
  6
CONTINUOUS
 10
11.0979538069
 20
9.1818278347
 11
11.0979538069
 21
9.1544648634
  0
LINE
  5
297
100
AcDbEntity
  8
0
100
AcDbLine
 62
7
  6
CONTINUOUS
 10
11.1171267664
 20
9.1818278347
 11
11.1171267664
 21
9.1544648634
  0
LINE
  5
298
100
AcDbEntity
  8
0
100
AcDbLine
 62
7
  6
CONTINUOUS
 10
11.1344014361
 20
9.1818278347
 11
11.1344014361
 21
9.1544648634
  0
LINE
  5
299
100
AcDbEntity
  8
0
100
AcDbLine
 62
9
  6
CONTINUOUS
 10
11.0529834891
 20
9.375563127
 11
10.3669834891
 21
9.375563127
  0
LINE
  5
29A
100
AcDbEntity
  8
0
100
AcDbLine
 62
7
  6
CONTINUOUS
 10
11.0157434891
 20
9.412803127
 11
10.4042234891
 21
9.412803127
  0
LINE
  5
29B
100
AcDbEntity
  8
0
100
AcDbLine
 62
7
  6
CONTINUOUS
 10
11.1496972734
 20
9.1818278347
 11
11.1496972734
 21
9.1544648634
  0
LINE
  5
29C
100
AcDbEntity
  8
0
100
AcDbLine
 62
7
  6
CONTINUOUS
 10
11.162942962
 20
9.1818278347
 11
11.162942962
 21
9.1544648634
  0
LINE
  5
29D
100
AcDbEntity
  8
0
100
AcDbLine
 62
7
  6
CONTINUOUS
 10
11.1740767445
 20
9.1818278347
 11
11.1740767445
 21
9.1544648634
  0
LINE
  5
29E
100
AcDbEntity
  8
0
100
AcDbLine
 62
7
  6
CONTINUOUS
 10
11.18304671
 20
9.1818278347
 11
11.18304671
 21
9.1544648634
  0
LINE
  5
29F
100
AcDbEntity
  8
0
100
AcDbLine
 62
7
  6
CONTINUOUS
 10
11.1898110363
 20
9.1818278347
 11
11.1898110363
 21
9.1544648634
  0
LINE
  5
2A0
100
AcDbEntity
  8
0
100
AcDbLine
 62
7
  6
CONTINUOUS
 10
11.1943381852
 20
9.1818278347
 11
11.1943381852
 21
9.1544648634
  0
LINE
  5
2A1
100
AcDbEntity
  8
0
100
AcDbLine
 62
7
  6
CONTINUOUS
 10
11.1966070489
 20
9.1818278347
 11
11.1966070489
 21
9.1544648634
  0
LINE
  5
2A2
100
AcDbEntity
  8
0
100
AcDbLine
 62
7
  6
CONTINUOUS
 10
11.1999834891
 20
7.8928031635
 11
11.1999834891
 21
7.8828031635
  0
LINE
  5
2A3
100
AcDbEntity
  8
0
100
AcDbLine
 62
7
  6
CONTINUOUS
 10
11.2224834891
 20
8.1572267601
 11
11.2224834891
 21
7.8928031635
  0
LINE
  5
2A4
100
AcDbEntity
  8
0
100
AcDbLine
 62
7
  6
CONTINUOUS
 10
10.3878944797
 20
9.7970031635
 11
11.0320719008
 21
9.7970031635
  0
LINE
  5
2A5
100
AcDbEntity
  8
0
100
AcDbLine
 62
9
  6
CONTINUOUS
 10
10.3585167064
 20
9.8449577248
 11
11.0614502719
 21
9.8449577248
  0
LINE
  5
2A6
100
AcDbEntity
  8
0
100
AcDbLine
 62
7
  6
CONTINUOUS
 10
9.7797554654
 20
7.6086920964
 11
9.7118572186
 21
7.5766667301
  0
LINE
  5
2A7
100
AcDbEntity
  8
0
100
AcDbLine
 62
9
  6
CONTINUOUS
 10
10.3672555426
 20
9.9102145919
 11
10.6031767896
 21
9.9102145123
  0
LINE
  5
2A8
100
AcDbEntity
  8
0
100
AcDbLine
 62
9
  6
CONTINUOUS
 10
10.8167901876
 20
9.910214512
 11
11.0527114356
 21
9.9102145919
  0
LINE
  5
2A9
100
AcDbEntity
  8
0
100
AcDbLine
 62
7
  6
CONTINUOUS
 10
10.3338745355
 20
10.0505879438
 11
10.3377951257
 21
10.0513694134
  0
LINE
  5
2AA
100
AcDbEntity
  8
0
100
AcDbLine
 62
7
  6
CONTINUOUS
 10
10.3338745355
 20
10.0505879438
 11
9.5572708294
 21
9.9490031635
  0
LINE
  5
2AB
100
AcDbEntity
  8
0
100
AcDbLine
 62
7
  6
CONTINUOUS
 10
11.0860924427
 20
10.0505879438
 11
11.8626961488
 21
9.9490031635
  0
LINE
  5
2AC
100
AcDbEntity
  8
0
100
AcDbLine
 62
7
  6
CONTINUOUS
 10
11.0860924427
 20
10.0505879438
 11
11.0821718526
 21
10.0513694134
  0
LINE
  5
2AD
100
AcDbEntity
  8
0
100
AcDbLine
 62
7
  6
CONTINUOUS
 10
11.8626961488
 20
10.5465031635
 11
11.8626961488
 21
9.9215031635
  0
LINE
  5
2AE
100
AcDbEntity
  8
0
100
AcDbLine
 62
9
  6
CONTINUOUS
 10
11.9226035307
 20
9.9191476359
 11
11.9226035307
 21
10.5488586911
  0
LINE
  5
2AF
100
AcDbEntity
  8
0
100
AcDbLine
 62
7
  6
CONTINUOUS
 10
11.1651688813
 20
10.4277620921
 11
11.8626961488
 21
10.5190031635
  0
LINE
  5
2B0
100
AcDbEntity
  8
0
100
AcDbLine
 62
9
  6
CONTINUOUS
 10
11.150301049
 20
10.4023132676
 11
11.0065064846
 21
10.4023132676
  0
LINE
  5
2B1
100
AcDbEntity
  8
0
100
AcDbLine
 62
9
  6
CONTINUOUS
 10
10.2696659293
 20
10.4023132676
 11
10.4134604937
 21
10.4023132676
  0
LINE
  5
2B2
100
AcDbEntity
  8
0
100
AcDbLine
 62
7
  6
CONTINUOUS
 10
10.254798097
 20
10.4277620921
 11
9.5572708294
 21
10.5190031635
  0
LINE
  5
2B3
100
AcDbEntity
  8
0
100
AcDbLine
 62
9
  6
CONTINUOUS
 10
11.1754317565
 20
10.5043748765
 11
10.9178207904
 21
10.5043749028
  0
LINE
  5
2B4
100
AcDbEntity
  8
0
100
AcDbLine
 62
9
  6
CONTINUOUS
 10
10.502146189
 20
10.5043749037
 11
10.2445352217
 21
10.5043748765
  0
LINE
  5
2B5
100
AcDbEntity
  8
0
100
AcDbLine
 62
7
  6
CONTINUOUS
 10
10.2405257952
 20
10.6219635508
 11
10.3858180785
 21
10.6407706692
  0
LINE
  5
2B6
100
AcDbEntity
  8
0
100
AcDbLine
 62
9
  6
CONTINUOUS
 10
11.202051345
 20
10.5648904209
 11
10.7933886662
 21
10.5648905889
  0
LINE
  5
2B7
100
AcDbEntity
  8
0
100
AcDbLine
 62
9
  6
CONTINUOUS
 10
10.6265782548
 20
10.5648905716
 11
10.2179156333
 21
10.5648904209
  0
LINE
  5
2B8
100
AcDbEntity
  8
0
100
AcDbLine
 62
9
  6
CONTINUOUS
 10
10.2405257952
 20
10.6219635508
 11
11.1794411831
 21
10.6219635508
  0
LINE
  5
2B9
100
AcDbEntity
  8
0
100
AcDbLine
 62
9
  6
CONTINUOUS
 10
10.3858179491
 20
10.6407706449
 11
11.0341490292
 21
10.6407706449
  0
LINE
  5
2BA
100
AcDbEntity
  8
0
100
AcDbLine
 62
7
  6
CONTINUOUS
 10
11.1794411831
 20
10.6219635508
 11
11.0341488998
 21
10.6407706692
  0
ARC
  5
2BB
100
AcDbEntity
  8
0
100
AcDbCircle
 62
7
  6
CONTINUOUS
 10
8.5326930723
 20
8.8738031573
 40
2.6389999969
100
AcDbArc
 50
351.1934452325
 51
357.6954064276
  0
ARC
  5
2BC
100
AcDbEntity
  8
0
100
AcDbCircle
 62
7
  6
CONTINUOUS
 10
7.8009525427
 20
8.0858031661
 40
2.5080000028
100
AcDbArc
 50
5.1872496666
 51
8.8065547675
  0
ARC
  5
2BD
100
AcDbEntity
  8
0
100
AcDbCircle
 62
7
  6
CONTINUOUS
 10
9.3360427774
 20
8.841472789
 40
1.834999996
100
AcDbArc
 50
357.6954064276
 51
6.950793304
  0
ARC
  5
2BE
100
AcDbEntity
  8
0
100
AcDbCircle
 62
7
  6
CONTINUOUS
 10
10.1781647544
 20
7.2785414298
 40
0.6078409296
100
AcDbArc
 50
159.6970355868
 51
173.3643665395
  0
ARC
  5
2BF
100
AcDbEntity
  8
0
100
AcDbCircle
 62
7
  6
CONTINUOUS
 10
9.5666192818
 20
8.0486237608
 40
0.4888424103
100
AcDbArc
 50
295.8490587858
 51
321.3390445145
  0
ARC
  5
2C0
100
AcDbEntity
  8
0
100
AcDbCircle
 62
7
  6
CONTINUOUS
 10
10.0874397342
 20
8.5687682196
 40
0.4260000011
100
AcDbArc
 50
284.9703215056
 51
285.5173434455
  0
ARC
  5
2C1
100
AcDbEntity
  8
0
100
AcDbCircle
 62
7
  6
CONTINUOUS
 10
9.6563464383
 20
7.9768390891
 40
0.3739337434
100
AcDbArc
 50
321.3390445146
 51
345.43503933
  0
ARC
  5
2C2
100
AcDbEntity
  8
0
100
AcDbCircle
 62
7
  6
CONTINUOUS
 10
9.8678411385
 20
7.2368204984
 40
0.3739337434
100
AcDbArc
 50
114.6543569553
 51
127.2907938915
  0
ARC
  5
2C3
100
AcDbEntity
  8
0
100
AcDbCircle
 62
7
  6
CONTINUOUS
 10
9.9819834918
 20
8.2838031653
 40
0.3180000027
100
AcDbArc
 50
350.3302611379
 51
5.1872496666
  0
ARC
  5
2C4
100
AcDbEntity
  8
0
100
AcDbCircle
 62
7
  6
CONTINUOUS
 10
10.1390730345
 20
8.382803164
 40
0.2330000021
100
AcDbArc
 50
285.5173434455
 51
303.859188203
  0
ARC
  5
2C5
100
AcDbEntity
  8
0
100
AcDbCircle
 62
7
  6
CONTINUOUS
 10
9.7018754823
 20
7.4547541965
 40
0.1
100
AcDbArc
 50
127.2907938916
 51
159.6970355868
  0
ARC
  5
2C6
100
AcDbEntity
  8
0
100
AcDbCircle
 62
7
  6
CONTINUOUS
 10
10.2343463248
 20
8.2408031653
 40
0.0620000037
100
AcDbArc
 50
303.859188203
 51
350.330261138
  0
ARC
  5
2C7
100
AcDbEntity
  8
0
100
AcDbCircle
 62
7
  6
CONTINUOUS
 10
7.9249834891
 20
10.2340031635
 40
4.01
100
AcDbArc
 50
355.4966382723
 51
4.5033617277
  0
ARC
  5
2C8
100
AcDbEntity
  8
0
100
AcDbCircle
 62
7
  6
CONTINUOUS
 10
10.1681709207
 20
9.099587069
 40
0.1792379456
100
AcDbArc
 50
8.5880220237
 51
8.8473043753
  0
ARC
  5
2C9
100
AcDbEntity
  8
0
100
AcDbCircle
 62
7
  6
CONTINUOUS
 10
10.2161545693
 20
9.0987920612
 40
0.113257562
100
AcDbArc
 50
14.0839383393
 51
14.5025155799
  0
ARC
  5
2CA
100
AcDbEntity
  8
0
100
AcDbCircle
 62
7
  6
CONTINUOUS
 10
10.286302587
 20
9.0395011178
 40
0.1050502535
100
AcDbArc
 50
55.7672890657
 51
56.5524992347
  0
ARC
  5
2CB
100
AcDbEntity
  8
0
100
AcDbCircle
 62
7
  6
CONTINUOUS
 10
10.2671088042
 20
9.0405955748
 40
0.1040351974
100
AcDbArc
 50
55.5182746697
 51
56.3060968927
  0
ARC
  5
2CC
100
AcDbEntity
  8
0
100
AcDbCircle
 62
7
  6
CONTINUOUS
 10
10.2498503362
 20
9.0423065582
 40
0.1024328794
100
AcDbArc
 50
55.134445363
 51
55.9266469548
  0
ARC
  5
2CD
100
AcDbEntity
  8
0
100
AcDbCircle
 62
7
  6
CONTINUOUS
 10
10.2345220048
 20
9.044461248
 40
0.1004400606
100
AcDbArc
 50
54.6193159416
 51
55.416780634
  0
ARC
  5
2CE
100
AcDbEntity
  8
0
100
AcDbCircle
 62
7
  6
CONTINUOUS
 10
10.2212079613
 20
9.0470727239
 40
0.0980456721
100
AcDbArc
 50
53.9592383805
 51
54.7631762075
  0
ARC
  5
2CF
100
AcDbEntity
  8
0
100
AcDbCircle
 62
7
  6
CONTINUOUS
 10
10.209986077
 20
9.0501298339
 40
0.0952587888
100
AcDbArc
 50
53.1455094533
 51
53.956935064
  0
ARC
  5
2D0
100
AcDbEntity
  8
0
100
AcDbCircle
 62
7
  6
CONTINUOUS
 10
10.2008433165
 20
9.0535073742
 40
0.0922303697
100
AcDbArc
 50
52.1682277479
 51
52.9875716027
  0
ARC
  5
2D1
100
AcDbEntity
  8
0
100
AcDbCircle
 62
7
  6
CONTINUOUS
 10
10.2229069848
 20
9.0964524547
 40
0.0905767369
100
AcDbArc
 50
19.2751544208
 51
19.8131931561
  0
ARC
  5
2D2
100
AcDbEntity
  8
0
100
AcDbCircle
 62
7
  6
CONTINUOUS
 10
10.1938252573
 20
9.057190942
 40
0.0889832868
100
AcDbArc
 50
51.0085220044
 51
51.8361796607
  0
ARC
  5
2D3
100
AcDbEntity
  8
0
100
AcDbCircle
 62
7
  6
CONTINUOUS
 10
10.1889350628
 20
9.0611120142
 40
0.0856056635
100
AcDbArc
 50
49.6498161003
 51
50.4855279435
  0
ARC
  5
2D4
100
AcDbEntity
  8
0
100
AcDbCircle
 62
7
  6
CONTINUOUS
 10
10.1861315075
 20
9.0651731206
 40
0.0822321597
100
AcDbArc
 50
48.0715857866
 51
48.9142373432
  0
ARC
  5
2D5
100
AcDbEntity
  8
0
100
AcDbCircle
 62
7
  6
CONTINUOUS
 10
10.1853761413
 20
9.0693120085
 40
0.0789654971
100
AcDbArc
 50
46.2483168307
 51
47.0958478683
  0
ARC
  5
2D6
100
AcDbEntity
  8
0
100
AcDbCircle
 62
7
  6
CONTINUOUS
 10
10.2214330655
 20
9.0945212701
 40
0.0780319018
100
AcDbArc
 50
24.074481428
 51
24.7208421103
  0
ARC
  5
2D7
100
AcDbEntity
  8
0
100
AcDbCircle
 62
7
  6
CONTINUOUS
 10
10.1865881348
 20
9.0734510028
 40
0.0759461118
100
AcDbArc
 50
44.1518678796
 51
45.0007339369
  0
ARC
  5
2D8
100
AcDbEntity
  8
0
100
AcDbCircle
 62
7
  6
CONTINUOUS
 10
10.188478356
 20
9.0725520691
 40
0.0744800316
100
AcDbArc
 50
353.0491731634
 51
46.24851079
  0
ARC
  5
2D9
100
AcDbEntity
  8
0
100
AcDbCircle
 62
7
  6
CONTINUOUS
 10
10.1896435698
 20
9.0775128963
 40
0.073343624
100
AcDbArc
 50
41.7512047155
 51
42.5960308013
  0
ARC
  5
2DA
100
AcDbEntity
  8
0
100
AcDbCircle
 62
7
  6
CONTINUOUS
 10
10.2152067405
 20
9.0918438511
 40
0.0724356561
100
AcDbArc
 50
28.4506562045
 51
29.1743080419
  0
ARC
  5
2DB
100
AcDbEntity
  8
0
100
AcDbCircle
 62
7
  6
CONTINUOUS
 10
10.1943563237
 20
9.0814214923
 40
0.0713745429
100
AcDbArc
 50
39.0137659942
 51
39.8467985864
  0
ARC
  5
2DC
100
AcDbEntity
  8
0
100
AcDbCircle
 62
7
  6
CONTINUOUS
 10
10.2074036006
 20
9.0884667293
 40
0.0707210141
100
AcDbArc
 50
32.3916407628
 51
33.1639601566
  0
ARC
  5
2DD
100
AcDbEntity
  8
0
100
AcDbCircle
 62
7
  6
CONTINUOUS
 10
10.2004400344
 20
9.0851045386
 40
0.0703365099
100
AcDbArc
 50
35.9044065987
 51
36.7147307009
  0
ARC
  5
2DE
100
AcDbEntity
  8
0
100
AcDbCircle
 62
7
  6
CONTINUOUS
 10
10.2025348958
 20
9.1632687571
 40
0.8517896276
100
AcDbArc
 50
358.2603160199
 51
359.4077939903
  0
ARC
  5
2DF
100
AcDbEntity
  8
0
100
AcDbCircle
 62
7
  6
CONTINUOUS
 10
10.2862026824
 20
9.1679699269
 40
0.0620611215
100
AcDbArc
 50
192.5686414014
 51
193.8412752793
  0
ARC
  5
2E0
100
AcDbEntity
  8
0
100
AcDbCircle
 62
7
  6
CONTINUOUS
 10
10.2800890576
 20
9.1680733949
 40
0.0583385474
100
AcDbArc
 50
193.4895647088
 51
194.2172297282
  0
ARC
  5
2E1
100
AcDbEntity
  8
0
100
AcDbCircle
 62
7
  6
CONTINUOUS
 10
10.2822231812
 20
9.1687772481
 40
0.0580796228
100
AcDbArc
 50
165.6088849399
 51
167.0146657059
  0
ARC
  5
2E2
100
AcDbEntity
  8
0
100
AcDbCircle
 62
7
  6
CONTINUOUS
 10
10.2776551387
 20
9.1663691333
 40
0.0576205062
100
AcDbArc
 50
95.7716477385
 51
100.1271487649
  0
ARC
  5
2E3
100
AcDbEntity
  8
0
100
AcDbCircle
 62
7
  6
CONTINUOUS
 10
10.2775883962
 20
9.1666767853
 40
0.0573059131
100
AcDbArc
 50
100.1155435571
 51
113.2935868874
  0
ARC
  5
2E4
100
AcDbEntity
  8
0
100
AcDbCircle
 62
7
  6
CONTINUOUS
 10
10.2814818731
 20
9.1692894699
 40
0.057206054
100
AcDbArc
 50
146.3063794917
 51
157.1217665415
  0
ARC
  5
2E5
100
AcDbEntity
  8
0
100
AcDbCircle
 62
7
  6
CONTINUOUS
 10
10.2776004368
 20
9.1669496583
 40
0.0570374232
100
AcDbArc
 50
90.0100573519
 51
95.7756209264
  0
ARC
  5
2E6
100
AcDbEntity
  8
0
100
AcDbCircle
 62
7
  6
CONTINUOUS
 10
10.2778360739
 20
9.1682943856
 40
0.0561242309
100
AcDbArc
 50
144.1884106089
 51
149.3473854778
  0
ARC
  5
2E7
100
AcDbEntity
  8
0
100
AcDbCircle
 62
7
  6
CONTINUOUS
 10
10.2773593087
 20
9.1669652019
 40
0.0560620354
100
AcDbArc
 50
130.3265240258
 51
142.4528884643
  0
ARC
  5
2E8
100
AcDbEntity
  8
0
100
AcDbCircle
 62
7
  6
CONTINUOUS
 10
10.2767513175
 20
9.1691263015
 40
0.0556743814
100
AcDbArc
 50
221.62285313
 51
228.9288593466
  0
ARC
  5
2E9
100
AcDbEntity
  8
0
100
AcDbCircle
 62
7
  6
CONTINUOUS
 10
10.2770059589
 20
9.1672039938
 40
0.0556363642
100
AcDbArc
 50
142.4261033161
 51
153.9171680373
  0
ARC
  5
2EA
100
AcDbEntity
  8
0
100
AcDbCircle
 62
7
  6
CONTINUOUS
 10
10.2773044643
 20
9.1684476374
 40
0.0556327769
100
AcDbArc
 50
131.1911035264
 51
132.1320573906
  0
ARC
  5
2EB
100
AcDbEntity
  8
0
100
AcDbCircle
 62
7
  6
CONTINUOUS
 10
10.2772369475
 20
9.1682410784
 40
0.0556104053
100
AcDbArc
 50
194.3430655803
 51
195.0527156445
  0
ARC
  5
2EC
100
AcDbEntity
  8
0
100
AcDbCircle
 62
7
  6
CONTINUOUS
 10
10.276910519
 20
9.1683878467
 40
0.0554662838
100
AcDbArc
 50
113.3493709856
 51
116.5949116471
  0
ARC
  5
2ED
100
AcDbEntity
  8
0
100
AcDbCircle
 62
7
  6
CONTINUOUS
 10
10.2769522674
 20
9.1681547265
 40
0.0553130679
100
AcDbArc
 50
195.0429213798
 51
200.7214710189
  0
ARC
  5
2EE
100
AcDbEntity
  8
0
100
AcDbCircle
 62
7
  6
CONTINUOUS
 10
10.276955493
 20
9.1688508476
 40
0.0550995315
100
AcDbArc
 50
128.3212028974
 51
131.1941569336
  0
ARC
  5
2EF
100
AcDbEntity
  8
0
100
AcDbCircle
 62
7
  6
CONTINUOUS
 10
10.2763117462
 20
9.1686906844
 40
0.0545571225
100
AcDbArc
 50
165.2681220032
 51
166.0664597946
  0
ARC
  5
2F0
100
AcDbEntity
  8
0
100
AcDbCircle
 62
7
  6
CONTINUOUS
 10
10.2765942821
 20
9.1692707707
 40
0.0545462116
100
AcDbArc
 50
132.1588643942
 51
144.3984973704
  0
ARC
  5
2F1
100
AcDbEntity
  8
0
100
AcDbCircle
 62
7
  6
CONTINUOUS
 10
10.2756712916
 20
9.167880779
 40
0.0541400621
100
AcDbArc
 50
153.9394425629
 51
164.2193893457
  0
ARC
  5
2F2
100
AcDbEntity
  8
0
100
AcDbCircle
 62
7
  6
CONTINUOUS
 10
10.2758425418
 20
9.1666616833
 40
0.0539296841
100
AcDbArc
 50
219.7927192839
 51
227.1033622913
  0
ARC
  5
2F3
100
AcDbEntity
  8
0
100
AcDbCircle
 62
7
  6
CONTINUOUS
 10
10.2762243155
 20
9.1697866428
 40
0.0539119758
100
AcDbArc
 50
116.580306611
 51
128.3282329504
  0
ARC
  5
2F4
100
AcDbEntity
  8
0
100
AcDbCircle
 62
7
  6
CONTINUOUS
 10
10.2770095479
 20
9.1683498578
 40
0.0532237119
100
AcDbArc
 50
195.1268465576
 51
201.8008401243
  0
ARC
  5
2F5
100
AcDbEntity
  8
0
100
AcDbCircle
 62
7
  6
CONTINUOUS
 10
10.2750976012
 20
9.1660201235
 40
0.0529466944
100
AcDbArc
 50
216.5964759281
 51
219.7752091132
  0
ARC
  5
2F6
100
AcDbEntity
  8
0
100
AcDbCircle
 62
7
  6
CONTINUOUS
 10
10.2776688685
 20
9.164534475
 40
0.0528634335
100
AcDbArc
 50
224.2449466472
 51
225.0010443614
  0
ARC
  5
2F7
100
AcDbEntity
  8
0
100
AcDbCircle
 62
7
  6
CONTINUOUS
 10
10.2745658907
 20
9.1656189142
 40
0.0522806175
100
AcDbArc
 50
214.4744639367
 51
216.5908650015
  0
ARC
  5
2F8
100
AcDbEntity
  8
0
100
AcDbCircle
 62
7
  6
CONTINUOUS
 10
10.2772294323
 20
9.1641194408
 40
0.0522590575
100
AcDbArc
 50
213.1498966306
 51
224.255133441
  0
ARC
  5
2F9
100
AcDbEntity
  8
0
100
AcDbCircle
 62
7
  6
CONTINUOUS
 10
10.2757510599
 20
9.1677051363
 40
0.0520760491
100
AcDbArc
 50
152.4254218113
 51
162.4056585842
  0
ARC
  5
2FA
100
AcDbEntity
  8
0
100
AcDbCircle
 62
7
  6
CONTINUOUS
 10
10.2742694204
 20
9.165413464
 40
0.051919921
100
AcDbArc
 50
212.640931178
 51
214.4727479087
  0
ARC
  5
2FB
100
AcDbEntity
  8
0
100
AcDbCircle
 62
7
  6
CONTINUOUS
 10
10.2734656907
 20
9.1685772905
 40
0.0518282186
100
AcDbArc
 50
164.2972567077
 51
165.1871410579
  0
ARC
  5
2FC
100
AcDbEntity
  8
0
100
AcDbCircle
 62
7
  6
CONTINUOUS
 10
10.2797681673
 20
9.168545568
 40
0.0515716894
100
AcDbArc
 50
195.844749054
 51
202.7724791827
  0
ARC
  5
2FD
100
AcDbEntity
  8
0
100
AcDbCircle
 62
7
  6
CONTINUOUS
 10
10.2812329716
 20
9.1617223764
 40
0.0510744417
100
AcDbArc
 50
220.4466217212
 51
222.5963752007
  0
ARC
  5
2FE
100
AcDbEntity
  8
0
100
AcDbCircle
 62
7
  6
CONTINUOUS
 10
10.2850763448
 20
9.1687201568
 40
0.0502217194
100
AcDbArc
 50
196.4899513634
 51
203.6370281541
  0
ARC
  5
2FF
100
AcDbEntity
  8
0
100
AcDbCircle
 62
7
  6
CONTINUOUS
 10
10.287543194
 20
9.1591871169
 40
0.0499979629
100
AcDbArc
 50
216.4443576457
 51
219.8434670207
  0
ARC
  5
300
100
AcDbEntity
  8
0
100
AcDbCircle
 62
7
  6
CONTINUOUS
 10
10.2736355997
 20
9.1684042642
 40
0.049848227
100
AcDbArc
 50
162.4366588841
 51
164.3780477473
  0
ARC
  5
301
100
AcDbEntity
  8
0
100
AcDbCircle
 62
7
  6
CONTINUOUS
 10
10.2764408554
 20
9.1682451675
 40
0.0482367294
100
AcDbArc
 50
160.5269337404
 51
163.6452641726
  0
ARC
  5
302
100
AcDbEntity
  8
0
100
AcDbCircle
 62
7
  6
CONTINUOUS
 10
10.3299611846
 20
9.0389038017
 40
0.1056151659
100
AcDbArc
 50
55.8932211057
 51
56.6768937441
  0
ARC
  5
303
100
AcDbEntity
  8
0
100
AcDbCircle
 62
7
  6
CONTINUOUS
 10
10.3073001843
 20
9.0389529925
 40
0.1055564597
100
AcDbArc
 50
55.8925700586
 51
56.6763169976
  0
ARC
  5
304
100
AcDbEntity
  8
0
100
AcDbCircle
 62
7
  6
CONTINUOUS
 10
10.3542898117
 20
9.0395228085
 40
0.1050242456
100
AcDbArc
 50
55.7670390006
 51
56.5523012086
  0
ARC
  5
305
100
AcDbEntity
  8
0
100
AcDbCircle
 62
7
  6
CONTINUOUS
 10
10.379999016
 20
9.0405183901
 40
0.1041250285
100
AcDbArc
 50
55.521592824
 51
56.3091249491
  0
ARC
  5
306
100
AcDbEntity
  8
0
100
AcDbCircle
 62
7
  6
CONTINUOUS
 10
10.4072392929
 20
9.0423326189
 40
0.1024021262
100
AcDbArc
 50
55.1335676777
 51
55.9259091552
  0
ARC
  5
307
100
AcDbEntity
  8
0
100
AcDbCircle
 62
7
  6
CONTINUOUS
 10
10.3030375144
 20
9.1691352711
 40
0.067324523
100
AcDbArc
 50
160.5712750985
 51
169.1331024323
  0
ARC
  5
308
100
AcDbEntity
  8
0
100
AcDbCircle
 62
7
  6
CONTINUOUS
 10
10.2913934259
 20
9.1688461088
 40
0.0625983598
100
AcDbArc
 50
158.7543614447
 51
168.0310694272
  0
ARC
  5
309
100
AcDbEntity
  8
0
100
AcDbCircle
 62
7
  6
CONTINUOUS
 10
10.3323002403
 20
9.1564719195
 40
0.0613317913
100
AcDbArc
 50
199.9525709092
 51
204.1879955694
  0
ARC
  5
30A
100
AcDbEntity
  8
0
100
AcDbCircle
 62
7
  6
CONTINUOUS
 10
10.3091776453
 20
9.1549547964
 40
0.0508463319
100
AcDbArc
 50
208.1896609
 51
213.1454634661
  0
ARC
  5
30B
100
AcDbEntity
  8
0
100
AcDbCircle
 62
7
  6
CONTINUOUS
 10
10.2967727883
 20
9.1569363581
 40
0.0498292501
100
AcDbArc
 50
212.3259212826
 51
216.7046495604
  0
ARC
  5
30C
100
AcDbEntity
  8
0
100
AcDbCircle
 62
7
  6
CONTINUOUS
 10
10.4042234891
 20
9.375563127
 40
0.03724
100
AcDbArc
 50
90.0
 51
180.0
  0
ARC
  5
30D
100
AcDbEntity
  8
0
100
AcDbCircle
 62
7
  6
CONTINUOUS
 10
10.591861239
 20
9.0993953198
 40
0.1805132532
100
AcDbArc
 50
171.1541409138
 51
171.411581712
  0
ARC
  5
30E
100
AcDbEntity
  8
0
100
AcDbCircle
 62
7
  6
CONTINUOUS
 10
10.5454038928
 20
9.0996529065
 40
0.1097572283
100
AcDbArc
 50
165.4885562178
 51
165.9207807945
  0
ARC
  5
30F
100
AcDbEntity
  8
0
100
AcDbCircle
 62
7
  6
CONTINUOUS
 10
10.4355242737
 20
9.0443424914
 40
0.1005795952
100
AcDbArc
 50
54.6246086041
 51
55.4215815242
  0
ARC
  5
310
100
AcDbEntity
  8
0
100
AcDbCircle
 62
7
  6
CONTINUOUS
 10
10.4650431769
 20
9.0470636228
 40
0.0980563662
100
AcDbArc
 50
53.9597500407
 51
54.763703291
  0
ARC
  5
311
100
AcDbEntity
  8
0
100
AcDbCircle
 62
7
  6
CONTINUOUS
 10
10.4954289919
 20
9.0500822618
 40
0.0953128816
100
AcDbArc
 50
53.1501245607
 51
53.9611598417
  0
ARC
  5
312
100
AcDbEntity
  8
0
100
AcDbCircle
 62
7
  6
CONTINUOUS
 10
10.5265609145
 20
9.0534352283
 40
0.0923176572
100
AcDbArc
 50
52.1717580798
 51
52.9908154992
  0
ARC
  5
313
100
AcDbEntity
  8
0
100
AcDbCircle
 62
7
  6
CONTINUOUS
 10
10.5519796597
 20
9.0962046258
 40
0.0913204571
100
AcDbArc
 50
160.189750715
 51
160.7233488954
  0
ARC
  5
314
100
AcDbEntity
  8
0
100
AcDbCircle
 62
7
  6
CONTINUOUS
 10
10.5583651799
 20
9.0571810898
 40
0.0889943143
100
AcDbArc
 50
51.0099020111
 51
51.837510666
  0
ARC
  5
315
100
AcDbEntity
  8
0
100
AcDbCircle
 62
7
  6
CONTINUOUS
 10
10.5904745257
 20
9.060995084
 40
0.085749975
100
AcDbArc
 50
49.6575563723
 51
50.4926030755
  0
ARC
  5
316
100
AcDbEntity
  8
0
100
AcDbCircle
 62
7
  6
CONTINUOUS
 10
10.6229666577
 20
9.0651787109
 40
0.0822248202
100
AcDbArc
 50
48.0714535113
 51
48.9141956456
  0
ARC
  5
317
100
AcDbEntity
  8
0
100
AcDbCircle
 62
7
  6
CONTINUOUS
 10
10.6553024667
 20
9.0692212584
 40
0.0790823397
100
AcDbArc
 50
46.2554638462
 51
47.1023442145
  0
ARC
  5
318
100
AcDbEntity
  8
0
100
AcDbCircle
 62
7
  6
CONTINUOUS
 10
10.6875480448
 20
9.0734302356
 40
0.0759738402
100
AcDbArc
 50
44.1535450579
 51
45.0023212743
  0
ARC
  5
319
100
AcDbEntity
  8
0
100
AcDbCircle
 62
7
  6
CONTINUOUS
 10
10.5618010934
 20
9.0959658598
 40
0.0745246095
100
AcDbArc
 50
155.2595172047
 51
155.9368573668
  0
ARC
  5
31A
100
AcDbEntity
  8
0
100
AcDbCircle
 62
7
  6
CONTINUOUS
 10
10.7007029189
 20
9.0775005798
 40
0.0733523843
100
AcDbArc
 50
137.3956557459
 51
138.2413995103
  0
ARC
  5
31B
100
AcDbEntity
  8
0
100
AcDbCircle
 62
7
  6
CONTINUOUS
 10
10.5859883594
 20
9.0920813095
 40
0.0719409291
100
AcDbArc
 50
150.8221907232
 51
151.5508874497
  0
ARC
  5
31C
100
AcDbEntity
  8
0
100
AcDbCircle
 62
7
  6
CONTINUOUS
 10
10.669817879
 20
9.0814201344
 40
0.0713762751
100
AcDbArc
 50
140.1526939505
 51
140.9858844223
  0
ARC
  5
31D
100
AcDbEntity
  8
0
100
AcDbCircle
 62
7
  6
CONTINUOUS
 10
10.6401509321
 20
9.0850990083
 40
0.0703396039
100
AcDbArc
 50
143.2807961273
 51
144.0915511001
  0
ARC
  5
31E
100
AcDbEntity
  8
0
100
AcDbCircle
 62
7
  6
CONTINUOUS
 10
10.6100793554
 20
9.0898967722
 40
0.0680738019
100
AcDbArc
 50
146.8169534571
 51
147.6199105847
  0
ARC
  5
31F
100
AcDbEntity
  8
0
100
AcDbCircle
 62
7
  6
CONTINUOUS
 10
10.1448354559
 20
10.4966314126
 40
0.1000000227
100
AcDbArc
 50
4.4411340874
 51
43.0463621627
  0
ARC
  5
320
100
AcDbEntity
  8
0
100
AcDbCircle
 62
7
  6
CONTINUOUS
 10
10.2692954745
 20
9.890119297
 40
0.0999999791
100
AcDbArc
 50
333.152599569
 51
11.5927103616
  0
ARC
  5
321
100
AcDbEntity
  8
0
100
AcDbCircle
 62
7
  6
CONTINUOUS
 10
9.5272708294
 20
10.5465031635
 40
0.03
100
AcDbArc
 50
0.0
 51
175.4966382723
  0
ARC
  5
322
100
AcDbEntity
  8
0
100
AcDbCircle
 62
7
  6
CONTINUOUS
 10
9.5272708294
 20
9.9215031635
 40
0.03
100
AcDbArc
 50
184.5033617277
 51
360.0
  0
ARC
  5
323
100
AcDbEntity
  8
0
100
AcDbCircle
 62
7
  6
CONTINUOUS
 10
12.887273906
 20
8.8738031573
 40
2.6389999969
100
AcDbArc
 50
182.3045935724
 51
188.8065547675
  0
ARC
  5
324
100
AcDbEntity
  8
0
100
AcDbCircle
 62
7
  6
CONTINUOUS
 10
13.6190144355
 20
8.0858031661
 40
2.5080000028
100
AcDbArc
 50
171.1934452325
 51
174.8127503334
  0
ARC
  5
325
100
AcDbEntity
  8
0
100
AcDbCircle
 62
7
  6
CONTINUOUS
 10
12.0839242009
 20
8.841472789
 40
1.834999996
100
AcDbArc
 50
173.049206696
 51
182.3045935724
  0
ARC
  5
326
100
AcDbEntity
  8
0
100
AcDbCircle
 62
7
  6
CONTINUOUS
 10
11.2418022239
 20
7.2785414298
 40
0.6078409296
100
AcDbArc
 50
6.6356334605
 51
20.3029644132
  0
ARC
  5
327
100
AcDbEntity
  8
0
100
AcDbCircle
 62
7
  6
CONTINUOUS
 10
11.8533476965
 20
8.0486237608
 40
0.4888424103
100
AcDbArc
 50
218.6609554855
 51
244.1509412142
  0
ARC
  5
328
100
AcDbEntity
  8
0
100
AcDbCircle
 62
7
  6
CONTINUOUS
 10
11.3325272441
 20
8.5687682196
 40
0.4260000011
100
AcDbArc
 50
254.4826565545
 51
255.0296784944
  0
ARC
  5
329
100
AcDbEntity
  8
0
100
AcDbCircle
 62
7
  6
CONTINUOUS
 10
11.7636205399
 20
7.9768390891
 40
0.3739337434
100
AcDbArc
 50
194.56496067
 51
218.6609554854
  0
ARC
  5
32A
100
AcDbEntity
  8
0
100
AcDbCircle
 62
7
  6
CONTINUOUS
 10
11.5521258397
 20
7.2368204984
 40
0.3739337434
100
AcDbArc
 50
52.7092061085
 51
65.3456430447
  0
ARC
  5
32B
100
AcDbEntity
  8
0
100
AcDbCircle
 62
7
  6
CONTINUOUS
 10
11.4379834865
 20
8.2838031653
 40
0.3180000027
100
AcDbArc
 50
174.8127503334
 51
189.6697388621
  0
ARC
  5
32C
100
AcDbEntity
  8
0
100
AcDbCircle
 62
7
  6
CONTINUOUS
 10
11.2808939438
 20
8.382803164
 40
0.2330000021
100
AcDbArc
 50
236.140811797
 51
254.4826565545
  0
ARC
  5
32D
100
AcDbEntity
  8
0
100
AcDbCircle
 62
7
  6
CONTINUOUS
 10
11.7180914959
 20
7.4547541965
 40
0.1
100
AcDbArc
 50
20.3029644132
 51
52.7092061084
  0
ARC
  5
32E
100
AcDbEntity
  8
0
100
AcDbCircle
 62
7
  6
CONTINUOUS
 10
11.1856206534
 20
8.2408031653
 40
0.0620000037
100
AcDbArc
 50
189.669738862
 51
236.140811797
  0
ARC
  5
32F
100
AcDbEntity
  8
0
100
AcDbCircle
 62
7
  6
CONTINUOUS
 10
10.7099834891
 20
8.9179692769
 40
1.7530338866
100
AcDbArc
 50
79.3437207503
 51
100.6562792497
  0
ARC
  5
330
100
AcDbEntity
  8
0
100
AcDbCircle
 62
7
  6
CONTINUOUS
 10
10.8386723252
 20
9.1010124137
 40
0.1698237067
100
AcDbArc
 50
8.5814247783
 51
8.8551447814
  0
ARC
  5
331
100
AcDbEntity
  8
0
100
AcDbCircle
 62
7
  6
CONTINUOUS
 10
10.874185867
 20
9.0995588324
 40
0.1101459402
100
AcDbArc
 50
14.0788271081
 51
14.5090508145
  0
ARC
  5
332
100
AcDbEntity
  8
0
100
AcDbCircle
 62
7
  6
CONTINUOUS
 10
10.9549023197
 20
9.0470978689
 40
0.0980159101
100
AcDbArc
 50
125.2378819597
 51
126.0419277334
  0
ARC
  5
333
100
AcDbEntity
  8
0
100
AcDbCircle
 62
7
  6
CONTINUOUS
 10
10.9245130161
 20
9.0501109962
 40
0.0952750805
100
AcDbArc
 50
126.0359256115
 51
126.8481467857
  0
ARC
  5
334
100
AcDbEntity
  8
0
100
AcDbCircle
 62
7
  6
CONTINUOUS
 10
10.8933508013
 20
9.0535163729
 40
0.0922194613
100
AcDbArc
 50
127.0125221439
 51
127.832144174
  0
ARC
  5
335
100
AcDbEntity
  8
0
100
AcDbCircle
 62
7
  6
CONTINUOUS
 10
10.8615885139
 20
9.0571888505
 40
0.0889801656
100
AcDbArc
 50
128.1581213217
 51
128.9864674668
  0
ARC
  5
336
100
AcDbEntity
  8
0
100
AcDbCircle
 62
7
  6
CONTINUOUS
 10
10.8710972678
 20
9.0973070266
 40
0.0880209842
100
AcDbArc
 50
19.2676962318
 51
19.8214476955
  0
ARC
  5
337
100
AcDbEntity
  8
0
100
AcDbCircle
 62
7
  6
CONTINUOUS
 10
10.829409502
 20
9.0611008115
 40
0.0856155563
100
AcDbArc
 50
129.5096847459
 51
130.34601369
  0
ARC
  5
338
100
AcDbEntity
  8
0
100
AcDbCircle
 62
7
  6
CONTINUOUS
 10
10.797004321
 20
9.0651691963
 40
0.0822346816
100
AcDbArc
 50
131.0832659428
 51
131.9261220228
  0
ARC
  5
339
100
AcDbEntity
  8
0
100
AcDbCircle
 62
7
  6
CONTINUOUS
 10
10.764591817
 20
9.0692992625
 40
0.0789757421
100
AcDbArc
 50
132.8972104175
 51
133.7455521903
  0
ARC
  5
33A
100
AcDbEntity
  8
0
100
AcDbCircle
 62
7
  6
CONTINUOUS
 10
10.7324004709
 20
9.0734508658
 40
0.0759461256
100
AcDbArc
 50
134.9991332839
 51
135.8479949894
  0
ARC
  5
33B
100
AcDbEntity
  8
0
100
AcDbCircle
 62
7
  6
CONTINUOUS
 10
10.7192371882
 20
9.0774797313
 40
0.0733861624
100
AcDbArc
 50
41.7566378682
 51
42.6010317413
  0
ARC
  5
33C
100
AcDbEntity
  8
0
100
AcDbCircle
 62
7
  6
CONTINUOUS
 10
10.8331705388
 20
9.0916398404
 40
0.0728616542
100
AcDbArc
 50
28.4515204927
 51
29.1708174842
  0
ARC
  5
33D
100
AcDbEntity
  8
0
100
AcDbCircle
 62
7
  6
CONTINUOUS
 10
10.8601107849
 20
9.0968475488
 40
0.0723892179
100
AcDbArc
 50
24.0535924338
 51
24.7506424533
  0
ARC
  5
33E
100
AcDbEntity
  8
0
100
AcDbCircle
 62
7
  6
CONTINUOUS
 10
10.7500888997
 20
9.0813647998
 40
0.0714580624
100
AcDbArc
 50
39.0183801884
 51
39.8509105865
  0
ARC
  5
33F
100
AcDbEntity
  8
0
100
AcDbCircle
 62
7
  6
CONTINUOUS
 10
10.7798054673
 20
9.0850961854
 40
0.0703496573
100
AcDbArc
 50
35.9050658403
 51
36.7151875366
  0
ARC
  5
340
100
AcDbEntity
  8
0
100
AcDbCircle
 62
7
  6
CONTINUOUS
 10
10.8125771773
 20
9.0916256844
 40
0.0648766363
100
AcDbArc
 50
32.36277477
 51
33.2054387082
  0
ARC
  5
341
100
AcDbEntity
  8
0
100
AcDbCircle
 62
7
  6
CONTINUOUS
 10
10.8154744327
 20
9.150302159
 40
0.4496211509
100
AcDbArc
 50
181.8810516485
 51
182.9510659751
  0
ARC
  5
342
100
AcDbEntity
  8
0
100
AcDbCircle
 62
7
  6
CONTINUOUS
 10
11.2540266313
 20
9.0992472402
 40
0.1814942284
100
AcDbArc
 50
171.1551383689
 51
171.4111097793
  0
ARC
  5
343
100
AcDbEntity
  8
0
100
AcDbCircle
 62
7
  6
CONTINUOUS
 10
11.2006251881
 20
9.0996031726
 40
0.1099687799
100
AcDbArc
 50
165.490825712
 51
165.9218463889
  0
ARC
  5
344
100
AcDbEntity
  8
0
100
AcDbCircle
 62
7
  6
CONTINUOUS
 10
11.1126506143
 20
9.0389726931
 40
0.1055312041
100
AcDbArc
 50
123.3216003409
 51
124.1061069137
  0
ARC
  5
345
100
AcDbEntity
  8
0
100
AcDbCircle
 62
7
  6
CONTINUOUS
 10
11.0899574874
 20
9.0389851155
 40
0.1055205668
100
AcDbArc
 50
123.3257641452
 51
124.1098866297
  0
ARC
  5
346
100
AcDbEntity
  8
0
100
AcDbCircle
 62
7
  6
CONTINUOUS
 10
11.0656616505
 20
9.039535357
 40
0.1050053872
100
AcDbArc
 50
123.443756803
 51
124.2297224793
  0
ARC
  5
347
100
AcDbEntity
  8
0
100
AcDbCircle
 62
7
  6
CONTINUOUS
 10
11.1336342997
 20
9.0395522506
 40
0.1049909087
100
AcDbArc
 50
123.449456228
 51
124.2348846451
  0
ARC
  5
348
100
AcDbEntity
  8
0
100
AcDbCircle
 62
7
  6
CONTINUOUS
 10
11.0398798061
 20
9.0406580236
 40
0.1039598558
100
AcDbArc
 50
123.6932673857
 51
124.4819824056
  0
ARC
  5
349
100
AcDbEntity
  8
0
100
AcDbCircle
 62
7
  6
CONTINUOUS
 10
11.1528147768
 20
9.0406580866
 40
0.1039591582
100
AcDbArc
 50
123.693224486
 51
124.48149255
  0
ARC
  5
34A
100
AcDbEntity
  8
0
100
AcDbCircle
 62
7
  6
CONTINUOUS
 10
11.0127324483
 20
9.0423179927
 40
0.1024169883
100
AcDbArc
 50
124.0714134256
 51
124.8638869377
  0
ARC
  5
34B
100
AcDbEntity
  8
0
100
AcDbCircle
 62
7
  6
CONTINUOUS
 10
11.1701059108
 20
9.04232457
 40
0.1024119071
100
AcDbArc
 50
124.0741515685
 51
124.8664121379
  0
ARC
  5
34C
100
AcDbEntity
  8
0
100
AcDbCircle
 62
7
  6
CONTINUOUS
 10
10.9843617839
 20
9.0444592299
 40
0.1004375915
100
AcDbArc
 50
124.5778640382
 51
125.3762936596
  0
ARC
  5
34D
100
AcDbEntity
  8
0
100
AcDbCircle
 62
7
  6
CONTINUOUS
 10
11.1854353852
 20
9.0444745137
 40
0.1004237199
100
AcDbArc
 50
124.5827786753
 51
125.3805952599
  0
ARC
  5
34E
100
AcDbEntity
  8
0
100
AcDbCircle
 62
7
  6
CONTINUOUS
 10
11.1987430289
 20
9.0470968236
 40
0.0980167398
100
AcDbArc
 50
125.2373773603
 51
126.0415095099
  0
ARC
  5
34F
100
AcDbEntity
  8
0
100
AcDbCircle
 62
7
  6
CONTINUOUS
 10
11.2099807268
 20
9.0501290033
 40
0.0952593697
100
AcDbArc
 50
126.0426376171
 51
126.8540974252
  0
ARC
  5
350
100
AcDbEntity
  8
0
100
AcDbCircle
 62
7
  6
CONTINUOUS
 10
11.2191167298
 20
9.053516862
 40
0.0922186222
100
AcDbArc
 50
127.0124288385
 51
127.831987275
  0
ARC
  5
351
100
AcDbEntity
  8
0
100
AcDbCircle
 62
7
  6
CONTINUOUS
 10
11.1972522181
 20
9.096385354
 40
0.0907803119
100
AcDbArc
 50
160.1881918007
 51
160.7249625036
  0
ARC
  5
352
100
AcDbEntity
  8
0
100
AcDbCircle
 62
7
  6
CONTINUOUS
 10
11.2261333775
 20
9.0572019691
 40
0.0889694525
100
AcDbArc
 50
128.1640049554
 51
128.9917772182
  0
ARC
  5
353
100
AcDbEntity
  8
0
100
AcDbCircle
 62
7
  6
CONTINUOUS
 10
11.2310323746
 20
9.0611113707
 40
0.0856064524
100
AcDbArc
 50
129.514434425
 51
130.3501385971
  0
ARC
  5
354
100
AcDbEntity
  8
0
100
AcDbCircle
 62
7
  6
CONTINUOUS
 10
11.2338354551
 20
9.0651730973
 40
0.0822321673
100
AcDbArc
 50
131.0857418042
 51
131.9283946914
  0
ARC
  5
355
100
AcDbEntity
  8
0
100
AcDbCircle
 62
7
  6
CONTINUOUS
 10
11.2345908378
 20
9.0693120096
 40
0.0789654968
100
AcDbArc
 50
132.9041490634
 51
133.7516841735
  0
ARC
  5
356
100
AcDbEntity
  8
0
100
AcDbCircle
 62
7
  6
CONTINUOUS
 10
11.1973543056
 20
9.0950557123
 40
0.0767369004
100
AcDbArc
 50
155.2734398655
 51
155.9305521488
  0
ARC
  5
357
100
AcDbEntity
  8
0
100
AcDbCircle
 62
7
  6
CONTINUOUS
 10
11.233379242
 20
9.0734505868
 40
0.0759466884
100
AcDbArc
 50
134.9992551073
 51
135.8481157988
  0
ARC
  5
358
100
AcDbEntity
  8
0
100
AcDbCircle
 62
7
  6
CONTINUOUS
 10
11.2314886222
 20
9.0725520691
 40
0.0744800316
100
AcDbArc
 50
133.7514892099
 51
186.9508268365
  0
ARC
  5
359
100
AcDbEntity
  8
0
100
AcDbCircle
 62
7
  6
CONTINUOUS
 10
11.2303227067
 20
9.0775135389
 40
0.0733426736
100
AcDbArc
 50
137.4039622839
 51
138.2488038229
  0
ARC
  5
35A
100
AcDbEntity
  8
0
100
AcDbCircle
 62
7
  6
CONTINUOUS
 10
11.2047543395
 20
9.0918477999
 40
0.0724285644
100
AcDbArc
 50
150.8262690734
 51
151.5499035341
  0
ARC
  5
35B
100
AcDbEntity
  8
0
100
AcDbCircle
 62
7
  6
CONTINUOUS
 10
11.2256130841
 20
9.0814198712
 40
0.0713774393
100
AcDbArc
 50
140.1535282152
 51
140.986462252
  0
ARC
  5
35C
100
AcDbEntity
  8
0
100
AcDbCircle
 62
7
  6
CONTINUOUS
 10
11.2195397021
 20
9.0850951362
 40
0.0703523546
100
AcDbArc
 50
143.2853903457
 51
144.0954880048
  0
ARC
  5
35D
100
AcDbEntity
  8
0
100
AcDbCircle
 62
7
  6
CONTINUOUS
 10
11.2120325293
 20
9.0888081402
 40
0.0700898817
100
AcDbArc
 50
146.8322351311
 51
147.6115390898
  0
ARC
  5
35E
100
AcDbEntity
  8
0
100
AcDbCircle
 62
7
  6
CONTINUOUS
 10
11.1166246756
 20
9.1690498385
 40
0.0676399574
100
AcDbArc
 50
10.8892936102
 51
19.6640703979
  0
ARC
  5
35F
100
AcDbEntity
  8
0
100
AcDbCircle
 62
7
  6
CONTINUOUS
 10
11.0157434891
 20
9.375563127
 40
0.03724
100
AcDbArc
 50
0.0
 51
90.0
  0
ARC
  5
360
100
AcDbEntity
  8
0
100
AcDbCircle
 62
7
  6
CONTINUOUS
 10
11.2264538476
 20
9.1635430213
 40
0.8608137645
100
AcDbArc
 50
180.6042535536
 51
181.8639771925
  0
ARC
  5
361
100
AcDbEntity
  8
0
100
AcDbCircle
 62
7
  6
CONTINUOUS
 10
11.125635975
 20
9.1675833983
 40
0.0655021714
100
AcDbArc
 50
343.1381894648
 51
348.4468810728
  0
ARC
  5
362
100
AcDbEntity
  8
0
100
AcDbCircle
 62
7
  6
CONTINUOUS
 10
11.1285121142
 20
9.1688258221
 40
0.0626626698
100
AcDbArc
 50
11.9754266207
 51
21.5191812833
  0
ARC
  5
363
100
AcDbEntity
  8
0
100
AcDbCircle
 62
7
  6
CONTINUOUS
 10
11.133568716
 20
9.1680134512
 40
0.0622614858
100
AcDbArc
 50
346.3134254072
 51
347.4314309474
  0
ARC
  5
364
100
AcDbEntity
  8
0
100
AcDbCircle
 62
7
  6
CONTINUOUS
 10
11.1347069426
 20
9.1677156114
 40
0.0610851109
100
AcDbArc
 50
341.7476242717
 51
346.3322467767
  0
ARC
  5
365
100
AcDbEntity
  8
0
100
AcDbCircle
 62
7
  6
CONTINUOUS
 10
11.1396317282
 20
9.168132397
 40
0.0585917113
100
AcDbArc
 50
345.8741103398
 51
346.5104885751
  0
ARC
  5
366
100
AcDbEntity
  8
0
100
AcDbCircle
 62
7
  6
CONTINUOUS
 10
11.1377751321
 20
9.1687844407
 40
0.0580474728
100
AcDbArc
 50
12.9853662529
 51
14.4041089141
  0
ARC
  5
367
100
AcDbEntity
  8
0
100
AcDbCircle
 62
7
  6
CONTINUOUS
 10
11.1402882202
 20
9.1679502005
 40
0.0579106071
100
AcDbArc
 50
340.4625470505
 51
345.8904037841
  0
ARC
  5
368
100
AcDbEntity
  8
0
100
AcDbCircle
 62
7
  6
CONTINUOUS
 10
11.1423118395
 20
9.1663691333
 40
0.0576205062
100
AcDbArc
 50
79.8728512352
 51
84.2283522615
  0
ARC
  5
369
100
AcDbEntity
  8
0
100
AcDbCircle
 62
7
  6
CONTINUOUS
 10
11.1381921733
 20
9.1691318372
 40
0.0575368866
100
AcDbArc
 50
23.2143629799
 51
33.9248337813
  0
ARC
  5
36A
100
AcDbEntity
  8
0
100
AcDbCircle
 62
7
  6
CONTINUOUS
 10
11.1423785821
 20
9.1666767853
 40
0.0573059131
100
AcDbArc
 50
66.7064131126
 51
79.8844564429
  0
ARC
  5
36B
100
AcDbEntity
  8
0
100
AcDbCircle
 62
7
  6
CONTINUOUS
 10
11.1423665415
 20
9.1669496583
 40
0.0570374232
100
AcDbArc
 50
84.2243790735
 51
89.9899426482
  0
ARC
  5
36C
100
AcDbEntity
  8
0
100
AcDbCircle
 62
7
  6
CONTINUOUS
 10
11.142135213
 20
9.1682971509
 40
0.0561192213
100
AcDbArc
 50
30.6554159857
 51
35.8119674945
  0
ARC
  5
36D
100
AcDbEntity
  8
0
100
AcDbCircle
 62
7
  6
CONTINUOUS
 10
11.1426683616
 20
9.167023015
 40
0.0559786848
100
AcDbArc
 50
25.9626985539
 51
49.6825407698
  0
ARC
  5
36E
100
AcDbEntity
  8
0
100
AcDbCircle
 62
7
  6
CONTINUOUS
 10
11.142662514
 20
9.1684476374
 40
0.0556327769
100
AcDbArc
 50
47.8679426093
 51
48.8088964735
  0
ARC
  5
36F
100
AcDbEntity
  8
0
100
AcDbCircle
 62
7
  6
CONTINUOUS
 10
11.1430564593
 20
9.1683878467
 40
0.0554662838
100
AcDbArc
 50
63.4050883529
 51
66.6506290144
  0
ARC
  5
370
100
AcDbEntity
  8
0
100
AcDbCircle
 62
7
  6
CONTINUOUS
 10
11.1429074854
 20
9.1681957723
 40
0.0554272585
100
AcDbArc
 50
344.8540756904
 51
345.6568657387
  0
ARC
  5
371
100
AcDbEntity
  8
0
100
AcDbCircle
 62
7
  6
CONTINUOUS
 10
11.1430114852
 20
9.1688508476
 40
0.0550995315
100
AcDbArc
 50
48.8058430664
 51
51.6787971026
  0
ARC
  5
372
100
AcDbEntity
  8
0
100
AcDbCircle
 62
7
  6
CONTINUOUS
 10
11.1430581581
 20
9.1689917291
 40
0.0549641949
100
AcDbArc
 50
35.9286209188
 51
47.7933162621
  0
ARC
  5
373
100
AcDbEntity
  8
0
100
AcDbCircle
 62
7
  6
CONTINUOUS
 10
11.14352625
 20
9.1679856756
 40
0.0547751092
100
AcDbArc
 50
334.7893948552
 51
344.8970972559
  0
ARC
  5
374
100
AcDbEntity
  8
0
100
AcDbCircle
 62
7
  6
CONTINUOUS
 10
11.1433815918
 20
9.1692797972
 40
0.0545335497
100
AcDbArc
 50
35.7409656323
 51
47.8416984017
  0
ARC
  5
375
100
AcDbEntity
  8
0
100
AcDbCircle
 62
7
  6
CONTINUOUS
 10
11.1436867401
 20
9.1686984905
 40
0.0545246619
100
AcDbArc
 50
13.9335513444
 51
14.7390444271
  0
ARC
  5
376
100
AcDbEntity
  8
0
100
AcDbCircle
 62
7
  6
CONTINUOUS
 10
11.1443151521
 20
9.1678884717
 40
0.0541192351
100
AcDbArc
 50
15.7750522131
 51
25.9021703022
  0
ARC
  5
377
100
AcDbEntity
  8
0
100
AcDbCircle
 62
7
  6
CONTINUOUS
 10
11.1441244365
 20
9.1666616833
 40
0.0539296841
100
AcDbArc
 50
312.8966377087
 51
320.207280716
  0
ARC
  5
378
100
AcDbEntity
  8
0
100
AcDbCircle
 62
7
  6
CONTINUOUS
 10
11.1437426628
 20
9.1697866428
 40
0.0539119758
100
AcDbArc
 50
51.6717670496
 51
63.4196933889
  0
ARC
  5
379
100
AcDbEntity
  8
0
100
AcDbCircle
 62
7
  6
CONTINUOUS
 10
11.1443614362
 20
9.1664352689
 40
0.0536024988
100
AcDbArc
 50
312.8757997644
 51
323.6274053054
  0
ARC
  5
37A
100
AcDbEntity
  8
0
100
AcDbCircle
 62
7
  6
CONTINUOUS
 10
11.1432053658
 20
9.1682613472
 40
0.0529606726
100
AcDbArc
 50
333.5289888685
 51
344.8727757777
  0
ARC
  5
37B
100
AcDbEntity
  8
0
100
AcDbCircle
 62
7
  6
CONTINUOUS
 10
11.1454778329
 20
9.1670647048
 40
0.0526171336
100
AcDbArc
 50
323.1955777256
 51
334.7915469252
  0
ARC
  5
37C
100
AcDbEntity
  8
0
100
AcDbCircle
 62
7
  6
CONTINUOUS
 10
11.1451761056
 20
9.1657739557
 40
0.0525534629
100
AcDbArc
 50
320.2171121846
 51
327.3347550737
  0
ARC
  5
37D
100
AcDbEntity
  8
0
100
AcDbCircle
 62
7
  6
CONTINUOUS
 10
11.1426609646
 20
9.1641714285
 40
0.0523501432
100
AcDbArc
 50
314.99909618
 51
329.231948659
  0
ARC
  5
37E
100
AcDbEntity
  8
0
100
AcDbCircle
 62
7
  6
CONTINUOUS
 10
11.1456563852
 20
9.16539551
 40
0.0519432688
100
AcDbArc
 50
323.7037823264
 51
325.7440987382
  0
ARC
  5
37F
100
AcDbEntity
  8
0
100
AcDbCircle
 62
7
  6
CONTINUOUS
 10
11.1464945895
 20
9.1685755241
 40
0.0518351456
100
AcDbArc
 50
14.8128537105
 51
15.6991469296
  0
ARC
  5
380
100
AcDbEntity
  8
0
100
AcDbCircle
 62
7
  6
CONTINUOUS
 10
11.1401719988
 20
9.1685577314
 40
0.0516008041
100
AcDbArc
 50
332.4039330141
 51
344.150386787
  0
ARC
  5
381
100
AcDbEntity
  8
0
100
AcDbCircle
 62
7
  6
CONTINUOUS
 10
11.1390297089
 20
9.1614496456
 40
0.0506721701
100
AcDbArc
 50
317.4043427345
 51
319.7345677248
  0
ARC
  5
382
100
AcDbEntity
  8
0
100
AcDbCircle
 62
7
  6
CONTINUOUS
 10
11.1346571467
 20
9.1688105042
 40
0.0504712517
100
AcDbArc
 50
331.405306891
 51
343.4869392399
  0
ARC
  5
383
100
AcDbEntity
  8
0
100
AcDbCircle
 62
7
  6
CONTINUOUS
 10
11.1463072625
 20
9.1683975883
 40
0.0498732499
100
AcDbArc
 50
15.621877627
 51
17.5469044693
  0
ARC
  5
384
100
AcDbEntity
  8
0
100
AcDbCircle
 62
7
  6
CONTINUOUS
 10
11.1326282477
 20
9.159013906
 40
0.0497300091
100
AcDbArc
 50
320.1587194575
 51
323.8602230669
  0
ARC
  5
385
100
AcDbEntity
  8
0
100
AcDbCircle
 62
7
  6
CONTINUOUS
 10
11.1232854464
 20
9.1568629307
 40
0.0497122043
100
AcDbArc
 50
323.300268452
 51
328.0920897106
  0
ARC
  5
386
100
AcDbEntity
  8
0
100
AcDbCircle
 62
7
  6
CONTINUOUS
 10
11.1266861086
 20
9.169042843
 40
0.0495821527
100
AcDbArc
 50
330.5358546164
 51
342.9014177807
  0
ARC
  5
387
100
AcDbEntity
  8
0
100
AcDbCircle
 62
7
  6
CONTINUOUS
 10
11.1432567814
 20
9.1681588661
 40
0.048519474
100
AcDbArc
 50
16.3629632661
 51
19.4389258509
  0
CIRCLE
  5
388
100
AcDbEntity
  8
0
100
AcDbCircle
 62
7
  6
CONTINUOUS
 10
10.7099834891
 20
10.2340031635
 40
0.3425
  0
CIRCLE
  5
389
100
AcDbEntity
  8
0
100
AcDbCircle
 62
9
  6
CONTINUOUS
 10
10.7099834891
 20
10.2340031635
 40
0.3148555276
  0
ARC
  5
38A
100
AcDbEntity
  8
0
100
AcDbCircle
 62
7
  6
CONTINUOUS
 10
11.2751315224
 20
10.4966314126
 40
0.1000000227
100
AcDbArc
 50
136.9536378374
 51
175.5588659126
  0
ARC
  5
38B
100
AcDbEntity
  8
0
100
AcDbCircle
 62
7
  6
CONTINUOUS
 10
11.1506715038
 20
9.890119297
 40
0.0999999791
100
AcDbArc
 50
168.4072896384
 51
206.8474004309
  0
ARC
  5
38C
100
AcDbEntity
  8
0
100
AcDbCircle
 62
7
  6
CONTINUOUS
 10
11.8926961488
 20
9.9215031635
 40
0.03
100
AcDbArc
 50
180.0
 51
355.4966382723
  0
ARC
  5
38D
100
AcDbEntity
  8
0
100
AcDbCircle
 62
7
  6
CONTINUOUS
 10
11.8926961488
 20
10.5465031635
 40
0.03
100
AcDbArc
 50
4.5033617277
 51
180.0
  0
ARC
  5
38E
100
AcDbEntity
  8
0
100
AcDbCircle
 62
7
  6
CONTINUOUS
 10
13.4949834891
 20
10.2340031635
 40
4.01
100
AcDbArc
 50
175.4966382723
 51
184.5033617277
  0
SPLINE
  5
38F
100
AcDbEntity
  8
0
100
AcDbSpline
 62
7
  6
CONTINUOUS
 70
0
 71
3
 72
23
 73
19
 74
0
 42
0.0000001
 43
0.0000001
 44
0.0000000001
 40
0.0
 40
0.0
 40
0.0
 40
0.0
 40
0.0623997508
 40
0.1248859845
 40
0.1874581483
 40
0.2500345632
 40
0.3125301372
 40
0.3749339672
 40
0.4373618621
 40
0.4998909547
 40
0.5624768384
 40
0.6250269555
 40
0.6874780435
 40
0.749873541
 40
0.8123432868
 40
0.8749063272
 40
0.93748844
 40
1.0
 40
1.0
 40
1.0
 40
1.0
 10
10.2179156066
 20
10.5648904259
 30
0.0
 10
10.2168294919
 20
10.5660532492
 30
0.0
 10
10.2148263188
 20
10.568546197
 30
0.0
 10
10.2123885884
 20
10.572675295
 30
0.0
 10
10.2105405761
 20
10.577105019
 30
0.0
 10
10.2093127903
 20
10.5817450324
 30
0.0
 10
10.2087345406
 20
10.5865061777
 30
0.0
 10
10.2088408435
 20
10.5912989997
 30
0.0
 10
10.2096533352
 20
10.5960240864
 30
0.0
 10
10.211120281
 20
10.600591692
 30
0.0
 10
10.2131991511
 20
10.6049185143
 30
0.0
 10
10.2158475003
 20
10.6089198319
 30
0.0
 10
10.2190231103
 20
10.6125124006
 30
0.0
 10
10.2226890056
 20
10.615601475
 30
0.0
 10
10.2267645675
 20
10.6181282747
 30
0.0
 10
10.2311536021
 20
10.6200696619
 30
0.0
 10
10.2357661342
 20
10.6213954964
 30
0.0
 10
10.238935853
 20
10.6218496627
 30
0.0
 10
10.240525799
 20
10.6219634881
 30
0.0
  0
SPLINE
  5
390
100
AcDbEntity
  8
0
100
AcDbSpline
 62
7
  6
CONTINUOUS
 70
0
 71
3
 72
23
 73
19
 74
0
 42
0.0000001
 43
0.0000001
 44
0.0000000001
 40
0.0
 40
0.0
 40
0.0
 40
0.0
 40
0.0623997508
 40
0.1248859845
 40
0.1874581483
 40
0.2500345632
 40
0.3125301372
 40
0.3749339672
 40
0.4373618621
 40
0.4998909547
 40
0.5624768384
 40
0.6250269555
 40
0.6874780435
 40
0.749873541
 40
0.8123432868
 40
0.8749063272
 40
0.93748844
 40
1.0
 40
1.0
 40
1.0
 40
1.0
 10
11.2020513716
 20
10.5648904259
 30
0.0
 10
11.2031374863
 20
10.5660532492
 30
0.0
 10
11.2051406595
 20
10.568546197
 30
0.0
 10
11.2075783899
 20
10.572675295
 30
0.0
 10
11.2094264021
 20
10.577105019
 30
0.0
 10
11.210654188
 20
10.5817450324
 30
0.0
 10
11.2112324377
 20
10.5865061777
 30
0.0
 10
11.2111261347
 20
10.5912989997
 30
0.0
 10
11.2103136431
 20
10.5960240864
 30
0.0
 10
11.2088466973
 20
10.600591692
 30
0.0
 10
11.2067678272
 20
10.6049185143
 30
0.0
 10
11.204119478
 20
10.6089198319
 30
0.0
 10
11.200943868
 20
10.6125124006
 30
0.0
 10
11.1972779727
 20
10.615601475
 30
0.0
 10
11.1932024108
 20
10.6181282747
 30
0.0
 10
11.1888133762
 20
10.6200696619
 30
0.0
 10
11.1842008441
 20
10.6213954964
 30
0.0
 10
11.1810311253
 20
10.6218496627
 30
0.0
 10
11.1794411793
 20
10.6219634881
 30
0.0
  0
LINE
  5
391
100
AcDbEntity
  8
0
100
AcDbLine
 62
7
  6
CONTINUOUS
 10
10.3664905859
 20
9.1263524451
 11
10.3664495385
 21
9.1271542918
  0
LINE
  5
392
100
AcDbEntity
  8
0
100
AcDbLine
 62
7
  6
CONTINUOUS
 10
11.0535174431
 20
9.1271544257
 11
11.0534763923
 21
9.1263525717
  0
SPLINE
  5
393
100
AcDbEntity
  8
0
100
AcDbSpline
 62
7
  6
CONTINUOUS
 70
0
 71
3
 72
9
 73
5
 74
0
 42
0.0000001
 43
0.0000001
 44
0.0000000001
 40
0.0
 40
0.0
 40
0.0
 40
0.0
 40
0.2570260426
 40
1.0
 40
1.0
 40
1.0
 40
1.0
 10
10.2319300801
 20
9.1353622472
 30
0.0
 10
10.232471599
 20
9.1345980199
 30
0.0
 10
10.234658591
 20
9.1316819876
 30
0.0
 10
10.2371505792
 20
9.1289969213
 30
0.0
 10
10.2391337949
 20
9.127153727
 30
0.0
  0
SPLINE
  5
394
100
AcDbEntity
  8
0
100
AcDbSpline
 62
7
  6
CONTINUOUS
 70
0
 71
3
 72
17
 73
13
 74
0
 42
0.0000001
 43
0.0000001
 44
0.0000000001
 40
0.0
 40
0.0
 40
0.0
 40
0.0
 40
0.12483573
 40
0.249934993
 40
0.3747987116
 40
0.4372946918
 40
0.4998718156
 40
0.624967226
 40
0.7498597566
 40
0.8123501425
 40
0.8749122339
 40
1.0
 40
1.0
 40
1.0
 40
1.0
 10
11.0320724986
 20
9.7970031635
 30
0.0
 10
11.0348682414
 20
9.7970031635
 30
0.0
 10
11.0404891716
 20
9.7977608531
 30
0.0
 10
11.0483454245
 20
9.8009289397
 30
0.0
 10
11.0540637449
 20
9.8051092577
 30
0.0
 10
11.0578429124
 20
9.8092582526
 30
0.0
 10
11.0610557489
 20
9.8138645927
 30
0.0
 10
11.0639509258
 20
9.8203204603
 30
0.0
 10
11.0651748931
 20
9.8272936511
 30
0.0
 10
11.0650309064
 20
9.8329050935
 30
0.0
 10
11.064156051
 20
9.8384497128
 30
0.0
 10
11.0627153939
 20
9.8424582909
 30
0.0
 10
11.0614502507
 20
9.8449577275
 30
0.0
  0
SPLINE
  5
395
100
AcDbEntity
  8
0
100
AcDbSpline
 62
7
  6
CONTINUOUS
 70
0
 71
3
 72
17
 73
13
 74
0
 42
0.0000001
 43
0.0000001
 44
0.0000000001
 40
0.0
 40
0.0
 40
0.0
 40
0.0
 40
0.12483573
 40
0.249934993
 40
0.3747987116
 40
0.4372946918
 40
0.4998718156
 40
0.624967226
 40
0.7498597566
 40
0.8123501425
 40
0.8749122339
 40
1.0
 40
1.0
 40
1.0
 40
1.0
 10
10.3878944797
 20
9.7970031635
 30
0.0
 10
10.3850987369
 20
9.7970031635
 30
0.0
 10
10.3794778066
 20
9.7977608531
 30
0.0
 10
10.3716215537
 20
9.8009289397
 30
0.0
 10
10.3659032334
 20
9.8051092577
 30
0.0
 10
10.3621240658
 20
9.8092582526
 30
0.0
 10
10.3589112294
 20
9.8138645927
 30
0.0
 10
10.3560160525
 20
9.8203204603
 30
0.0
 10
10.3547920852
 20
9.8272936511
 30
0.0
 10
10.3549360719
 20
9.8329050935
 30
0.0
 10
10.3558109273
 20
9.8384497128
 30
0.0
 10
10.3572515844
 20
9.8424582909
 30
0.0
 10
10.3585167275
 20
9.8449577275
 30
0.0
  0
SPLINE
  5
396
100
AcDbEntity
  8
0
100
AcDbSpline
 62
7
  6
CONTINUOUS
 70
0
 71
3
 72
9
 73
5
 74
0
 42
0.0000001
 43
0.0000001
 44
0.0000000001
 40
0.0
 40
0.0
 40
0.0
 40
0.0
 40
0.4998024276
 40
1.0
 40
1.0
 40
1.0
 40
1.0
 10
11.1677950095
 20
9.2180317148
 30
0.0
 10
11.1638764369
 20
9.2199847476
 30
0.0
 10
11.1555451754
 20
9.2229667662
 30
0.0
 10
11.1467583193
 20
9.2239870807
 30
0.0
 10
11.1423765535
 20
9.2239870807
 30
0.0
  0
SPLINE
  5
397
100
AcDbEntity
  8
0
100
AcDbSpline
 62
7
  6
CONTINUOUS
 70
0
 71
3
 72
9
 73
5
 74
0
 42
0.0000001
 43
0.0000001
 44
0.0000000001
 40
0.0
 40
0.0
 40
0.0
 40
0.0
 40
0.4998024276
 40
1.0
 40
1.0
 40
1.0
 40
1.0
 10
10.2521719687
 20
9.2180317148
 30
0.0
 10
10.2560905413
 20
9.2199847476
 30
0.0
 10
10.2644218028
 20
9.2229667662
 30
0.0
 10
10.273208659
 20
9.2239870807
 30
0.0
 10
10.2775904248
 20
9.2239870807
 30
0.0
  0
SPLINE
  5
398
100
AcDbEntity
  8
0
100
AcDbSpline
 62
7
  6
CONTINUOUS
 70
0
 71
3
 72
9
 73
5
 74
0
 42
0.0000001
 43
0.0000001
 44
0.0000000001
 40
0.0
 40
0.0
 40
0.0
 40
0.0
 40
0.242723235
 40
1.0
 40
1.0
 40
1.0
 40
1.0
 10
10.2334759115
 20
9.1355425529
 30
0.0
 10
10.2330205987
 20
9.1362401122
 30
0.0
 10
10.2312138238
 20
9.1391586132
 30
0.0
 10
10.2296887818
 20
9.142250605
 30
0.0
 10
10.2287007906
 20
9.1446543956
 30
0.0
  0
SPLINE
  5
399
100
AcDbEntity
  8
0
100
AcDbSpline
 62
7
  6
CONTINUOUS
 70
0
 71
3
 72
9
 73
5
 74
0
 42
0.0000001
 43
0.0000001
 44
0.0000000001
 40
0.0
 40
0.0
 40
0.0
 40
0.0
 40
0.2417912535
 40
1.0
 40
1.0
 40
1.0
 40
1.0
 10
10.2410791676
 20
9.2097051502
 30
0.0
 10
10.2404273437
 20
9.209070755
 30
0.0
 10
10.2378019376
 20
9.2063754469
 30
0.0
 10
10.2354686186
 20
9.2033972173
 30
0.0
 10
10.2338855269
 20
9.2010246309
 30
0.0
  0
SPLINE
  5
39A
100
AcDbEntity
  8
0
100
AcDbSpline
 62
7
  6
CONTINUOUS
 70
0
 71
3
 72
9
 73
5
 74
0
 42
0.0000001
 43
0.0000001
 44
0.0000000001
 40
0.0
 40
0.0
 40
0.0
 40
0.0
 40
0.4775092786
 40
1.0
 40
1.0
 40
1.0
 40
1.0
 10
10.2423647761
 20
9.1285883763
 30
0.0
 10
10.2404362431
 20
9.130850597
 30
0.0
 10
10.2368074188
 20
9.1359520323
 30
0.0
 10
10.23413014
 20
9.1416116928
 30
0.0
 10
10.2329803366
 20
9.1446544089
 30
0.0
  0
SPLINE
  5
39B
100
AcDbEntity
  8
0
100
AcDbSpline
 62
7
  6
CONTINUOUS
 70
0
 71
3
 72
9
 73
5
 74
0
 42
0.0000001
 43
0.0000001
 44
0.0000000001
 40
0.0
 40
0.0
 40
0.0
 40
0.0
 40
0.2440513639
 40
1.0
 40
1.0
 40
1.0
 40
1.0
 10
10.2329803366
 20
9.1446544089
 30
0.0
 10
10.2326865891
 20
9.1454317506
 30
0.0
 10
10.2315492821
 20
9.1486416611
 30
0.0
 10
10.2306728292
 20
9.1519432996
 30
0.0
 10
10.2301559419
 20
9.1544648634
 30
0.0
  0
SPLINE
  5
39C
100
AcDbEntity
  8
0
100
AcDbSpline
 62
7
  6
CONTINUOUS
 70
0
 71
3
 72
9
 73
5
 74
0
 42
0.0000001
 43
0.0000001
 44
0.0000000001
 40
0.0
 40
0.0
 40
0.0
 40
0.0
 40
0.4751086161
 40
1.0
 40
1.0
 40
1.0
 40
1.0
 10
10.2443610945
 20
9.2097051502
 30
0.0
 10
10.242022152
 20
9.207229198
 30
0.0
 10
10.2376338835
 20
9.2014962536
 30
0.0
 10
10.2344138603
 20
9.1950365627
 30
0.0
 10
10.2330495351
 20
9.1915296944
 30
0.0
  0
SPLINE
  5
39D
100
AcDbEntity
  8
0
100
AcDbSpline
 62
7
  6
CONTINUOUS
 70
0
 71
3
 72
9
 73
5
 74
0
 42
0.0000001
 43
0.0000001
 44
0.0000000001
 40
0.0
 40
0.0
 40
0.0
 40
0.0
 40
0.4758255774
 40
1.0
 40
1.0
 40
1.0
 40
1.0
 10
10.2473231257
 20
9.1294862347
 30
0.0
 10
10.245709281
 20
9.1316708946
 30
0.0
 10
10.2426860264
 20
9.1365435764
 30
0.0
 10
10.2404546856
 20
9.1418241841
 30
0.0
 10
10.239483916
 20
9.1446544165
 30
0.0
  0
SPLINE
  5
39E
100
AcDbEntity
  8
0
100
AcDbSpline
 62
7
  6
CONTINUOUS
 70
0
 71
3
 72
9
 73
5
 74
0
 42
0.0000001
 43
0.0000001
 44
0.0000000001
 40
0.0
 40
0.0
 40
0.0
 40
0.0
 40
0.2433052609
 40
1.0
 40
1.0
 40
1.0
 40
1.0
 10
10.239483916
 20
9.1446544165
 30
0.0
 10
10.2392169708
 20
9.1454326826
 30
0.0
 10
10.2381816959
 20
9.1486523867
 30
0.0
 10
10.2373883454
 20
9.151949158
 30
0.0
 10
10.2369202683
 20
9.1544648634
 30
0.0
  0
SPLINE
  5
39F
100
AcDbEntity
  8
0
100
AcDbSpline
 62
7
  6
CONTINUOUS
 70
0
 71
3
 72
9
 73
5
 74
0
 42
0.0000001
 43
0.0000001
 44
0.0000000001
 40
0.0
 40
0.0
 40
0.0
 40
0.0
 40
0.2290977333
 40
1.0
 40
1.0
 40
1.0
 40
1.0
 10
10.2498139679
 20
9.2097051502
 30
0.0
 10
10.2487730304
 20
9.2084911584
 30
0.0
 10
10.2444983372
 20
9.2029639407
 30
0.0
 10
10.2413384943
 20
9.1966037316
 30
0.0
 10
10.2395467182
 20
9.1915296944
 30
0.0
  0
SPLINE
  5
3A0
100
AcDbEntity
  8
0
100
AcDbSpline
 62
7
  6
CONTINUOUS
 70
0
 71
3
 72
11
 73
7
 74
0
 42
0.0000001
 43
0.0000001
 44
0.0000000001
 40
0.0
 40
0.0
 40
0.0
 40
0.0
 40
0.2224594276
 40
0.4637966946
 40
0.7238804055
 40
1.0
 40
1.0
 40
1.0
 40
1.0
 10
10.2546660754
 20
9.1302909289
 30
0.0
 10
10.2536391136
 20
9.1319119062
 30
0.0
 10
10.2516861054
 20
9.135413908
 30
0.0
 10
10.2492380013
 20
9.1411698079
 30
0.0
 10
10.2472398381
 20
9.1475828887
 30
0.0
 10
10.2462808877
 20
9.1521153415
 30
0.0
 10
10.2458902338
 20
9.1544648634
 30
0.0
  0
SPLINE
  5
3A1
100
AcDbEntity
  8
0
100
AcDbSpline
 62
7
  6
CONTINUOUS
 70
0
 71
3
 72
11
 73
7
 74
0
 42
0.0000001
 43
0.0000001
 44
0.0000000001
 40
0.0
 40
0.0
 40
0.0
 40
0.0
 40
0.2170891494
 40
0.4559672695
 40
0.7173794575
 40
1.0
 40
1.0
 40
1.0
 40
1.0
 10
10.2574123641
 20
9.2097051502
 30
0.0
 10
10.2560729592
 20
9.207957125
 30
0.0
 10
10.2535179604
 20
9.2040830552
 30
0.0
 10
10.2502860375
 20
9.1975443743
 30
0.0
 10
10.2476216754
 20
9.1900445095
 30
0.0
 10
10.246376089
 20
9.1846533053
 30
0.0
 10
10.2458902338
 20
9.1818278347
 30
0.0
  0
SPLINE
  5
3A2
100
AcDbEntity
  8
0
100
AcDbSpline
 62
7
  6
CONTINUOUS
 70
0
 71
3
 72
10
 73
6
 74
0
 42
0.0000001
 43
0.0000001
 44
0.0000000001
 40
0.0
 40
0.0
 40
0.0
 40
0.0
 40
0.46138335
 40
0.7223015351
 40
1.0
 40
1.0
 40
1.0
 40
1.0
 10
10.2643622624
 20
9.13093541
 30
0.0
 10
10.2625606025
 20
9.1342884747
 30
0.0
 10
10.2602961633
 20
9.1398488323
 30
0.0
 10
10.2581596518
 20
9.1478213259
 30
0.0
 10
10.2573543363
 20
9.1521977694
 30
0.0
 10
10.2570240162
 20
9.1544648634
 30
0.0
  0
SPLINE
  5
3A3
100
AcDbEntity
  8
0
100
AcDbSpline
 62
7
  6
CONTINUOUS
 70
0
 71
3
 72
11
 73
7
 74
0
 42
0.0000001
 43
0.0000001
 44
0.0000000001
 40
0.0
 40
0.0
 40
0.0
 40
0.0
 40
0.2131818637
 40
0.450905754
 40
0.7137385352
 40
1.0
 40
1.0
 40
1.0
 40
1.0
 10
10.2671208557
 20
9.2097051502
 30
0.0
 10
10.2659377533
 20
9.2079431519
 30
0.0
 10
10.2636884296
 20
9.2040429589
 30
0.0
 10
10.2608630336
 20
9.1975084508
 30
0.0
 10
10.2585340406
 20
9.1900151028
 30
0.0
 10
10.2574486583
 20
9.1846459208
 30
0.0
 10
10.2570240162
 20
9.1818278347
 30
0.0
  0
LINE
  5
3A4
100
AcDbEntity
  8
0
100
AcDbLine
 62
7
  6
CONTINUOUS
 10
10.2784532637
 20
9.1271539288
 11
10.2763530134
 21
9.1313423269
  0
SPLINE
  5
3A5
100
AcDbEntity
  8
0
100
AcDbSpline
 62
7
  6
CONTINUOUS
 70
0
 71
3
 72
9
 73
5
 74
0
 42
0.0000001
 43
0.0000001
 44
0.0000000001
 40
0.0
 40
0.0
 40
0.0
 40
0.0
 40
0.4704607795
 40
1.0
 40
1.0
 40
1.0
 40
1.0
 10
10.274649864
 20
9.1355429269
 30
0.0
 10
10.2736055537
 20
9.1384091704
 30
0.0
 10
10.2718004724
 20
9.1446556551
 30
0.0
 10
10.2706937672
 20
9.1510575105
 30
0.0
 10
10.2702697049
 20
9.1544648634
 30
0.0
  0
SPLINE
  5
3A6
100
AcDbEntity
  8
0
100
AcDbSpline
 62
7
  6
CONTINUOUS
 70
0
 71
3
 72
11
 73
7
 74
0
 42
0.0000001
 43
0.0000001
 44
0.0000000001
 40
0.0
 40
0.0
 40
0.0
 40
0.0
 40
0.2093816403
 40
0.4460196832
 40
0.7102442778
 40
1.0
 40
1.0
 40
1.0
 40
1.0
 10
10.2788941774
 20
9.2097051502
 30
0.0
 10
10.2778751081
 20
9.207928345
 30
0.0
 10
10.2759454972
 20
9.2040028195
 30
0.0
 10
10.2735382991
 20
9.1974740822
 30
0.0
 10
10.2715538448
 20
9.1899879252
 30
0.0
 10
10.2706315604
 20
9.1846392137
 30
0.0
 10
10.2702697049
 20
9.1818278347
 30
0.0
  0
SPLINE
  5
3A7
100
AcDbEntity
  8
0
100
AcDbSpline
 62
7
  6
CONTINUOUS
 70
0
 71
3
 72
9
 73
5
 74
0
 42
0.0000001
 43
0.0000001
 44
0.0000000001
 40
0.0
 40
0.0
 40
0.0
 40
0.0
 40
0.2310495032
 40
1.0
 40
1.0
 40
1.0
 40
1.0
 10
10.2923138205
 20
9.1271540186
 30
0.0
 10
10.2920252652
 20
9.1277808822
 30
0.0
 10
10.2908282383
 20
9.1305177628
 30
0.0
 10
10.2898382909
 20
9.1333435465
 30
0.0
 10
10.2891774479
 20
9.1355430847
 30
0.0
  0
SPLINE
  5
3A8
100
AcDbEntity
  8
0
100
AcDbSpline
 62
7
  6
CONTINUOUS
 70
0
 71
3
 72
9
 73
5
 74
0
 42
0.0000001
 43
0.0000001
 44
0.0000000001
 40
0.0
 40
0.0
 40
0.0
 40
0.0
 40
0.4684441793
 40
1.0
 40
1.0
 40
1.0
 40
1.0
 10
10.2891774479
 20
9.1355430847
 30
0.0
 10
10.2883109915
 20
9.1384269827
 30
0.0
 10
10.2868213419
 20
9.1446932708
 30
0.0
 10
10.2859143833
 20
9.1510657753
 30
0.0
 10
10.2855655422
 20
9.1544648634
 30
0.0
  0
SPLINE
  5
3A9
100
AcDbEntity
  8
0
100
AcDbSpline
 62
7
  6
CONTINUOUS
 70
0
 71
3
 72
11
 73
7
 74
0
 42
0.0000001
 43
0.0000001
 44
0.0000000001
 40
0.0
 40
0.0
 40
0.0
 40
0.0
 40
0.2058354331
 40
0.4414930278
 40
0.7070246792
 40
1.0
 40
1.0
 40
1.0
 40
1.0
 10
10.2926774365
 20
9.2097051502
 30
0.0
 10
10.2918299839
 20
9.2079133122
 30
0.0
 10
10.2902327422
 20
9.2039643931
 30
0.0
 10
10.2882528896
 20
9.1974425469
 30
0.0
 10
10.2866203197
 20
9.1899637714
 30
0.0
 10
10.2858633116
 20
9.1846333434
 30
0.0
 10
10.2855655422
 20
9.1818278347
 30
0.0
  0
SPLINE
  5
3AA
100
AcDbEntity
  8
0
100
AcDbSpline
 62
7
  6
CONTINUOUS
 70
0
 71
3
 72
9
 73
5
 74
0
 42
0.0000001
 43
0.0000001
 44
0.0000000001
 40
0.0
 40
0.0
 40
0.0
 40
0.0
 40
0.2292739754
 40
1.0
 40
1.0
 40
1.0
 40
1.0
 10
10.3081218275
 20
9.1271538529
 30
0.0
 10
10.3078953412
 20
9.1277825114
 30
0.0
 10
10.306951647
 20
9.1305403127
 30
0.0
 10
10.306181335
 20
9.1333561889
 30
0.0
 10
10.3056671563
 20
9.1355428063
 30
0.0
  0
SPLINE
  5
3AB
100
AcDbEntity
  8
0
100
AcDbSpline
 62
7
  6
CONTINUOUS
 70
0
 71
3
 72
9
 73
5
 74
0
 42
0.0000001
 43
0.0000001
 44
0.0000000001
 40
0.0
 40
0.0
 40
0.0
 40
0.0
 40
0.4667283335
 40
1.0
 40
1.0
 40
1.0
 40
1.0
 10
10.3056671563
 20
9.1355428063
 30
0.0
 10
10.3049853525
 20
9.1384422727
 30
0.0
 10
10.3038188516
 20
9.1447247712
 30
0.0
 10
10.3031126879
 20
9.1510725746
 30
0.0
 10
10.3028402118
 20
9.1544648634
 30
0.0
  0
SPLINE
  5
3AC
100
AcDbEntity
  8
0
100
AcDbSpline
 62
7
  6
CONTINUOUS
 70
0
 71
3
 72
11
 73
7
 74
0
 42
0.0000001
 43
0.0000001
 44
0.0000000001
 40
0.0
 40
0.0
 40
0.0
 40
0.0
 40
0.2027078966
 40
0.4375271815
 40
0.7042176703
 40
1.0
 40
1.0
 40
1.0
 40
1.0
 10
10.308406369
 20
9.2097051502
 30
0.0
 10
10.3077377953
 20
9.2078989644
 30
0.0
 10
10.3064838025
 20
9.2039297716
 30
0.0
 10
10.3049380604
 20
9.1974151802
 30
0.0
 10
10.3036630129
 20
9.1899433954
 30
0.0
 10
10.3030728564
 20
9.1846284545
 30
0.0
 10
10.3028402118
 20
9.1818278347
 30
0.0
  0
LINE
  5
3AD
100
AcDbEntity
  8
0
100
AcDbLine
 62
7
  6
CONTINUOUS
 10
10.3258033655
 20
9.1271543042
 11
10.3240400944
 21
9.1355535232
  0
SPLINE
  5
3AE
100
AcDbEntity
  8
0
100
AcDbSpline
 62
7
  6
CONTINUOUS
 70
0
 71
3
 72
9
 73
5
 74
0
 42
0.0000001
 43
0.0000001
 44
0.0000000001
 40
0.0
 40
0.0
 40
0.0
 40
0.0
 40
0.4653992297
 40
1.0
 40
1.0
 40
1.0
 40
1.0
 10
10.3240400944
 20
9.1355535232
 30
0.0
 10
10.3235491739
 20
9.1384640617
 30
0.0
 10
10.3227125543
 20
9.1447551671
 30
0.0
 10
10.3222082849
 20
9.1510799428
 30
0.0
 10
10.3220131714
 20
9.1544648634
 30
0.0
  0
SPLINE
  5
3AF
100
AcDbEntity
  8
0
100
AcDbSpline
 62
7
  6
CONTINUOUS
 70
0
 71
3
 72
11
 73
7
 74
0
 42
0.0000001
 43
0.0000001
 44
0.0000000001
 40
0.0
 40
0.0
 40
0.0
 40
0.0
 40
0.2001769973
 40
0.4343302547
 40
0.701954382
 40
1.0
 40
1.0
 40
1.0
 40
1.0
 10
10.3260076394
 20
9.2097051502
 30
0.0
 10
10.3255245116
 20
9.2078864056
 30
0.0
 10
10.3246226397
 20
9.2039010351
 30
0.0
 10
10.3235155672
 20
9.1973932033
 30
0.0
 10
10.3226019868
 20
9.1899274901
 30
0.0
 10
10.3221799032
 20
9.1846247299
 30
0.0
 10
10.3220131714
 20
9.1818278347
 30
0.0
  0
LINE
  5
3B0
100
AcDbEntity
  8
0
100
AcDbLine
 62
7
  6
CONTINUOUS
 10
10.3452762461
 20
9.1271541666
 11
10.3442159999
 21
9.1355433045
  0
SPLINE
  5
3B1
100
AcDbEntity
  8
0
100
AcDbSpline
 62
7
  6
CONTINUOUS
 70
0
 71
3
 72
9
 73
5
 74
0
 42
0.0000001
 43
0.0000001
 44
0.0000000001
 40
0.0
 40
0.0
 40
0.0
 40
0.0
 40
0.4644478272
 40
1.0
 40
1.0
 40
1.0
 40
1.0
 10
10.3442159999
 20
9.1355433045
 30
0.0
 10
10.3439193495
 20
9.1384641228
 30
0.0
 10
10.3434153291
 20
9.1447667459
 30
0.0
 10
10.3431124036
 20
9.1510815934
 30
0.0
 10
10.3429950277
 20
9.1544648634
 30
0.0
  0
SPLINE
  5
3B2
100
AcDbEntity
  8
0
100
AcDbSpline
 62
7
  6
CONTINUOUS
 70
0
 71
3
 72
11
 73
7
 74
0
 42
0.0000001
 43
0.0000001
 44
0.0000000001
 40
0.0
 40
0.0
 40
0.0
 40
0.0
 40
0.1983731058
 40
0.4320715201
 40
0.7003767723
 40
1.0
 40
1.0
 40
1.0
 40
1.0
 10
10.3453991825
 20
9.2097051502
 30
0.0
 10
10.3451069248
 20
9.2078771671
 30
0.0
 10
10.3445631943
 20
9.2038807504
 30
0.0
 10
10.3438979612
 20
9.1973779556
 30
0.0
 10
10.3433488717
 20
9.1899165276
 30
0.0
 10
10.3430952841
 20
9.1846220918
 30
0.0
 10
10.3429950277
 20
9.1818278347
 30
0.0
  0
SPLINE
  5
3B3
100
AcDbEntity
  8
0
100
AcDbSpline
 62
7
  6
CONTINUOUS
 70
0
 71
3
 72
10
 73
6
 74
0
 42
0.0000001
 43
0.0000001
 44
0.0000000001
 40
0.0
 40
0.0
 40
0.0
 40
0.0
 40
0.1974433974
 40
0.4309086368
 40
1.0
 40
1.0
 40
1.0
 40
1.0
 10
10.3664905859
 20
9.2097051502
 30
0.0
 10
10.3663927482
 20
9.2078721678
 30
0.0
 10
10.3662110295
 20
9.2038700798
 30
0.0
 10
10.3658942593
 20
9.1945785663
 30
0.0
 10
10.3657513236
 20
9.1871181833
 30
0.0
 10
10.3656879536
 20
9.1818278347
 30
0.0
  0
LINE
  5
3B4
100
AcDbEntity
  8
0
100
AcDbLine
 62
7
  6
CONTINUOUS
 10
11.0535174431
 20
9.1271544257
 11
11.0539319106
 21
9.1374096606
  0
SPLINE
  5
3B5
100
AcDbEntity
  8
0
100
AcDbSpline
 62
7
  6
CONTINUOUS
 70
0
 71
3
 72
10
 73
6
 74
0
 42
0.0000001
 43
0.0000001
 44
0.0000000001
 40
0.0
 40
0.0
 40
0.0
 40
0.0
 40
0.569133912
 40
0.8025682353
 40
1.0
 40
1.0
 40
1.0
 40
1.0
 10
11.0542790247
 20
9.1818278347
 30
0.0
 10
11.0542156499
 20
9.1871185788
 30
0.0
 10
11.0540727062
 20
9.19457907
 30
0.0
 10
11.0537559173
 20
9.2038705827
 30
0.0
 10
11.0535742243
 20
9.2078722758
 30
0.0
 10
11.0534763923
 20
9.2097051502
 30
0.0
  0
LINE
  5
3B6
100
AcDbEntity
  8
0
100
AcDbLine
 62
7
  6
CONTINUOUS
 10
11.0746906791
 20
9.1271537121
 11
11.0759322455
 21
9.1374098639
  0
SPLINE
  5
3B7
100
AcDbEntity
  8
0
100
AcDbSpline
 62
7
  6
CONTINUOUS
 70
0
 71
3
 72
9
 73
5
 74
0
 42
0.0000001
 43
0.0000001
 44
0.0000000001
 40
0.0
 40
0.0
 40
0.0
 40
0.0
 40
0.4699012633
 40
1.0
 40
1.0
 40
1.0
 40
1.0
 10
11.0759322455
 20
9.1374098639
 30
0.0
 10
11.0761791218
 20
9.1400750722
 30
0.0
 10
11.0766019099
 20
9.1457565466
 30
0.0
 10
11.0768672576
 20
9.1514471685
 30
0.0
 10
11.0769719506
 20
9.1544648634
 30
0.0
  0
SPLINE
  5
3B8
100
AcDbEntity
  8
0
100
AcDbSpline
 62
7
  6
CONTINUOUS
 70
0
 71
3
 72
11
 73
7
 74
0
 42
0.0000001
 43
0.0000001
 44
0.0000000001
 40
0.0
 40
0.0
 40
0.0
 40
0.0
 40
0.2996430783
 40
0.5679709968
 40
0.8016387149
 40
1.0
 40
1.0
 40
1.0
 40
1.0
 10
11.0769719506
 20
9.1818278347
 30
0.0
 10
11.0768716876
 20
9.1846222767
 30
0.0
 10
11.0766180142
 20
9.189917105
 30
0.0
 10
11.0760689549
 20
9.1973786454
 30
0.0
 10
11.0754036879
 20
9.2038812498
 30
0.0
 10
11.0748600361
 20
9.2078772762
 30
0.0
 10
11.0745677958
 20
9.2097051502
 30
0.0
  0
SPLINE
  5
3B9
100
AcDbEntity
  8
0
100
AcDbSpline
 62
7
  6
CONTINUOUS
 70
0
 71
3
 72
9
 73
5
 74
0
 42
0.0000001
 43
0.0000001
 44
0.0000000001
 40
0.0
 40
0.0
 40
0.0
 40
0.0
 40
0.4651481028
 40
1.0
 40
1.0
 40
1.0
 40
1.0
 10
11.0941635835
 20
9.1271542033
 30
0.0
 10
11.0945696845
 20
9.128724958
 30
0.0
 10
11.0953400605
 20
9.1321286853
 30
0.0
 10
11.0959425058
 20
9.135565555
 30
0.0
 10
11.096226278
 20
9.1374093695
 30
0.0
  0
SPLINE
  5
3BA
100
AcDbEntity
  8
0
100
AcDbSpline
 62
7
  6
CONTINUOUS
 70
0
 71
3
 72
9
 73
5
 74
0
 42
0.0000001
 43
0.0000001
 44
0.0000000001
 40
0.0
 40
0.0
 40
0.0
 40
0.0
 40
0.4706625674
 40
1.0
 40
1.0
 40
1.0
 40
1.0
 10
11.096226278
 20
9.1374093695
 30
0.0
 10
11.0966354986
 20
9.1400682875
 30
0.0
 10
11.0973378229
 20
9.1457436813
 30
0.0
 10
11.0977796943
 20
9.1514442779
 30
0.0
 10
11.0979538069
 20
9.1544648634
 30
0.0
  0
SPLINE
  5
3BB
100
AcDbEntity
  8
0
100
AcDbSpline
 62
7
  6
CONTINUOUS
 70
0
 71
3
 72
11
 73
7
 74
0
 42
0.0000001
 43
0.0000001
 44
0.0000000001
 40
0.0
 40
0.0
 40
0.0
 40
0.0
 40
0.2980665007
 40
0.5657143851
 40
0.799835415
 40
1.0
 40
1.0
 40
1.0
 40
1.0
 10
11.0979538069
 20
9.1818278347
 30
0.0
 10
11.0977870634
 20
9.1846249254
 30
0.0
 10
11.0973648359
 20
9.1899280933
 30
0.0
 10
11.0964513213
 20
9.1973939316
 30
0.0
 10
11.0953441748
 20
9.20390155
 30
0.0
 10
11.0944424366
 20
9.2078865187
 30
0.0
 10
11.0939593388
 20
9.2097051502
 30
0.0
  0
SPLINE
  5
3BC
100
AcDbEntity
  8
0
100
AcDbSpline
 62
7
  6
CONTINUOUS
 70
0
 71
3
 72
9
 73
5
 74
0
 42
0.0000001
 43
0.0000001
 44
0.0000000001
 40
0.0
 40
0.0
 40
0.0
 40
0.0
 40
0.4673429971
 40
1.0
 40
1.0
 40
1.0
 40
1.0
 10
11.1118451077
 20
9.1271536904
 30
0.0
 10
11.1124077957
 20
9.1287155334
 30
0.0
 10
11.1134784328
 20
9.1321061529
 30
0.0
 10
11.1143227191
 20
9.1355592169
 30
0.0
 10
11.114719489
 20
9.1374092712
 30
0.0
  0
SPLINE
  5
3BD
100
AcDbEntity
  8
0
100
AcDbSpline
 62
7
  6
CONTINUOUS
 70
0
 71
3
 72
9
 73
5
 74
0
 42
0.0000001
 43
0.0000001
 44
0.0000000001
 40
0.0
 40
0.0
 40
0.0
 40
0.0
 40
0.4717706066
 40
1.0
 40
1.0
 40
1.0
 40
1.0
 10
11.114719489
 20
9.1374092712
 30
0.0
 10
11.1152877875
 20
9.1400591268
 30
0.0
 10
11.1162660422
 20
9.1457252609
 30
0.0
 10
11.116883816
 20
9.1514401641
 30
0.0
 10
11.1171267664
 20
9.1544648634
 30
0.0
  0
SPLINE
  5
3BE
100
AcDbEntity
  8
0
100
AcDbSpline
 62
7
  6
CONTINUOUS
 70
0
 71
3
 72
11
 73
7
 74
0
 42
0.0000001
 43
0.0000001
 44
0.0000000001
 40
0.0
 40
0.0
 40
0.0
 40
0.0
 40
0.2958025068
 40
0.5625155275
 40
0.7973042792
 40
1.0
 40
1.0
 40
1.0
 40
1.0
 10
11.1171267664
 20
9.1818278347
 30
0.0
 10
11.1168941061
 20
9.1846286445
 30
0.0
 10
11.1163037556
 20
9.1899439689
 30
0.0
 10
11.1150287732
 20
9.1974158802
 30
0.0
 10
11.1134829566
 20
9.2039302531
 30
0.0
 10
11.1122291426
 20
9.2078990735
 30
0.0
 10
11.1115606093
 20
9.2097051502
 30
0.0
  0
SPLINE
  5
3BF
100
AcDbEntity
  8
0
100
AcDbSpline
 62
7
  6
CONTINUOUS
 70
0
 71
3
 72
9
 73
5
 74
0
 42
0.0000001
 43
0.0000001
 44
0.0000000001
 40
0.0
 40
0.0
 40
0.0
 40
0.0
 40
0.4699689125
 40
1.0
 40
1.0
 40
1.0
 40
1.0
 10
11.127653076
 20
9.1271538506
 30
0.0
 10
11.1283672698
 20
9.1287053683
 30
0.0
 10
11.1297307201
 20
9.1320796576
 30
0.0
 10
11.1308167688
 20
9.1355520958
 30
0.0
 10
11.1313258296
 20
9.1374099019
 30
0.0
  0
SPLINE
  5
3C0
100
AcDbEntity
  8
0
100
AcDbSpline
 62
7
  6
CONTINUOUS
 70
0
 71
3
 72
9
 73
5
 74
0
 42
0.0000001
 43
0.0000001
 44
0.0000000001
 40
0.0
 40
0.0
 40
0.0
 40
0.0
 40
0.4731835937
 40
1.0
 40
1.0
 40
1.0
 40
1.0
 10
11.1313258296
 20
9.1374099019
 30
0.0
 10
11.1320487969
 20
9.1400483547
 30
0.0
 10
11.1332978735
 20
9.1457020561
 30
0.0
 10
11.1340904865
 20
9.1514349884
 30
0.0
 10
11.1344014361
 20
9.1544648634
 30
0.0
  0
SPLINE
  5
3C1
100
AcDbEntity
  8
0
100
AcDbSpline
 62
7
  6
CONTINUOUS
 70
0
 71
3
 72
11
 73
7
 74
0
 42
0.0000001
 43
0.0000001
 44
0.0000000001
 40
0.0
 40
0.0
 40
0.0
 40
0.0
 40
0.2929954414
 40
0.5585497288
 40
0.7941771438
 40
1.0
 40
1.0
 40
1.0
 40
1.0
 10
11.1344014361
 20
9.1818278347
 30
0.0
 10
11.1341036463
 20
9.1846335345
 30
0.0
 10
11.1333463878
 20
9.1899643378
 30
0.0
 10
11.1317138999
 20
9.1974432512
 30
0.0
 10
11.1297339617
 20
9.2039648633
 30
0.0
 10
11.1281369421
 20
9.2079134227
 30
0.0
 10
11.1272895418
 20
9.2097051502
 30
0.0
  0
LINE
  5
3C2
100
AcDbEntity
  8
0
100
AcDbLine
 62
7
  6
CONTINUOUS
 10
11.1415136529
 20
9.1271537837
 11
11.143825573
 21
9.1318210678
  0
LINE
  5
3C3
100
AcDbEntity
  8
0
100
AcDbLine
 62
7
  6
CONTINUOUS
 10
11.143825573
 20
9.1318210678
 11
11.1459673373
 21
9.1374093185
  0
SPLINE
  5
3C4
100
AcDbEntity
  8
0
100
AcDbSpline
 62
7
  6
CONTINUOUS
 70
0
 71
3
 72
9
 73
5
 74
0
 42
0.0000001
 43
0.0000001
 44
0.0000000001
 40
0.0
 40
0.0
 40
0.0
 40
0.0
 40
0.4748486526
 40
1.0
 40
1.0
 40
1.0
 40
1.0
 10
11.1459673373
 20
9.1374093185
 30
0.0
 10
11.1468397984
 20
9.1400348437
 30
0.0
 10
11.1483533107
 20
9.1456737871
 30
0.0
 10
11.149319384
 20
9.1514285116
 30
0.0
 10
11.1496972734
 20
9.1544648634
 30
0.0
  0
SPLINE
  5
3C5
100
AcDbEntity
  8
0
100
AcDbSpline
 62
7
  6
CONTINUOUS
 70
0
 71
3
 72
11
 73
7
 74
0
 42
0.0000001
 43
0.0000001
 44
0.0000000001
 40
0.0
 40
0.0
 40
0.0
 40
0.0
 40
0.2897761287
 40
0.5540232314
 40
0.7906312106
 40
1.0
 40
1.0
 40
1.0
 40
1.0
 10
11.1496972734
 20
9.1818278347
 30
0.0
 10
11.1493353926
 20
9.1846394095
 30
0.0
 10
11.1484128111
 20
9.1899884889
 30
0.0
 10
11.1464284498
 20
9.1974747952
 30
0.0
 10
11.1440211521
 20
9.2040032751
 30
0.0
 10
11.1420918069
 20
9.2079284554
 30
0.0
 10
11.1410728008
 20
9.2097051502
 30
0.0
  0
LINE
  5
3C6
100
AcDbEntity
  8
0
100
AcDbLine
 62
7
  6
CONTINUOUS
 10
11.1533622347
 20
9.1271537794
 11
11.1558130901
 21
9.1313293682
  0
SPLINE
  5
3C7
100
AcDbEntity
  8
0
100
AcDbSpline
 62
7
  6
CONTINUOUS
 70
0
 71
3
 72
11
 73
7
 74
0
 42
0.0000001
 43
0.0000001
 44
0.0000000001
 40
0.0
 40
0.0
 40
0.0
 40
0.0
 40
0.2213849876
 40
0.4626567912
 40
0.7230907177
 40
1.0
 40
1.0
 40
1.0
 40
1.0
 10
11.1558130901
 20
9.1313293682
 30
0.0
 10
11.156649182
 20
9.1329172002
 30
0.0
 10
11.1582351106
 20
9.1363226795
 30
0.0
 10
11.1602135281
 20
9.1418477536
 30
0.0
 10
11.1618337619
 20
9.1479545175
 30
0.0
 10
11.1626193395
 20
9.1522437372
 30
0.0
 10
11.162942962
 20
9.1544648634
 30
0.0
  0
SPLINE
  5
3C8
100
AcDbEntity
  8
0
100
AcDbSpline
 62
7
  6
CONTINUOUS
 70
0
 71
3
 72
11
 73
7
 74
0
 42
0.0000001
 43
0.0000001
 44
0.0000000001
 40
0.0
 40
0.0
 40
0.0
 40
0.0
 40
0.2862820061
 40
0.5491372795
 40
0.7868313655
 40
1.0
 40
1.0
 40
1.0
 40
1.0
 10
11.162942962
 20
9.1818278347
 30
0.0
 10
11.1625182899
 20
9.1846461203
 30
0.0
 10
11.1614325619
 20
9.1900156607
 30
0.0
 10
11.1591036727
 20
9.197509171
 30
0.0
 10
11.1562781702
 20
9.2040434002
 30
0.0
 10
11.1540291503
 20
9.207943263
 30
0.0
 10
11.1528461225
 20
9.2097051502
 30
0.0
  0
SPLINE
  5
3C9
100
AcDbEntity
  8
0
100
AcDbSpline
 62
7
  6
CONTINUOUS
 70
0
 71
3
 72
11
 73
7
 74
0
 42
0.0000001
 43
0.0000001
 44
0.0000000001
 40
0.0
 40
0.0
 40
0.0
 40
0.0
 40
0.2229435392
 40
0.4644741297
 40
0.7243097168
 40
1.0
 40
1.0
 40
1.0
 40
1.0
 10
11.1654860732
 20
9.1305872697
 30
0.0
 10
11.1664900965
 20
9.1321969751
 30
0.0
 10
11.1684006791
 20
9.1356668516
 30
0.0
 10
11.1707952382
 20
9.1413575498
 30
0.0
 10
11.1727500231
 20
9.1476845759
 30
0.0
 10
11.1736919565
 20
9.1521506216
 30
0.0
 10
11.1740767445
 20
9.1544648634
 30
0.0
  0
SPLINE
  5
3CA
100
AcDbEntity
  8
0
100
AcDbSpline
 62
7
  6
CONTINUOUS
 70
0
 71
3
 72
11
 73
7
 74
0
 42
0.0000001
 43
0.0000001
 44
0.0000000001
 40
0.0
 40
0.0
 40
0.0
 40
0.0
 40
0.2826412262
 40
0.5440758884
 40
0.7829244646
 40
1.0
 40
1.0
 40
1.0
 40
1.0
 10
11.1740767445
 20
9.1818278347
 30
0.0
 10
11.1735908543
 20
9.1846535086
 30
0.0
 10
11.1723448761
 20
9.1900450611
 30
0.0
 10
11.1696806266
 20
9.1975451017
 30
0.0
 10
11.1664485939
 20
9.2040834823
 30
0.0
 10
11.1638939334
 20
9.2079572367
 30
0.0
 10
11.1625546142
 20
9.2097051502
 30
0.0
  0
SPLINE
  5
3CB
100
AcDbEntity
  8
0
100
AcDbSpline
 62
7
  6
CONTINUOUS
 70
0
 71
3
 72
11
 73
7
 74
0
 42
0.0000001
 43
0.0000001
 44
0.0000000001
 40
0.0
 40
0.0
 40
0.0
 40
0.0
 40
0.2246543622
 40
0.4664668862
 40
0.7256418367
 40
1.0
 40
1.0
 40
1.0
 40
1.0
 10
11.1727892405
 20
9.1296852774
 30
0.0
 10
11.1739834476
 20
9.1313195657
 30
0.0
 10
11.1762634103
 20
9.1348635078
 30
0.0
 10
11.1791377972
 20
9.1407516134
 30
0.0
 10
11.1814761485
 20
9.1473489346
 30
0.0
 10
11.1825945367
 20
9.1520346337
 30
0.0
 10
11.18304671
 20
9.1544648634
 30
0.0
  0
SPLINE
  5
3CC
100
AcDbEntity
  8
0
100
AcDbSpline
 62
7
  6
CONTINUOUS
 70
0
 71
3
 72
9
 73
5
 74
0
 42
0.0000001
 43
0.0000001
 44
0.0000000001
 40
0.0
 40
0.0
 40
0.0
 40
0.0
 40
0.2721708867
 40
1.0
 40
1.0
 40
1.0
 40
1.0
 10
11.180319989
 20
9.1918110092
 30
0.0
 10
11.1796882911
 20
9.193574221
 30
0.0
 10
11.1770913297
 20
9.1999471606
 30
0.0
 10
11.1734132272
 20
9.2059029275
 30
0.0
 10
11.1701530103
 20
9.2097051502
 30
0.0
  0
SPLINE
  5
3CD
100
AcDbEntity
  8
0
100
AcDbSpline
 62
7
  6
CONTINUOUS
 70
0
 71
3
 72
9
 73
5
 74
0
 42
0.0000001
 43
0.0000001
 44
0.0000000001
 40
0.0
 40
0.0
 40
0.0
 40
0.0
 40
0.4736234538
 40
1.0
 40
1.0
 40
1.0
 40
1.0
 10
11.1776955346
 20
9.1286987258
 30
0.0
 10
11.1800085083
 20
9.1314291389
 30
0.0
 10
11.1842941699
 20
9.1377253784
 30
0.0
 10
11.1871675187
 20
9.1447778348
 30
0.0
 10
11.1883220203
 20
9.1485835514
 30
0.0
  0
SPLINE
  5
3CE
100
AcDbEntity
  8
0
100
AcDbSpline
 62
7
  6
CONTINUOUS
 70
0
 71
3
 72
9
 73
5
 74
0
 42
0.0000001
 43
0.0000001
 44
0.0000000001
 40
0.0
 40
0.0
 40
0.0
 40
0.0
 40
0.5245951502
 40
1.0
 40
1.0
 40
1.0
 40
1.0
 10
11.1868068713
 20
9.1918112845
 30
0.0
 10
11.1854454556
 20
9.195260432
 30
0.0
 10
11.1822471673
 20
9.201616546
 30
0.0
 10
11.1779135012
 20
9.207262358
 30
0.0
 10
11.1756058838
 20
9.2097051502
 30
0.0
  0
SPLINE
  5
3CF
100
AcDbEntity
  8
0
100
AcDbSpline
 62
7
  6
CONTINUOUS
 70
0
 71
3
 72
9
 73
5
 74
0
 42
0.0000001
 43
0.0000001
 44
0.0000000001
 40
0.0
 40
0.0
 40
0.0
 40
0.0
 40
0.2418666697
 40
1.0
 40
1.0
 40
1.0
 40
1.0
 10
11.1876561396
 20
9.1374092777
 30
0.0
 10
11.1881626218
 20
9.138260076
 30
0.0
 10
11.190156998
 20
9.1418364
 30
0.0
 10
11.191746144
 20
9.1456362431
 30
0.0
 10
11.1927186258
 20
9.1485835601
 30
0.0
  0
SPLINE
  5
3D0
100
AcDbEntity
  8
0
100
AcDbSpline
 62
7
  6
CONTINUOUS
 70
0
 71
3
 72
9
 73
5
 74
0
 42
0.0000001
 43
0.0000001
 44
0.0000000001
 40
0.0
 40
0.0
 40
0.0
 40
0.0
 40
0.2584685362
 40
1.0
 40
1.0
 40
1.0
 40
1.0
 10
11.1859345823
 20
9.2012434503
 30
0.0
 10
11.1854037679
 20
9.2020309243
 30
0.0
 10
11.183273226
 20
9.2050249678
 30
0.0
 10
11.1808402905
 20
9.2078048764
 30
0.0
 10
11.1788878107
 20
9.2097051502
 30
0.0
  0
SPLINE
  5
3D1
100
AcDbEntity
  8
0
100
AcDbSpline
 62
7
  6
CONTINUOUS
 70
0
 71
3
 72
11
 73
7
 74
0
 42
0.0000001
 43
0.0000001
 44
0.0000000001
 40
0.0
 40
0.0
 40
0.0
 40
0.0
 40
0.2500531229
 40
0.5000640661
 40
0.750040113
 40
1.0
 40
1.0
 40
1.0
 40
1.0
 10
10.3652895517
 20
9.1271538964
 30
0.0
 10
10.3627907858
 20
9.1287970137
 30
0.0
 10
10.3579863124
 20
9.1323919286
 30
0.0
 10
10.3516277049
 20
9.1387723848
 30
0.0
 10
10.3464469551
 20
9.1461502688
 30
0.0
 10
10.3439549426
 20
9.1516336868
 30
0.0
 10
10.3429950277
 20
9.1544648634
 30
0.0
  0
SPLINE
  5
3D2
100
AcDbEntity
  8
0
100
AcDbSpline
 62
7
  6
CONTINUOUS
 70
0
 71
3
 72
11
 73
7
 74
0
 42
0.0000001
 43
0.0000001
 44
0.0000000001
 40
0.0
 40
0.0
 40
0.0
 40
0.0
 40
0.2499543323
 40
0.4999970017
 40
0.7500534626
 40
1.0
 40
1.0
 40
1.0
 40
1.0
 10
10.3429950277
 20
9.1818278347
 30
0.0
 10
10.3440173996
 20
9.1847435148
 30
0.0
 10
10.3467131063
 20
9.1903621701
 30
0.0
 10
10.352234861
 20
9.1978638067
 30
0.0
 10
10.3588879026
 20
9.2043710511
 30
0.0
 10
10.3638882804
 20
9.2080396636
 30
0.0
 10
10.3664905859
 20
9.2097051502
 30
0.0
  0
SPLINE
  5
3D3
100
AcDbEntity
  8
0
100
AcDbSpline
 62
7
  6
CONTINUOUS
 70
0
 71
3
 72
11
 73
7
 74
0
 42
0.0000001
 43
0.0000001
 44
0.0000000001
 40
0.0
 40
0.0
 40
0.0
 40
0.0
 40
0.2500530975
 40
0.5000640366
 40
0.7500400604
 40
1.0
 40
1.0
 40
1.0
 40
1.0
 10
10.387981915
 20
9.1271543434
 30
0.0
 10
10.3854832162
 20
9.1287974534
 30
0.0
 10
10.3806788103
 20
9.1323922583
 30
0.0
 10
10.3743204148
 20
9.138772677
 30
0.0
 10
10.3691397978
 20
9.1461504277
 30
0.0
 10
10.3666478495
 20
9.1516337428
 30
0.0
 10
10.3656879536
 20
9.1544648634
 30
0.0
  0
SPLINE
  5
3D4
100
AcDbEntity
  8
0
100
AcDbSpline
 62
7
  6
CONTINUOUS
 70
0
 71
3
 72
11
 73
7
 74
0
 42
0.0000001
 43
0.0000001
 44
0.0000000001
 40
0.0
 40
0.0
 40
0.0
 40
0.0
 40
0.2499543675
 40
0.4999969765
 40
0.7500534236
 40
1.0
 40
1.0
 40
1.0
 40
1.0
 10
10.3656879536
 20
9.1818278347
 30
0.0
 10
10.3667103257
 20
9.1847435154
 30
0.0
 10
10.369406021
 20
9.1903621761
 30
0.0
 10
10.3749277828
 20
9.1978638094
 30
0.0
 10
10.3815808301
 20
9.204371047
 30
0.0
 10
10.3865812057
 20
9.2080396633
 30
0.0
 10
10.3891835118
 20
9.2097051502
 30
0.0
  0
SPLINE
  5
3D5
100
AcDbEntity
  8
0
100
AcDbSpline
 62
7
  6
CONTINUOUS
 70
0
 71
3
 72
9
 73
5
 74
0
 42
0.0000001
 43
0.0000001
 44
0.0000000001
 40
0.0
 40
0.0
 40
0.0
 40
0.0
 40
0.4316557037
 40
1.0
 40
1.0
 40
1.0
 40
1.0
 10
10.3892245657
 20
9.1271544609
 30
0.0
 10
10.3894285176
 20
9.1310804429
 30
0.0
 10
10.389761151
 20
9.1401827625
 30
0.0
 10
10.3899261961
 20
9.1492890521
 30
0.0
 10
10.3899861442
 20
9.1544648634
 30
0.0
  0
SPLINE
  5
3D6
100
AcDbEntity
  8
0
100
AcDbSpline
 62
7
  6
CONTINUOUS
 70
0
 71
3
 72
10
 73
6
 74
0
 42
0.0000001
 43
0.0000001
 44
0.0000000001
 40
0.0
 40
0.0
 40
0.0
 40
0.0
 40
0.1974433974
 40
0.4309086368
 40
1.0
 40
1.0
 40
1.0
 40
1.0
 10
10.3891835118
 20
9.2097051502
 30
0.0
 10
10.3892813495
 20
9.2078721678
 30
0.0
 10
10.3894630682
 20
9.2038700798
 30
0.0
 10
10.3897798385
 20
9.1945785663
 30
0.0
 10
10.3899227741
 20
9.1871181833
 30
0.0
 10
10.3899861442
 20
9.1818278347
 30
0.0
  0
SPLINE
  5
3D7
100
AcDbEntity
  8
0
100
AcDbSpline
 62
7
  6
CONTINUOUS
 70
0
 71
3
 72
11
 73
7
 74
0
 42
0.0000001
 43
0.0000001
 44
0.0000000001
 40
0.0
 40
0.0
 40
0.0
 40
0.0
 40
0.2497843531
 40
0.4996941686
 40
0.7497627489
 40
1.0
 40
1.0
 40
1.0
 40
1.0
 10
10.4121766092
 20
9.127153915
 30
0.0
 10
10.4096887907
 20
9.1287974931
 30
0.0
 10
10.4049051892
 20
9.132393965
 30
0.0
 10
10.3985762584
 20
9.1387751052
 30
0.0
 10
10.3934203006
 20
9.1461532422
 30
0.0
 10
10.3909412855
 20
9.1516345695
 30
0.0
 10
10.3899861442
 20
9.1544648634
 30
0.0
  0
SPLINE
  5
3D8
100
AcDbEntity
  8
0
100
AcDbSpline
 62
7
  6
CONTINUOUS
 70
0
 71
3
 72
11
 73
7
 74
0
 42
0.0000001
 43
0.0000001
 44
0.0000000001
 40
0.0
 40
0.0
 40
0.0
 40
0.0
 40
0.2502327373
 40
0.5003619479
 40
0.7503177591
 40
1.0
 40
1.0
 40
1.0
 40
1.0
 10
10.3899861442
 20
9.1818278347
 30
0.0
 10
10.3910034018
 20
9.184742519
 30
0.0
 10
10.3936850065
 20
9.1903590542
 30
0.0
 10
10.3991805853
 20
9.1978611854
 30
0.0
 10
10.4058025823
 20
9.2043690855
 30
0.0
 10
10.4107812354
 20
9.208039183
 30
0.0
 10
10.4133721553
 20
9.2097051502
 30
0.0
  0
SPLINE
  5
3D9
100
AcDbEntity
  8
0
100
AcDbSpline
 62
7
  6
CONTINUOUS
 70
0
 71
3
 72
11
 73
7
 74
0
 42
0.0000001
 43
0.0000001
 44
0.0000000001
 40
0.0
 40
0.0
 40
0.0
 40
0.0
 40
0.198736325
 40
0.4327821272
 40
0.7016183843
 40
1.0
 40
1.0
 40
1.0
 40
1.0
 10
10.4134950797
 20
9.1271540625
 30
0.0
 10
10.4137743745
 20
9.1289489305
 30
0.0
 10
10.4142987726
 20
9.1328707726
 30
0.0
 10
10.4149326783
 20
9.1392531866
 30
0.0
 10
10.4154461615
 20
9.1465596512
 30
0.0
 10
10.4156817509
 20
9.1517392678
 30
0.0
 10
10.4157763101
 20
9.1544648634
 30
0.0
  0
SPLINE
  5
3DA
100
AcDbEntity
  8
0
100
AcDbSpline
 62
7
  6
CONTINUOUS
 70
0
 71
3
 72
11
 73
7
 74
0
 42
0.0000001
 43
0.0000001
 44
0.0000000001
 40
0.0
 40
0.0
 40
0.0
 40
0.0
 40
0.1983731058
 40
0.4320715201
 40
0.7003767723
 40
1.0
 40
1.0
 40
1.0
 40
1.0
 10
10.4133721553
 20
9.2097051502
 30
0.0
 10
10.413664413
 20
9.2078771671
 30
0.0
 10
10.4142081435
 20
9.2038807504
 30
0.0
 10
10.4148733766
 20
9.1973779556
 30
0.0
 10
10.4154224661
 20
9.1899165276
 30
0.0
 10
10.4156760537
 20
9.1846220918
 30
0.0
 10
10.4157763101
 20
9.1818278347
 30
0.0
  0
SPLINE
  5
3DB
100
AcDbEntity
  8
0
100
AcDbSpline
 62
7
  6
CONTINUOUS
 70
0
 71
3
 72
11
 73
7
 74
0
 42
0.0000001
 43
0.0000001
 44
0.0000000001
 40
0.0
 40
0.0
 40
0.0
 40
0.0
 40
0.249245284
 40
0.4989530294
 40
0.7492073645
 40
1.0
 40
1.0
 40
1.0
 40
1.0
 10
10.4377584108
 20
9.1271548366
 30
0.0
 10
10.4352925571
 20
9.1287993528
 30
0.0
 10
10.4305504892
 20
9.1323984731
 30
0.0
 10
10.4242812422
 20
9.1387810581
 30
0.0
 10
10.4191749434
 20
9.1461594286
 30
0.0
 10
10.4167219076
 20
9.1516364137
 30
0.0
 10
10.4157763101
 20
9.1544648634
 30
0.0
  0
SPLINE
  5
3DC
100
AcDbEntity
  8
0
100
AcDbSpline
 62
7
  6
CONTINUOUS
 70
0
 71
3
 72
11
 73
7
 74
0
 42
0.0000001
 43
0.0000001
 44
0.0000000001
 40
0.0
 40
0.0
 40
0.0
 40
0.0
 40
0.2507903833
 40
0.5010936208
 40
0.7508480507
 40
1.0
 40
1.0
 40
1.0
 40
1.0
 10
10.4157763101
 20
9.1818278347
 30
0.0
 10
10.4167833747
 20
9.1847405378
 30
0.0
 10
10.4194369051
 20
9.1903528226
 30
0.0
 10
10.4248802297
 20
9.1978559215
 30
0.0
 10
10.4314402508
 20
9.2043651339
 30
0.0
 10
10.4363755398
 20
9.2080382128
 30
0.0
 10
10.4389437377
 20
9.2097051502
 30
0.0
  0
SPLINE
  5
3DD
100
AcDbEntity
  8
0
100
AcDbSpline
 62
7
  6
CONTINUOUS
 70
0
 71
3
 72
11
 73
7
 74
0
 42
0.0000001
 43
0.0000001
 44
0.0000000001
 40
0.0
 40
0.0
 40
0.0
 40
0.0
 40
0.2004769254
 40
0.4349584874
 40
0.7031292573
 40
1.0
 40
1.0
 40
1.0
 40
1.0
 10
10.4391481822
 20
9.1271551449
 30
0.0
 10
10.439610004
 20
9.128941489
 30
0.0
 10
10.4404797821
 20
9.1328518591
 30
0.0
 10
10.4415346452
 20
9.1392391577
 30
0.0
 10
10.4423888014
 20
9.1465501333
 30
0.0
 10
10.4427809756
 20
9.1517371614
 30
0.0
 10
10.4429382058
 20
9.1544648634
 30
0.0
  0
SPLINE
  5
3DE
100
AcDbEntity
  8
0
100
AcDbSpline
 62
7
  6
CONTINUOUS
 70
0
 71
3
 72
11
 73
7
 74
0
 42
0.0000001
 43
0.0000001
 44
0.0000000001
 40
0.0
 40
0.0
 40
0.0
 40
0.0
 40
0.2001685201
 40
0.4343253909
 40
0.7019606755
 40
1.0
 40
1.0
 40
1.0
 40
1.0
 10
10.4389437377
 20
9.2097051502
 30
0.0
 10
10.4394268452
 20
9.2078864824
 30
0.0
 10
10.4403288619
 20
9.2039011919
 30
0.0
 10
10.4414358237
 20
9.1973932735
 30
0.0
 10
10.4423492575
 20
9.1899274665
 30
0.0
 10
10.4427714775
 20
9.1846246712
 30
0.0
 10
10.4429382058
 20
9.1818278347
 30
0.0
  0
SPLINE
  5
3DF
100
AcDbEntity
  8
0
100
AcDbSpline
 62
7
  6
CONTINUOUS
 70
0
 71
3
 72
11
 73
7
 74
0
 42
0.0000001
 43
0.0000001
 44
0.0000000001
 40
0.0
 40
0.0
 40
0.0
 40
0.0
 40
0.2484334353
 40
0.4978377168
 40
0.7483727472
 40
1.0
 40
1.0
 40
1.0
 40
1.0
 10
10.4646115677
 20
9.1271537102
 30
0.0
 10
10.4621781917
 20
9.1287996765
 30
0.0
 10
10.4574982278
 20
9.1324037894
 30
0.0
 10
10.4513169906
 20
9.1387884902
 30
0.0
 10
10.4462842582
 20
9.1461678535
 30
0.0
 10
10.4438696633
 20
9.1516388693
 30
0.0
 10
10.4429382058
 20
9.1544648634
 30
0.0
  0
SPLINE
  5
3E0
100
AcDbEntity
  8
0
100
AcDbSpline
 62
7
  6
CONTINUOUS
 70
0
 71
3
 72
11
 73
7
 74
0
 42
0.0000001
 43
0.0000001
 44
0.0000000001
 40
0.0
 40
0.0
 40
0.0
 40
0.0
 40
0.2516289992
 40
0.5021953072
 40
0.7516474437
 40
1.0
 40
1.0
 40
1.0
 40
1.0
 10
10.4429382058
 20
9.1818278347
 30
0.0
 10
10.4439300702
 20
9.184737595
 30
0.0
 10
10.4465417561
 20
9.1903435068
 30
0.0
 10
10.4519069792
 20
9.1978479876
 30
0.0
 10
10.4583743483
 20
9.2043591353
 30
0.0
 10
10.4632447917
 20
9.2080367328
 30
0.0
 10
10.4657790326
 20
9.2097051502
 30
0.0
  0
SPLINE
  5
3E1
100
AcDbEntity
  8
0
100
AcDbSpline
 62
7
  6
CONTINUOUS
 70
0
 71
3
 72
11
 73
7
 74
0
 42
0.0000001
 43
0.0000001
 44
0.0000000001
 40
0.0
 40
0.0
 40
0.0
 40
0.0
 40
0.2029456647
 40
0.4380589219
 40
0.7052828187
 40
1.0
 40
1.0
 40
1.0
 40
1.0
 10
10.4660635327
 20
9.127153697
 30
0.0
 10
10.4667030369
 20
9.1289287577
 30
0.0
 10
10.4679119551
 20
9.1328230705
 30
0.0
 10
10.4693852411
 20
9.1392173702
 30
0.0
 10
10.4705777796
 20
9.1465353614
 30
0.0
 10
10.4711258195
 20
9.1517337333
 30
0.0
 10
10.4713451898
 20
9.1544648634
 30
0.0
  0
SPLINE
  5
3E2
100
AcDbEntity
  8
0
100
AcDbSpline
 62
7
  6
CONTINUOUS
 70
0
 71
3
 72
11
 73
7
 74
0
 42
0.0000001
 43
0.0000001
 44
0.0000000001
 40
0.0
 40
0.0
 40
0.0
 40
0.0
 40
0.2027078966
 40
0.4375271815
 40
0.7042176703
 40
1.0
 40
1.0
 40
1.0
 40
1.0
 10
10.4657790326
 20
9.2097051502
 30
0.0
 10
10.4664476063
 20
9.2078989644
 30
0.0
 10
10.4677015992
 20
9.2039297716
 30
0.0
 10
10.4692473412
 20
9.1974151802
 30
0.0
 10
10.4705223887
 20
9.1899433954
 30
0.0
 10
10.4711125452
 20
9.1846284545
 30
0.0
 10
10.4713451898
 20
9.1818278347
 30
0.0
  0
SPLINE
  5
3E3
100
AcDbEntity
  8
0
100
AcDbSpline
 62
7
  6
CONTINUOUS
 70
0
 71
3
 72
11
 73
7
 74
0
 42
0.0000001
 43
0.0000001
 44
0.0000000001
 40
0.0
 40
0.0
 40
0.0
 40
0.0
 40
0.2473443293
 40
0.496344603
 40
0.7472571902
 40
1.0
 40
1.0
 40
1.0
 40
1.0
 10
10.492606579
 20
9.1271547212
 30
0.0
 10
10.4902166335
 20
9.1288026421
 30
0.0
 10
10.4856191356
 20
9.1324125315
 30
0.0
 10
10.4795559169
 20
9.1387999914
 30
0.0
 10
10.4746214183
 20
9.1461798466
 30
0.0
 10
10.4722578509
 20
9.1516423786
 30
0.0
 10
10.4713451898
 20
9.1544648634
 30
0.0
  0
SPLINE
  5
3E4
100
AcDbEntity
  8
0
100
AcDbSpline
 62
7
  6
CONTINUOUS
 70
0
 71
3
 72
11
 73
7
 74
0
 42
0.0000001
 43
0.0000001
 44
0.0000000001
 40
0.0
 40
0.0
 40
0.0
 40
0.0
 40
0.252750818
 40
0.5036715894
 40
0.7527204044
 40
1.0
 40
1.0
 40
1.0
 40
1.0
 10
10.4713451898
 20
9.1818278347
 30
0.0
 10
10.4723169532
 20
9.1847337258
 30
0.0
 10
10.4748733438
 20
9.1903311498
 30
0.0
 10
10.4801349572
 20
9.1978373417
 30
0.0
 10
10.4864793715
 20
9.2043510047
 30
0.0
 10
10.4912637237
 20
9.2080347131
 30
0.0
 10
10.4937529214
 20
9.2097051502
 30
0.0
  0
SPLINE
  5
3E5
100
AcDbEntity
  8
0
100
AcDbSpline
 62
7
  6
CONTINUOUS
 70
0
 71
3
 72
11
 73
7
 74
0
 42
0.0000001
 43
0.0000001
 44
0.0000000001
 40
0.0
 40
0.0
 40
0.0
 40
0.0
 40
0.2059932822
 40
0.4419070031
 40
0.7079712798
 40
1.0
 40
1.0
 40
1.0
 40
1.0
 10
10.4941168964
 20
9.1271550709
 30
0.0
 10
10.4949278577
 20
9.1289168979
 30
0.0
 10
10.4964672695
 20
9.1327905421
 30
0.0
 10
10.4983544512
 20
9.1391918327
 30
0.0
 10
10.4998813663
 20
9.1465173968
 30
0.0
 10
10.5005841081
 20
9.1517296637
 30
0.0
 10
10.5008648157
 20
9.1544648634
 30
0.0
  0
SPLINE
  5
3E6
100
AcDbEntity
  8
0
100
AcDbSpline
 62
7
  6
CONTINUOUS
 70
0
 71
3
 72
11
 73
7
 74
0
 42
0.0000001
 43
0.0000001
 44
0.0000000001
 40
0.0
 40
0.0
 40
0.0
 40
0.0
 40
0.2058354331
 40
0.4414930278
 40
0.7070246792
 40
1.0
 40
1.0
 40
1.0
 40
1.0
 10
10.4937529214
 20
9.2097051502
 30
0.0
 10
10.494600374
 20
9.2079133122
 30
0.0
 10
10.4961976157
 20
9.2039643931
 30
0.0
 10
10.4981774683
 20
9.1974425469
 30
0.0
 10
10.4998100382
 20
9.1899637714
 30
0.0
 10
10.5005670462
 20
9.1846333434
 30
0.0
 10
10.5008648157
 20
9.1818278347
 30
0.0
  0
SPLINE
  5
3E7
100
AcDbEntity
  8
0
100
AcDbSpline
 62
7
  6
CONTINUOUS
 70
0
 71
3
 72
11
 73
7
 74
0
 42
0.0000001
 43
0.0000001
 44
0.0000000001
 40
0.0
 40
0.0
 40
0.0
 40
0.0
 40
0.2459739837
 40
0.4944693504
 40
0.7458592541
 40
1.0
 40
1.0
 40
1.0
 40
1.0
 10
10.5216167835
 20
9.127154059
 30
0.0
 10
10.5192805071
 20
9.1288045114
 30
0.0
 10
10.5147855507
 20
9.132422492
 30
0.0
 10
10.5088680468
 20
9.1388132739
 30
0.0
 10
10.504055008
 20
9.1461940748
 30
0.0
 10
10.5017542913
 20
9.1516464669
 30
0.0
 10
10.5008648157
 20
9.1544648634
 30
0.0
  0
SPLINE
  5
3E8
100
AcDbEntity
  8
0
100
AcDbSpline
 62
7
  6
CONTINUOUS
 70
0
 71
3
 72
11
 73
7
 74
0
 42
0.0000001
 43
0.0000001
 44
0.0000000001
 40
0.0
 40
0.0
 40
0.0
 40
0.0
 40
0.2541582164
 40
0.5055278162
 40
0.7540723851
 40
1.0
 40
1.0
 40
1.0
 40
1.0
 10
10.5008648157
 20
9.1818278347
 30
0.0
 10
10.5018117166
 20
9.1847289783
 30
0.0
 10
10.5042997853
 20
9.1903158162
 30
0.0
 10
10.5094327373
 20
9.1978239347
 30
0.0
 10
10.5156243924
 20
9.2043406297
 30
0.0
 10
10.5203017136
 20
9.2080321124
 30
0.0
 10
10.5227349769
 20
9.2097051502
 30
0.0
  0
SPLINE
  5
3E9
100
AcDbEntity
  8
0
100
AcDbSpline
 62
7
  6
CONTINUOUS
 70
0
 71
3
 72
10
 73
6
 74
0
 42
0.0000001
 43
0.0000001
 44
0.0000000001
 40
0.0
 40
0.0
 40
0.0
 40
0.0
 40
0.4459719633
 40
0.7108819011
 40
1.0
 40
1.0
 40
1.0
 40
1.0
 10
10.5231759457
 20
9.1271540619
 30
0.0
 10
10.5252522056
 20
9.1308735333
 30
0.0
 10
10.5278183865
 20
9.1372300647
 30
0.0
 10
10.5301618439
 20
9.1464935873
 30
0.0
 10
10.531018394
 20
9.1517244729
 30
0.0
 10
10.5313594495
 20
9.1544648634
 30
0.0
  0
SPLINE
  5
3EA
100
AcDbEntity
  8
0
100
AcDbSpline
 62
7
  6
CONTINUOUS
 70
0
 71
3
 72
11
 73
7
 74
0
 42
0.0000001
 43
0.0000001
 44
0.0000000001
 40
0.0
 40
0.0
 40
0.0
 40
0.0
 40
0.2093816403
 40
0.4460196832
 40
0.7102442778
 40
1.0
 40
1.0
 40
1.0
 40
1.0
 10
10.5227349769
 20
9.2097051502
 30
0.0
 10
10.5237540463
 20
9.207928345
 30
0.0
 10
10.5256836572
 20
9.2040028195
 30
0.0
 10
10.5280908553
 20
9.1974740822
 30
0.0
 10
10.5300753096
 20
9.1899879252
 30
0.0
 10
10.5309975939
 20
9.1846392137
 30
0.0
 10
10.5313594495
 20
9.1818278347
 30
0.0
  0
SPLINE
  5
3EB
100
AcDbEntity
  8
0
100
AcDbSpline
 62
7
  6
CONTINUOUS
 70
0
 71
3
 72
11
 73
7
 74
0
 42
0.0000001
 43
0.0000001
 44
0.0000000001
 40
0.0
 40
0.0
 40
0.0
 40
0.0
 40
0.2443167918
 40
0.4922080045
 40
0.7441780042
 40
1.0
 40
1.0
 40
1.0
 40
1.0
 10
10.551504757
 20
9.1271540074
 30
0.0
 10
10.5492324764
 20
9.1288076055
 30
0.0
 10
10.5448596807
 20
9.1324350981
 30
0.0
 10
10.5391161153
 20
9.1388297314
 30
0.0
 10
10.5344477143
 20
9.1462111456
 30
0.0
 10
10.5322214252
 20
9.1516513285
 30
0.0
 10
10.5313594495
 20
9.1544648634
 30
0.0
  0
SPLINE
  5
3EC
100
AcDbEntity
  8
0
100
AcDbSpline
 62
7
  6
CONTINUOUS
 70
0
 71
3
 72
11
 73
7
 74
0
 42
0.0000001
 43
0.0000001
 44
0.0000000001
 40
0.0
 40
0.0
 40
0.0
 40
0.0
 40
0.25585309
 40
0.5077693763
 40
0.755709365
 40
1.0
 40
1.0
 40
1.0
 40
1.0
 10
10.5313594495
 20
9.1818278347
 30
0.0
 10
10.532276897
 20
9.1847234126
 30
0.0
 10
10.5346841539
 20
9.1902975945
 30
0.0
 10
10.539663966
 20
9.1978077143
 30
0.0
 10
10.5456736752
 20
9.2043278764
 30
0.0
 10
10.5502233965
 20
9.2080288781
 30
0.0
 10
10.5525900714
 20
9.2097051502
 30
0.0
  0
SPLINE
  5
3ED
100
AcDbEntity
  8
0
100
AcDbSpline
 62
7
  6
CONTINUOUS
 70
0
 71
3
 72
10
 73
6
 74
0
 42
0.0000001
 43
0.0000001
 44
0.0000000001
 40
0.0
 40
0.0
 40
0.0
 40
0.0
 40
0.2406885535
 40
0.4876157115
 40
1.0
 40
1.0
 40
1.0
 40
1.0
 10
10.2351328681
 20
9.1321460174
 30
0.0
 10
10.2341059089
 20
9.1333035036
 30
0.0
 10
10.2321241793
 20
9.1357392175
 30
0.0
 10
10.228531105
 20
9.141077595
 30
0.0
 10
10.2263831652
 20
9.1455026376
 30
0.0
 10
10.2252173186
 20
9.1485835599
 30
0.0
  0
SPLINE
  5
3EE
100
AcDbEntity
  8
0
100
AcDbSpline
 62
7
  6
CONTINUOUS
 70
0
 71
3
 72
11
 73
7
 74
0
 42
0.0000001
 43
0.0000001
 44
0.0000000001
 40
0.0
 40
0.0
 40
0.0
 40
0.0
 40
0.2131908377
 40
0.45108734
 40
0.7144254215
 40
1.0
 40
1.0
 40
1.0
 40
1.0
 10
10.5531066004
 20
9.1271546264
 30
0.0
 10
10.5542399269
 20
9.1288888776
 30
0.0
 10
10.5564067207
 20
9.1327136252
 30
0.0
 10
10.5591008512
 20
9.1391278105
 30
0.0
 10
10.5612800015
 20
9.1464707746
 30
0.0
 10
10.5622867933
 20
9.1517187268
 30
0.0
 10
10.5626869109
 20
9.1544648634
 30
0.0
  0
SPLINE
  5
3EF
100
AcDbEntity
  8
0
100
AcDbSpline
 62
7
  6
CONTINUOUS
 70
0
 71
3
 72
11
 73
7
 74
0
 42
0.0000001
 43
0.0000001
 44
0.0000000001
 40
0.0
 40
0.0
 40
0.0
 40
0.0
 40
0.2131882517
 40
0.450910102
 40
0.7137330468
 40
1.0
 40
1.0
 40
1.0
 40
1.0
 10
10.5525900714
 20
9.2097051502
 30
0.0
 10
10.5537732087
 20
9.2079430999
 30
0.0
 10
10.5560222114
 20
9.2040426712
 30
0.0
 10
10.5588478314
 20
9.1975083644
 30
0.0
 10
10.5611772464
 20
9.1900151876
 30
0.0
 10
10.5622622609
 20
9.1846459735
 30
0.0
 10
10.5626869109
 20
9.1818278347
 30
0.0
  0
SPLINE
  5
3F0
100
AcDbEntity
  8
0
100
AcDbSpline
 62
7
  6
CONTINUOUS
 70
0
 71
3
 72
11
 73
7
 74
0
 42
0.0000001
 43
0.0000001
 44
0.0000000001
 40
0.0
 40
0.0
 40
0.0
 40
0.0
 40
0.2423687242
 40
0.4895581676
 40
0.7422141209
 40
1.0
 40
1.0
 40
1.0
 40
1.0
 10
10.5821308854
 20
9.1271544807
 30
0.0
 10
10.5799326603
 20
9.1288118798
 30
0.0
 10
10.5757015445
 20
9.1324507284
 30
0.0
 10
10.570159324
 20
9.1388494275
 30
0.0
 10
10.5656581045
 20
9.1462309692
 30
0.0
 10
10.5635172512
 20
9.1516569114
 30
0.0
 10
10.5626869109
 20
9.1544648634
 30
0.0
  0
SPLINE
  5
3F1
100
AcDbEntity
  8
0
100
AcDbSpline
 62
7
  6
CONTINUOUS
 70
0
 71
3
 72
11
 73
7
 74
0
 42
0.0000001
 43
0.0000001
 44
0.0000000001
 40
0.0
 40
0.0
 40
0.0
 40
0.0
 40
0.2578363367
 40
0.5104005853
 40
0.757636907
 40
1.0
 40
1.0
 40
1.0
 40
1.0
 10
10.5626869109
 20
9.1818278347
 30
0.0
 10
10.5635705154
 20
9.1847171057
 30
0.0
 10
10.5658850639
 20
9.1902766312
 30
0.0
 10
10.5706879842
 20
9.197788648
 30
0.0
 10
10.5764873288
 20
9.2043125737
 30
0.0
 10
10.5808892968
 20
9.2080249435
 30
0.0
 10
10.5831790067
 20
9.2097051502
 30
0.0
  0
SPLINE
  5
3F2
100
AcDbEntity
  8
0
100
AcDbSpline
 62
7
  6
CONTINUOUS
 70
0
 71
3
 72
11
 73
7
 74
0
 42
0.0000001
 43
0.0000001
 44
0.0000000001
 40
0.0
 40
0.0
 40
0.0
 40
0.0
 40
0.2170386358
 40
0.4560489905
 40
0.7179430198
 40
1.0
 40
1.0
 40
1.0
 40
1.0
 10
10.5837684436
 20
9.1271546246
 30
0.0
 10
10.5850520223
 20
9.1288758193
 30
0.0
 10
10.5875127135
 20
9.1326743121
 30
0.0
 10
10.5905950022
 20
9.1390927894
 30
0.0
 10
10.5930885426
 20
9.1464440247
 30
0.0
 10
10.5942434744
 20
9.1517123298
 30
0.0
 10
10.594701137
 20
9.1544648634
 30
0.0
  0
SPLINE
  5
3F3
100
AcDbEntity
  8
0
100
AcDbSpline
 62
7
  6
CONTINUOUS
 70
0
 71
3
 72
19
 73
15
 74
0
 42
0.0000001
 43
0.0000001
 44
0.0000000001
 40
0.0
 40
0.0
 40
0.0
 40
0.0
 40
0.1250018942
 40
0.2500322559
 40
0.3125389531
 40
0.375035963
 40
0.4375205763
 40
0.5000000003
 40
0.5624794251
 40
0.6249640384
 40
0.6874610471
 40
0.7499677436
 40
0.874998106
 40
1.0
 40
1.0
 40
1.0
 40
1.0
 10
11.2224834891
 20
8.1438801873
 30
0.0
 10
11.2011146657
 20
8.1447733447
 30
0.0
 10
11.1584131645
 20
8.147474646
 30
0.0
 10
11.1050947235
 20
8.1515398427
 30
0.0
 10
11.0624026855
 20
8.1543013197
 30
0.0
 10
11.0303642268
 20
8.155933276
 30
0.0
 10
10.9983052835
 20
8.1569894882
 30
0.0
 10
10.9662334888
 20
8.1573375424
 30
0.0
 10
10.9341616943
 20
8.156989484
 30
0.0
 10
10.9021027508
 20
8.1559332802
 30
0.0
 10
10.8700642926
 20
8.1543013192
 30
0.0
 10
10.8273722549
 20
8.1515398412
 30
0.0
 10
10.7740538137
 20
8.1474746471
 30
0.0
 10
10.7313523125
 20
8.1447733447
 30
0.0
 10
10.7099834891
 20
8.1438801873
 30
0.0
  0
SPLINE
  5
3F4
100
AcDbEntity
  8
0
100
AcDbSpline
 62
7
  6
CONTINUOUS
 70
0
 71
3
 72
11
 73
7
 74
0
 42
0.0000001
 43
0.0000001
 44
0.0000000001
 40
0.0
 40
0.0
 40
0.0
 40
0.0
 40
0.2170891494
 40
0.4559672695
 40
0.7173794575
 40
1.0
 40
1.0
 40
1.0
 40
1.0
 10
10.5831790067
 20
9.2097051502
 30
0.0
 10
10.5845184115
 20
9.207957125
 30
0.0
 10
10.5870734104
 20
9.2040830552
 30
0.0
 10
10.5903053333
 20
9.1975443743
 30
0.0
 10
10.5929696954
 20
9.1900445095
 30
0.0
 10
10.5942152818
 20
9.1846533053
 30
0.0
 10
10.594701137
 20
9.1818278347
 30
0.0
  0
SPLINE
  5
3F5
100
AcDbEntity
  8
0
100
AcDbSpline
 62
7
  6
CONTINUOUS
 70
0
 71
3
 72
19
 73
15
 74
0
 42
0.0000001
 43
0.0000001
 44
0.0000000001
 40
0.0
 40
0.0
 40
0.0
 40
0.0
 40
0.1250018883
 40
0.2500323237
 40
0.3125389805
 40
0.3750359872
 40
0.4375206046
 40
0.5000000002
 40
0.5624793968
 40
0.6249640141
 40
0.6874610194
 40
0.7499676761
 40
0.8749981118
 40
1.0
 40
1.0
 40
1.0
 40
1.0
 10
10.7099834891
 20
8.1438801873
 30
0.0
 10
10.6886146667
 20
8.1447733446
 30
0.0
 10
10.6459131622
 20
8.1474747773
 30
0.0
 10
10.5925946998
 20
8.1515397249
 30
0.0
 10
10.5499026684
 20
8.1543013888
 30
0.0
 10
10.51786421
 20
8.1559332258
 30
0.0
 10
10.4858052743
 20
8.1569894822
 30
0.0
 10
10.4537334888
 20
8.15733764
 30
0.0
 10
10.4216617036
 20
8.1569894779
 30
0.0
 10
10.3896027676
 20
8.1559332321
 30
0.0
 10
10.3575643097
 20
8.1543013873
 30
0.0
 10
10.3148722784
 20
8.1515397257
 30
0.0
 10
10.2615538161
 20
8.147474776
 30
0.0
 10
10.2188523115
 20
8.1447733446
 30
0.0
 10
10.1974834891
 20
8.1438801873
 30
0.0
  0
SPLINE
  5
3F6
100
AcDbEntity
  8
0
100
AcDbSpline
 62
7
  6
CONTINUOUS
 70
0
 71
3
 72
12
 73
8
 74
0
 42
0.0000001
 43
0.0000001
 44
0.0000000001
 40
0.0
 40
0.0
 40
0.0
 40
0.0
 40
0.2400821707
 40
0.3624925172
 40
0.4866161912
 40
0.7400191631
 40
1.0
 40
1.0
 40
1.0
 40
1.0
 10
10.6133542126
 20
9.1271539006
 30
0.0
 10
10.611239585
 20
9.1288158639
 30
0.0
 10
10.6082053861
 20
9.1315400753
 30
0.0
 10
10.6045646585
 20
9.135603067
 30
0.0
 10
10.6011618228
 20
9.1400583357
 30
0.0
 10
10.5975405896
 20
9.1462529541
 30
0.0
 10
10.5954959723
 20
9.1516629335
 30
0.0
 10
10.594701137
 20
9.1544648634
 30
0.0
  0
SPLINE
  5
3F7
100
AcDbEntity
  8
0
100
AcDbSpline
 62
7
  6
CONTINUOUS
 70
0
 71
3
 72
11
 73
7
 74
0
 42
0.0000001
 43
0.0000001
 44
0.0000000001
 40
0.0
 40
0.0
 40
0.0
 40
0.0
 40
0.2601062795
 40
0.5134234227
 40
0.7598595868
 40
1.0
 40
1.0
 40
1.0
 40
1.0
 10
10.594701137
 20
9.1818278347
 30
0.0
 10
10.5955467347
 20
9.1847101441
 30
0.0
 10
10.5977574281
 20
9.1902530869
 30
0.0
 10
10.602360528
 20
9.1977667084
 30
0.0
 10
10.6079219557
 20
9.2042945586
 30
0.0
 10
10.6121564884
 20
9.2080202311
 30
0.0
 10
10.614359163
 20
9.2097051502
 30
0.0
  0
SPLINE
  5
3F8
100
AcDbEntity
  8
0
100
AcDbSpline
 62
7
  6
CONTINUOUS
 70
0
 71
3
 72
11
 73
7
 74
0
 42
0.0000001
 43
0.0000001
 44
0.0000000001
 40
0.0
 40
0.0
 40
0.0
 40
0.0
 40
0.2208863507
 40
0.4610469398
 40
0.7215056853
 40
1.0
 40
1.0
 40
1.0
 40
1.0
 10
10.6150184042
 20
9.1271540409
 30
0.0
 10
10.6164447992
 20
9.1288632451
 30
0.0
 10
10.6191847752
 20
9.1326357909
 30
0.0
 10
10.6226419215
 20
9.1390568843
 30
0.0
 10
10.6254399083
 20
9.1464156881
 30
0.0
 10
10.6267394345
 20
9.1517054163
 30
0.0
 10
10.6272528626
 20
9.1544648634
 30
0.0
  0
SPLINE
  5
3F9
100
AcDbEntity
  8
0
100
AcDbSpline
 62
7
  6
CONTINUOUS
 70
0
 71
3
 72
11
 73
7
 74
0
 42
0.0000001
 43
0.0000001
 44
0.0000000001
 40
0.0
 40
0.0
 40
0.0
 40
0.0
 40
0.2210233954
 40
0.5883084804
 40
0.7890938437
 40
1.0
 40
1.0
 40
1.0
 40
1.0
 10
10.614359163
 20
9.2097051502
 30
0.0
 10
10.6158470367
 20
9.2079699199
 30
0.0
 10
10.6194760131
 20
9.2030623858
 30
0.0
 10
10.623200254
 20
9.1957369076
 30
0.0
 10
10.6258339842
 20
9.1881152674
 30
0.0
 10
10.6268407165
 20
9.1839696915
 30
0.0
 10
10.6272528626
 20
9.1818278347
 30
0.0
  0
SPLINE
  5
3FA
100
AcDbEntity
  8
0
100
AcDbSpline
 62
7
  6
CONTINUOUS
 70
0
 71
3
 72
11
 73
7
 74
0
 42
0.0000001
 43
0.0000001
 44
0.0000000001
 40
0.0
 40
0.0
 40
0.0
 40
0.0
 40
0.2375907272
 40
0.4830979083
 40
0.7374538495
 40
1.0
 40
1.0
 40
1.0
 40
1.0
 10
10.6450267589
 20
9.1271548305
 30
0.0
 10
10.6430053019
 20
9.1288221618
 30
0.0
 10
10.639113584
 20
9.1324896584
 30
0.0
 10
10.6340518978
 20
9.1388969152
 30
0.0
 10
10.629948442
 20
9.1462771828
 30
0.0
 10
10.6280084662
 20
9.1516695992
 30
0.0
 10
10.6272528626
 20
9.1544648634
 30
0.0
  0
SPLINE
  5
3FB
100
AcDbEntity
  8
0
100
AcDbSpline
 62
7
  6
CONTINUOUS
 70
0
 71
3
 72
11
 73
7
 74
0
 42
0.0000001
 43
0.0000001
 44
0.0000000001
 40
0.0
 40
0.0
 40
0.0
 40
0.0
 40
0.262657856
 40
0.5168355136
 40
0.7623791782
 40
1.0
 40
1.0
 40
1.0
 40
1.0
 10
10.6272528626
 20
9.1818278347
 30
0.0
 10
10.6280565398
 20
9.184702632
 30
0.0
 10
10.6301530243
 20
9.1902272
 30
0.0
 10
10.6345343666
 20
9.1977419171
 30
0.0
 10
10.6398313539
 20
9.2042736481
 30
0.0
 10
10.6438792627
 20
9.2080146489
 30
0.0
 10
10.6459851641
 20
9.2097051502
 30
0.0
  0
SPLINE
  5
3FC
100
AcDbEntity
  8
0
100
AcDbSpline
 62
7
  6
CONTINUOUS
 70
0
 71
3
 72
11
 73
7
 74
0
 42
0.0000001
 43
0.0000001
 44
0.0000000001
 40
0.0
 40
0.0
 40
0.0
 40
0.0
 40
0.2246368263
 40
0.4659533062
 40
0.7250252382
 40
1.0
 40
1.0
 40
1.0
 40
1.0
 10
10.6467122072
 20
9.1271551399
 30
0.0
 10
10.648273625
 20
9.1288534729
 30
0.0
 10
10.6512773853
 20
9.1326006995
 30
0.0
 10
10.6550933747
 20
9.139022291
 30
0.0
 10
10.6581835397
 20
9.1463871692
 30
0.0
 10
10.6596232267
 20
9.1516983926
 30
0.0
 10
10.6601903166
 20
9.1544648634
 30
0.0
  0
SPLINE
  5
3FD
100
AcDbEntity
  8
0
100
AcDbSpline
 62
7
  6
CONTINUOUS
 70
0
 71
3
 72
10
 73
6
 74
0
 42
0.0000001
 43
0.0000001
 44
0.0000000001
 40
0.0
 40
0.0
 40
0.0
 40
0.0
 40
0.4654395955
 40
0.724376382
 40
1.0
 40
1.0
 40
1.0
 40
1.0
 10
10.6459851641
 20
9.2097051502
 30
0.0
 10
10.6493535907
 20
9.2061394091
 30
0.0
 10
10.6537880716
 20
9.1997736804
 30
0.0
 10
10.6580324956
 20
9.1901090406
 30
0.0
 10
10.659587908
 20
9.1846694284
 30
0.0
 10
10.6601903166
 20
9.1818278347
 30
0.0
  0
LINE
  5
3FE
100
AcDbEntity
  8
0
100
AcDbLine
 62
7
  6
CONTINUOUS
 10
10.3891835118
 20
9.1263525415
 11
10.3892245657
 21
9.1271544609
  0
SPLINE
  5
3FF
100
AcDbEntity
  8
0
100
AcDbSpline
 62
7
  6
CONTINUOUS
 70
0
 71
3
 72
11
 73
7
 74
0
 42
0.0000001
 43
0.0000001
 44
0.0000000001
 40
0.0
 40
0.0
 40
0.0
 40
0.0
 40
0.2347669748
 40
0.4793042487
 40
0.7346761222
 40
1.0
 40
1.0
 40
1.0
 40
1.0
 10
10.6770038658
 20
9.1271537155
 30
0.0
 10
10.6750843593
 20
9.1288273795
 30
0.0
 10
10.6713895747
 20
9.1325127204
 30
0.0
 10
10.6666045485
 20
9.138924002
 30
0.0
 10
10.6627294498
 20
9.1463027545
 30
0.0
 10
10.6609033156
 20
9.1516764069
 30
0.0
 10
10.6601903166
 20
9.1544648634
 30
0.0
  0
SPLINE
  5
400
100
AcDbEntity
  8
0
100
AcDbSpline
 62
7
  6
CONTINUOUS
 70
0
 71
3
 72
9
 73
5
 74
0
 42
0.0000001
 43
0.0000001
 44
0.0000000001
 40
0.0
 40
0.0
 40
0.0
 40
0.0
 40
0.5204659101
 40
1.0
 40
1.0
 40
1.0
 40
1.0
 10
10.6601903166
 20
9.1818278347
 30
0.0
 10
10.6616722654
 20
9.1874319214
 30
0.0
 10
10.6663462396
 20
9.1977865768
 30
0.0
 10
10.6738374281
 20
9.20624938
 30
0.0
 10
10.6779095549
 20
9.2097051502
 30
0.0
  0
SPLINE
  5
401
100
AcDbEntity
  8
0
100
AcDbSpline
 62
7
  6
CONTINUOUS
 70
0
 71
3
 72
11
 73
7
 74
0
 42
0.0000001
 43
0.0000001
 44
0.0000000001
 40
0.0
 40
0.0
 40
0.0
 40
0.0
 40
0.2282186284
 40
0.4706721736
 40
0.7284272034
 40
1.0
 40
1.0
 40
1.0
 40
1.0
 10
10.6786992629
 20
9.1271536985
 30
0.0
 10
10.6803881014
 20
9.1288424838
 30
0.0
 10
10.6836398615
 20
9.1325663739
 30
0.0
 10
10.6877973206
 20
9.138987435
 30
0.0
 10
10.6911667414
 20
9.146357743
 30
0.0
 10
10.6927414632
 20
9.1516909243
 30
0.0
 10
10.6933599294
 20
9.1544648634
 30
0.0
  0
SPLINE
  5
402
100
AcDbEntity
  8
0
100
AcDbSpline
 62
7
  6
CONTINUOUS
 70
0
 71
3
 72
11
 73
7
 74
0
 42
0.0000001
 43
0.0000001
 44
0.0000000001
 40
0.0
 40
0.0
 40
0.0
 40
0.0
 40
0.2283588152
 40
0.4707792186
 40
0.7281620868
 40
1.0
 40
1.0
 40
1.0
 40
1.0
 10
10.6779095549
 20
9.2097051502
 30
0.0
 10
10.6796702744
 20
9.2079915095
 30
0.0
 10
10.6830487794
 20
9.2041917394
 30
0.0
 10
10.6874058132
 20
9.1976509093
 30
0.0
 10
10.6910025046
 20
9.1901383355
 30
0.0
 10
10.6927027778
 20
9.1846778243
 30
0.0
 10
10.6933599294
 20
9.1818278347
 30
0.0
  0
SPLINE
  5
403
100
AcDbEntity
  8
0
100
AcDbSpline
 62
7
  6
CONTINUOUS
 70
0
 71
3
 72
11
 73
7
 74
0
 42
0.0000001
 43
0.0000001
 44
0.0000000001
 40
0.0
 40
0.0
 40
0.0
 40
0.0
 40
0.2316637094
 40
0.4751604612
 40
0.7316572955
 40
1.0
 40
1.0
 40
1.0
 40
1.0
 10
10.7091330954
 20
9.1271546673
 30
0.0
 10
10.7073245135
 20
9.1288356348
 30
0.0
 10
10.7038440448
 20
9.1325402024
 30
0.0
 10
10.6993595239
 20
9.1389548353
 30
0.0
 10
10.6957313158
 20
9.1463304194
 30
0.0
 10
10.6940270909
 20
9.1516836974
 30
0.0
 10
10.6933599294
 20
9.1544648634
 30
0.0
  0
SPLINE
  5
404
100
AcDbEntity
  8
0
100
AcDbSpline
 62
7
  6
CONTINUOUS
 70
0
 71
3
 72
9
 73
5
 74
0
 42
0.0000001
 43
0.0000001
 44
0.0000000001
 40
0.0
 40
0.0
 40
0.0
 40
0.0
 40
0.5246739401
 40
1.0
 40
1.0
 40
1.0
 40
1.0
 10
10.6933599294
 20
9.1818278347
 30
0.0
 10
10.6947416648
 20
9.1873973522
 30
0.0
 10
10.6990611117
 20
9.1976616791
 30
0.0
 10
10.7061281549
 20
9.2062177112
 30
0.0
 10
10.7099834891
 20
9.2097051502
 30
0.0
  0
SPLINE
  5
405
100
AcDbEntity
  8
0
100
AcDbSpline
 62
7
  6
CONTINUOUS
 70
0
 71
3
 72
11
 73
7
 74
0
 42
0.0000001
 43
0.0000001
 44
0.0000000001
 40
0.0
 40
0.0
 40
0.0
 40
0.0
 40
0.2315790836
 40
0.4751270202
 40
0.731659105
 40
1.0
 40
1.0
 40
1.0
 40
1.0
 10
10.710834198
 20
9.1271549989
 30
0.0
 10
10.712642082
 20
9.1288353327
 30
0.0
 10
10.7161250898
 20
9.1325371841
 30
0.0
 10
10.7206037149
 20
9.1389558649
 30
0.0
 10
10.7242363752
 20
9.1463297264
 30
0.0
 10
10.7259399029
 20
9.1516837619
 30
0.0
 10
10.7266070489
 20
9.1544648634
 30
0.0
  0
SPLINE
  5
406
100
AcDbEntity
  8
0
100
AcDbSpline
 62
7
  6
CONTINUOUS
 70
0
 71
3
 72
9
 73
5
 74
0
 42
0.0000001
 43
0.0000001
 44
0.0000000001
 40
0.0
 40
0.0
 40
0.0
 40
0.0
 40
0.475369762
 40
1.0
 40
1.0
 40
1.0
 40
1.0
 10
10.7099834891
 20
9.2097051502
 30
0.0
 10
10.7138391813
 20
9.2062173874
 30
0.0
 10
10.7209062888
 20
9.1976613294
 30
0.0
 10
10.7252254273
 20
9.1873968933
 30
0.0
 10
10.7266070489
 20
9.1818278347
 30
0.0
  0
SPLINE
  5
407
100
AcDbEntity
  8
0
100
AcDbSpline
 62
7
  6
CONTINUOUS
 70
0
 71
3
 72
11
 73
7
 74
0
 42
0.0000001
 43
0.0000001
 44
0.0000000001
 40
0.0
 40
0.0
 40
0.0
 40
0.0
 40
0.228306789
 40
0.4707017967
 40
0.7284256554
 40
1.0
 40
1.0
 40
1.0
 40
1.0
 10
10.7412674858
 20
9.1271540296
 30
0.0
 10
10.7395780268
 20
9.1288434616
 30
0.0
 10
10.7363289471
 20
9.1325697801
 30
0.0
 10
10.7321657637
 20
9.1389869416
 30
0.0
 10
10.7288009421
 20
9.1463586013
 30
0.0
 10
10.7272255117
 20
9.1516909393
 30
0.0
 10
10.7266070489
 20
9.1544648634
 30
0.0
  0
SPLINE
  5
408
100
AcDbEntity
  8
0
100
AcDbSpline
 62
7
  6
CONTINUOUS
 70
0
 71
3
 72
10
 73
6
 74
0
 42
0.0000001
 43
0.0000001
 44
0.0000000001
 40
0.0
 40
0.0
 40
0.0
 40
0.0
 40
0.2721706359
 40
0.5298709512
 40
1.0
 40
1.0
 40
1.0
 40
1.0
 10
10.7266070489
 20
9.1818278347
 30
0.0
 10
10.7272642504
 20
9.1846780407
 30
0.0
 10
10.7289666396
 20
9.1901409045
 30
0.0
 10
10.7336133958
 20
9.1998545666
 30
0.0
 10
10.7384367345
 20
9.2061812726
 30
0.0
 10
10.7420574234
 20
9.2097051502
 30
0.0
  0
SPLINE
  5
409
100
AcDbEntity
  8
0
100
AcDbSpline
 62
7
  6
CONTINUOUS
 70
0
 71
3
 72
11
 73
7
 74
0
 42
0.0000001
 43
0.0000001
 44
0.0000000001
 40
0.0
 40
0.0
 40
0.0
 40
0.0
 40
0.2346836749
 40
0.4792681499
 40
0.7346773648
 40
1.0
 40
1.0
 40
1.0
 40
1.0
 10
10.7429633783
 20
9.127154028
 30
0.0
 10
10.7448821639
 20
9.1288270857
 30
0.0
 10
10.7485796352
 20
9.1325093825
 30
0.0
 10
10.7533584568
 20
9.1389252169
 30
0.0
 10
10.7572382614
 20
9.1463019548
 30
0.0
 10
10.7590636767
 20
9.1516764617
 30
0.0
 10
10.7597766616
 20
9.1544648634
 30
0.0
  0
SPLINE
  5
40A
100
AcDbEntity
  8
0
100
AcDbSpline
 62
7
  6
CONTINUOUS
 70
0
 71
3
 72
9
 73
5
 74
0
 42
0.0000001
 43
0.0000001
 44
0.0000000001
 40
0.0
 40
0.0
 40
0.0
 40
0.0
 40
0.4795779286
 40
1.0
 40
1.0
 40
1.0
 40
1.0
 10
10.7420574234
 20
9.2097051502
 30
0.0
 10
10.7461299264
 20
9.2062490607
 30
0.0
 10
10.7536211894
 20
9.1977862349
 30
0.0
 10
10.7582948363
 20
9.1874314549
 30
0.0
 10
10.7597766616
 20
9.1818278347
 30
0.0
  0
SPLINE
  5
40B
100
AcDbEntity
  8
0
100
AcDbSpline
 62
7
  6
CONTINUOUS
 70
0
 71
3
 72
11
 73
7
 74
0
 42
0.0000001
 43
0.0000001
 44
0.0000000001
 40
0.0
 40
0.0
 40
0.0
 40
0.0
 40
0.2247272642
 40
0.4659796564
 40
0.7250220702
 40
1.0
 40
1.0
 40
1.0
 40
1.0
 10
10.7732556341
 20
9.1271540339
 30
0.0
 10
10.7716934745
 20
9.1288530939
 30
0.0
 10
10.7686921485
 20
9.1326027041
 30
0.0
 10
10.7648703971
 20
9.1390211499
 30
0.0
 10
10.761784225
 20
9.1463874383
 30
0.0
 10
10.7603437848
 20
9.1516982307
 30
0.0
 10
10.7597766616
 20
9.1544648634
 30
0.0
  0
SPLINE
  5
40C
100
AcDbEntity
  8
0
100
AcDbSpline
 62
7
  6
CONTINUOUS
 70
0
 71
3
 72
10
 73
6
 74
0
 42
0.0000001
 43
0.0000001
 44
0.0000000001
 40
0.0
 40
0.0
 40
0.0
 40
0.0
 40
0.2756443721
 40
0.5346035855
 40
1.0
 40
1.0
 40
1.0
 40
1.0
 10
10.7597766616
 20
9.1818278347
 30
0.0
 10
10.7603791149
 20
9.1846696391
 30
0.0
 10
10.7619349992
 20
9.1901095829
 30
0.0
 10
10.7661792462
 20
9.1997742707
 30
0.0
 10
10.7706137039
 20
9.206139744
 30
0.0
 10
10.7739818142
 20
9.2097051502
 30
0.0
  0
SPLINE
  5
40D
100
AcDbEntity
  8
0
100
AcDbSpline
 62
7
  6
CONTINUOUS
 70
0
 71
3
 72
11
 73
7
 74
0
 42
0.0000001
 43
0.0000001
 44
0.0000000001
 40
0.0
 40
0.0
 40
0.0
 40
0.0
 40
0.237510763
 40
0.4830587782
 40
0.7374549169
 40
1.0
 40
1.0
 40
1.0
 40
1.0
 10
10.7749401453
 20
9.1271546735
 30
0.0
 10
10.7769609364
 20
9.1288214347
 30
0.0
 10
10.7808552083
 20
9.1324859492
 30
0.0
 10
10.7859109287
 20
9.1388979796
 30
0.0
 10
10.7900191692
 20
9.1462761947
 30
0.0
 10
10.7919585135
 20
9.1516696047
 30
0.0
 10
10.7927141156
 20
9.1544648634
 30
0.0
  0
SPLINE
  5
40E
100
AcDbEntity
  8
0
100
AcDbSpline
 62
7
  6
CONTINUOUS
 70
0
 71
3
 72
11
 73
7
 74
0
 42
0.0000001
 43
0.0000001
 44
0.0000000001
 40
0.0
 40
0.0
 40
0.0
 40
0.0
 40
0.237636407
 40
0.483208363
 40
0.7373636665
 40
1.0
 40
1.0
 40
1.0
 40
1.0
 10
10.7739818142
 20
9.2097051502
 30
0.0
 10
10.7760878582
 20
9.2080145344
 30
0.0
 10
10.7801362539
 20
9.20427329
 30
0.0
 10
10.7854331519
 20
9.1977411529
 30
0.0
 10
10.789814631
 20
9.1902266866
 30
0.0
 10
10.7919105026
 20
9.1847024026
 30
0.0
 10
10.7927141156
 20
9.1818278347
 30
0.0
  0
SPLINE
  5
40F
100
AcDbEntity
  8
0
100
AcDbSpline
 62
7
  6
CONTINUOUS
 70
0
 71
3
 72
11
 73
7
 74
0
 42
0.0000001
 43
0.0000001
 44
0.0000000001
 40
0.0
 40
0.0
 40
0.0
 40
0.0
 40
0.2209797588
 40
0.4610697666
 40
0.7215034717
 40
1.0
 40
1.0
 40
1.0
 40
1.0
 10
10.8049482865
 20
9.1271545624
 30
0.0
 10
10.8035213367
 20
9.1288644759
 30
0.0
 10
10.8007838598
 20
9.1326388388
 30
0.0
 10
10.7973215718
 20
9.1390569066
 30
0.0
 10
10.7945277369
 20
9.146416416
 30
0.0
 10
10.7932275383
 20
9.1517054457
 30
0.0
 10
10.7927141156
 20
9.1544648634
 30
0.0
  0
SPLINE
  5
410
100
AcDbEntity
  8
0
100
AcDbSpline
 62
7
  6
CONTINUOUS
 70
0
 71
3
 72
10
 73
6
 74
0
 42
0.0000001
 43
0.0000001
 44
0.0000000001
 40
0.0
 40
0.0
 40
0.0
 40
0.0
 40
0.2791422337
 40
0.6615601479
 40
1.0
 40
1.0
 40
1.0
 40
1.0
 10
10.7927141156
 20
9.1818278347
 30
0.0
 10
10.7932593648
 20
9.1846614061
 30
0.0
 10
10.7949791897
 20
9.1913008752
 30
0.0
 10
10.7990954463
 20
9.2008475521
 30
0.0
 10
10.8033305337
 20
9.2070492742
 30
0.0
 10
10.8056078153
 20
9.2097051502
 30
0.0
  0
SPLINE
  5
411
100
AcDbEntity
  8
0
100
AcDbSpline
 62
7
  6
CONTINUOUS
 70
0
 71
3
 72
11
 73
7
 74
0
 42
0.0000001
 43
0.0000001
 44
0.0000000001
 40
0.0
 40
0.0
 40
0.0
 40
0.0
 40
0.2400483875
 40
0.4864781075
 40
0.7399712785
 40
1.0
 40
1.0
 40
1.0
 40
1.0
 10
10.8066135572
 20
9.1271547281
 30
0.0
 10
10.8087273848
 20
9.1288161188
 30
0.0
 10
10.8128005525
 20
9.1324650683
 30
0.0
 10
10.8181090753
 20
9.1388730923
 30
0.0
 10
10.8224264969
 20
9.1462520421
 30
0.0
 10
10.8244710382
 20
9.1516630472
 30
0.0
 10
10.8252658413
 20
9.1544648634
 30
0.0
  0
SPLINE
  5
412
100
AcDbEntity
  8
0
100
AcDbSpline
 62
7
  6
CONTINUOUS
 70
0
 71
3
 72
11
 73
7
 74
0
 42
0.0000001
 43
0.0000001
 44
0.0000000001
 40
0.0
 40
0.0
 40
0.0
 40
0.0
 40
0.2401562359
 40
0.4866205528
 40
0.7399153594
 40
1.0
 40
1.0
 40
1.0
 40
1.0
 10
10.8056078153
 20
9.2097051502
 30
0.0
 10
10.8078106399
 20
9.2080201163
 30
0.0
 10
10.8120456762
 20
9.2042942084
 30
0.0
 10
10.8176070205
 20
9.1977659397
 30
0.0
 10
10.8222102584
 20
9.1902525791
 30
0.0
 10
10.824420312
 20
9.1847099108
 30
0.0
 10
10.8252658413
 20
9.1818278347
 30
0.0
  0
SPLINE
  5
413
100
AcDbEntity
  8
0
100
AcDbSpline
 62
7
  6
CONTINUOUS
 70
0
 71
3
 72
11
 73
7
 74
0
 42
0.0000001
 43
0.0000001
 44
0.0000000001
 40
0.0
 40
0.0
 40
0.0
 40
0.0
 40
0.2171372192
 40
0.4560687793
 40
0.7179396922
 40
1.0
 40
1.0
 40
1.0
 40
1.0
 10
10.8361989627
 20
9.1271538595
 30
0.0
 10
10.8349147361
 20
9.1288758686
 30
0.0
 10
10.8324564632
 20
9.1326761886
 30
0.0
 10
10.8293690239
 20
9.1390922985
 30
0.0
 10
10.826879156
 20
9.146444261
 30
0.0
 10
10.8257235231
 20
9.1517122142
 30
0.0
 10
10.8252658413
 20
9.1544648634
 30
0.0
  0
SPLINE
  5
414
100
AcDbEntity
  8
0
100
AcDbSpline
 62
7
  6
CONTINUOUS
 70
0
 71
3
 72
11
 73
7
 74
0
 42
0.0000001
 43
0.0000001
 44
0.0000000001
 40
0.0
 40
0.0
 40
0.0
 40
0.0
 40
0.2826412262
 40
0.5440758884
 40
0.7829244646
 40
1.0
 40
1.0
 40
1.0
 40
1.0
 10
10.8252658413
 20
9.1818278347
 30
0.0
 10
10.8257517314
 20
9.1846535086
 30
0.0
 10
10.8269977097
 20
9.1900450611
 30
0.0
 10
10.8296619592
 20
9.1975451017
 30
0.0
 10
10.8328939919
 20
9.2040834823
 30
0.0
 10
10.8354486524
 20
9.2079572367
 30
0.0
 10
10.8367879716
 20
9.2097051502
 30
0.0
  0
SPLINE
  5
415
100
AcDbEntity
  8
0
100
AcDbSpline
 62
7
  6
CONTINUOUS
 70
0
 71
3
 72
11
 73
7
 74
0
 42
0.0000001
 43
0.0000001
 44
0.0000000001
 40
0.0
 40
0.0
 40
0.0
 40
0.0
 40
0.242291865
 40
0.4895143924
 40
0.7422145832
 40
1.0
 40
1.0
 40
1.0
 40
1.0
 10
10.8378356491
 20
9.1271539782
 30
0.0
 10
10.8400332326
 20
9.1288108525
 30
0.0
 10
10.8442669647
 20
9.1324464392
 30
0.0
 10
10.8498031269
 20
9.138850565
 30
0.0
 10
10.8543094448
 20
9.1462297341
 30
0.0
 10
10.8564497151
 20
9.1516568707
 30
0.0
 10
10.8572800674
 20
9.1544648634
 30
0.0
  0
SPLINE
  5
416
100
AcDbEntity
  8
0
100
AcDbSpline
 62
7
  6
CONTINUOUS
 70
0
 71
3
 72
11
 73
7
 74
0
 42
0.0000001
 43
0.0000001
 44
0.0000000001
 40
0.0
 40
0.0
 40
0.0
 40
0.0
 40
0.2423791276
 40
0.4896434831
 40
0.7421854001
 40
1.0
 40
1.0
 40
1.0
 40
1.0
 10
10.8367879716
 20
9.2097051502
 30
0.0
 10
10.8390778383
 20
9.2080248285
 30
0.0
 10
10.8434803236
 20
9.2043122293
 30
0.0
 10
10.8492795914
 20
9.1977878752
 30
0.0
 10
10.8540826524
 20
9.1902761294
 30
0.0
 10
10.8563965353
 20
9.1847168688
 30
0.0
 10
10.8572800674
 20
9.1818278347
 30
0.0
  0
SPLINE
  5
417
100
AcDbEntity
  8
0
100
AcDbSpline
 62
7
  6
CONTINUOUS
 70
0
 71
3
 72
12
 73
8
 74
0
 42
0.0000001
 43
0.0000001
 44
0.0000000001
 40
0.0
 40
0.0
 40
0.0
 40
0.0
 40
0.2132568766
 40
0.3892004855
 40
0.579690364
 40
0.7839350439
 40
1.0
 40
1.0
 40
1.0
 40
1.0
 10
10.866860259
 20
9.1271548974
 30
0.0
 10
10.8657264283
 20
9.1288899518
 30
0.0
 10
10.8638587452
 20
9.1321920707
 30
0.0
 10
10.861586947
 20
9.1373541411
 30
0.0
 10
10.8597895719
 20
9.1426083412
 30
0.0
 10
10.8583101428
 20
9.1483628786
 30
0.0
 10
10.85758284
 20
9.1523868366
 30
0.0
 10
10.8572800674
 20
9.1544648634
 30
0.0
  0
SPLINE
  5
418
100
AcDbEntity
  8
0
100
AcDbSpline
 62
7
  6
CONTINUOUS
 70
0
 71
3
 72
11
 73
7
 74
0
 42
0.0000001
 43
0.0000001
 44
0.0000000001
 40
0.0
 40
0.0
 40
0.0
 40
0.0
 40
0.2862820094
 40
0.5491372867
 40
0.786831368
 40
1.0
 40
1.0
 40
1.0
 40
1.0
 10
10.8572800674
 20
9.1818278347
 30
0.0
 10
10.8577047395
 20
9.1846461203
 30
0.0
 10
10.8587904676
 20
9.1900156608
 30
0.0
 10
10.8611193564
 20
9.1975091712
 30
0.0
 10
10.8639448588
 20
9.2040434005
 30
0.0
 10
10.8661938791
 20
9.207943263
 30
0.0
 10
10.8673769069
 20
9.2097051502
 30
0.0
  0
SPLINE
  5
419
100
AcDbEntity
  8
0
100
AcDbSpline
 62
7
  6
CONTINUOUS
 70
0
 71
3
 72
11
 73
7
 74
0
 42
0.0000001
 43
0.0000001
 44
0.0000000001
 40
0.0
 40
0.0
 40
0.0
 40
0.0
 40
0.2442414722
 40
0.4921619684
 40
0.7441785287
 40
1.0
 40
1.0
 40
1.0
 40
1.0
 10
10.8684634097
 20
9.1271550265
 30
0.0
 10
10.8707348446
 20
9.1288080807
 30
0.0
 10
10.8751099941
 20
9.132431888
 30
0.0
 10
10.8808469881
 20
9.1388318694
 30
0.0
 10
10.8855200008
 20
9.1462104144
 30
0.0
 10
10.887745597
 20
9.1516514718
 30
0.0
 10
10.8886075288
 20
9.1544648634
 30
0.0
  0
SPLINE
  5
41A
100
AcDbEntity
  8
0
100
AcDbSpline
 62
7
  6
CONTINUOUS
 70
0
 71
3
 72
11
 73
7
 74
0
 42
0.0000001
 43
0.0000001
 44
0.0000000001
 40
0.0
 40
0.0
 40
0.0
 40
0.0
 40
0.2443068919
 40
0.492274784
 40
0.7441686952
 40
1.0
 40
1.0
 40
1.0
 40
1.0
 10
10.8673769069
 20
9.2097051502
 30
0.0
 10
10.869743745
 20
9.2080287625
 30
0.0
 10
10.8742939951
 20
9.2043275351
 30
0.0
 10
10.8803036379
 20
9.1978069409
 30
0.0
 10
10.8852835954
 20
9.1902971018
 30
0.0
 10
10.8876901571
 20
9.1847231731
 30
0.0
 10
10.8886075288
 20
9.1818278347
 30
0.0
  0
SPLINE
  5
41B
100
AcDbEntity
  8
0
100
AcDbSpline
 62
7
  6
CONTINUOUS
 70
0
 71
3
 72
11
 73
7
 74
0
 42
0.0000001
 43
0.0000001
 44
0.0000000001
 40
0.0
 40
0.0
 40
0.0
 40
0.0
 40
0.2095673947
 40
0.4463275976
 40
0.7110574038
 40
1.0
 40
1.0
 40
1.0
 40
1.0
 10
10.8967911819
 20
9.1271537028
 30
0.0
 10
10.8958148948
 20
9.1289026245
 30
0.0
 10
10.8939576919
 20
9.1327540528
 30
0.0
 10
10.8916584663
 20
9.139160999
 30
0.0
 10
10.8898050769
 20
9.1464954394
 30
0.0
 10
10.8889485928
 20
9.1517244043
 30
0.0
 10
10.8886075288
 20
9.1544648634
 30
0.0
  0
SPLINE
  5
41C
100
AcDbEntity
  8
0
100
AcDbSpline
 62
7
  6
CONTINUOUS
 70
0
 71
3
 72
11
 73
7
 74
0
 42
0.0000001
 43
0.0000001
 44
0.0000000001
 40
0.0
 40
0.0
 40
0.0
 40
0.0
 40
0.2897759749
 40
0.5540231884
 40
0.7906312895
 40
1.0
 40
1.0
 40
1.0
 40
1.0
 10
10.8886075288
 20
9.1818278347
 30
0.0
 10
10.8889694094
 20
9.184639408
 30
0.0
 10
10.8898919957
 20
9.1899884861
 30
0.0
 10
10.8918763547
 20
9.1974747933
 30
0.0
 10
10.8942836483
 20
9.2040032764
 30
0.0
 10
10.8962129957
 20
9.2079284561
 30
0.0
 10
10.8972320014
 20
9.2097051502
 30
0.0
  0
SPLINE
  5
41D
100
AcDbEntity
  8
0
100
AcDbSpline
 62
7
  6
CONTINUOUS
 70
0
 71
3
 72
11
 73
7
 74
0
 42
0.0000001
 43
0.0000001
 44
0.0000000001
 40
0.0
 40
0.0
 40
0.0
 40
0.0
 40
0.2458994202
 40
0.4944218997
 40
0.74585938
 40
1.0
 40
1.0
 40
1.0
 40
1.0
 10
10.8983498392
 20
9.1271536967
 30
0.0
 10
10.900685446
 20
9.1288036481
 30
0.0
 10
10.9051830245
 20
9.1324180432
 30
0.0
 10
10.9110942905
 20
9.138814702
 30
0.0
 10
10.9159125287
 20
9.1461927861
 30
0.0
 10
10.9182126778
 20
9.1516464376
 30
0.0
 10
10.9191021625
 20
9.1544648634
 30
0.0
  0
SPLINE
  5
41E
100
AcDbEntity
  8
0
100
AcDbSpline
 62
7
  6
CONTINUOUS
 70
0
 71
3
 72
11
 73
7
 74
0
 42
0.0000001
 43
0.0000001
 44
0.0000000001
 40
0.0
 40
0.0
 40
0.0
 40
0.0
 40
0.2459439817
 40
0.4945163988
 40
0.7458637042
 40
1.0
 40
1.0
 40
1.0
 40
1.0
 10
10.8972320014
 20
9.2097051502
 30
0.0
 10
10.8996654326
 20
9.208031997
 30
0.0
 10
10.9043432958
 20
9.2043402972
 30
0.0
 10
10.9105348837
 20
9.1978231557
 30
0.0
 10
10.9156679749
 20
9.1903153222
 30
0.0
 10
10.9181553411
 20
9.1847287352
 30
0.0
 10
10.9191021625
 20
9.1818278347
 30
0.0
  0
SPLINE
  5
41F
100
AcDbEntity
  8
0
100
AcDbSpline
 62
7
  6
CONTINUOUS
 70
0
 71
3
 72
11
 73
7
 74
0
 42
0.0000001
 43
0.0000001
 44
0.0000000001
 40
0.0
 40
0.0
 40
0.0
 40
0.0
 40
0.2061001285
 40
0.4419175118
 40
0.7079669824
 40
1.0
 40
1.0
 40
1.0
 40
1.0
 10
10.9258502191
 20
9.1271547369
 30
0.0
 10
10.925038821
 20
9.1289174978
 30
0.0
 10
10.9235011527
 20
9.1327919501
 30
0.0
 10
10.92161048
 20
9.1391922054
 30
0.0
 10
10.9200861249
 20
9.1465174948
 30
0.0
 10
10.9193828779
 20
9.1517295883
 30
0.0
 10
10.9191021625
 20
9.1544648634
 30
0.0
  0
SPLINE
  5
420
100
AcDbEntity
  8
0
100
AcDbSpline
 62
7
  6
CONTINUOUS
 70
0
 71
3
 72
11
 73
7
 74
0
 42
0.0000001
 43
0.0000001
 44
0.0000000001
 40
0.0
 40
0.0
 40
0.0
 40
0.0
 40
0.2929956044
 40
0.5585497772
 40
0.794177061
 40
1.0
 40
1.0
 40
1.0
 40
1.0
 10
10.9191021625
 20
9.1818278347
 30
0.0
 10
10.9193999525
 20
9.1846335361
 30
0.0
 10
10.9201572071
 20
9.1899643404
 30
0.0
 10
10.9217896968
 20
9.197443253
 30
0.0
 10
10.9237696386
 20
9.2039648623
 30
0.0
 10
10.9253666562
 20
9.2079134219
 30
0.0
 10
10.9262140569
 20
9.2097051502
 30
0.0
  0
SPLINE
  5
421
100
AcDbEntity
  8
0
100
AcDbSpline
 62
7
  6
CONTINUOUS
 70
0
 71
3
 72
11
 73
7
 74
0
 42
0.0000001
 43
0.0000001
 44
0.0000000001
 40
0.0
 40
0.0
 40
0.0
 40
0.0
 40
0.2472712482
 40
0.4962953672
 40
0.7472573519
 40
1.0
 40
1.0
 40
1.0
 40
1.0
 10
10.9273608707
 20
9.1271550924
 30
0.0
 10
10.9297500522
 20
9.1288025034
 30
0.0
 10
10.9343499298
 20
9.1324086804
 30
0.0
 10
10.9404068288
 20
9.13880186
 30
0.0
 10
10.9453461502
 20
9.1461788228
 30
0.0
 10
10.9477091471
 20
9.1516424395
 30
0.0
 10
10.9486217885
 20
9.1544648634
 30
0.0
  0
SPLINE
  5
422
100
AcDbEntity
  8
0
100
AcDbSpline
 62
7
  6
CONTINUOUS
 70
0
 71
3
 72
11
 73
7
 74
0
 42
0.0000001
 43
0.0000001
 44
0.0000000001
 40
0.0
 40
0.0
 40
0.0
 40
0.0
 40
0.2472960895
 40
0.4963726842
 40
0.7472711716
 40
1.0
 40
1.0
 40
1.0
 40
1.0
 10
10.9262140569
 20
9.2097051502
 30
0.0
 10
10.9287034268
 20
9.2080345976
 30
0.0
 10
10.9334883301
 20
9.2043506763
 30
0.0
 10
10.9398326816
 20
9.1978365603
 30
0.0
 10
10.9450944341
 20
9.1903306592
 30
0.0
 10
10.9476501073
 20
9.1847334802
 30
0.0
 10
10.9486217885
 20
9.1818278347
 30
0.0
  0
SPLINE
  5
423
100
AcDbEntity
  8
0
100
AcDbSpline
 62
7
  6
CONTINUOUS
 70
0
 71
3
 72
11
 73
7
 74
0
 42
0.0000001
 43
0.0000001
 44
0.0000000001
 40
0.0
 40
0.0
 40
0.0
 40
0.0
 40
0.2030571433
 40
0.4380663038
 40
0.7052797018
 40
1.0
 40
1.0
 40
1.0
 40
1.0
 10
10.9539033522
 20
9.1271540709
 30
0.0
 10
10.9532635155
 20
9.1289300856
 30
0.0
 10
10.952056098
 20
9.1328248462
 30
0.0
 10
10.9505799703
 20
9.139218332
 30
0.0
 10
10.9493896228
 20
9.1465356059
 30
0.0
 10
10.9488411581
 20
9.1517337423
 30
0.0
 10
10.9486217885
 20
9.1544648634
 30
0.0
  0
SPLINE
  5
424
100
AcDbEntity
  8
0
100
AcDbSpline
 62
7
  6
CONTINUOUS
 70
0
 71
3
 72
11
 73
7
 74
0
 42
0.0000001
 43
0.0000001
 44
0.0000000001
 40
0.0
 40
0.0
 40
0.0
 40
0.0
 40
0.2958025068
 40
0.5625155275
 40
0.7973042792
 40
1.0
 40
1.0
 40
1.0
 40
1.0
 10
10.9486217885
 20
9.1818278347
 30
0.0
 10
10.9488544488
 20
9.1846286445
 30
0.0
 10
10.9494447993
 20
9.1899439689
 30
0.0
 10
10.9507197817
 20
9.1974158802
 30
0.0
 10
10.9522655984
 20
9.2039302531
 30
0.0
 10
10.9535194124
 20
9.2078990735
 30
0.0
 10
10.9541879457
 20
9.2097051502
 30
0.0
  0
SPLINE
  5
425
100
AcDbEntity
  8
0
100
AcDbSpline
 62
7
  6
CONTINUOUS
 70
0
 71
3
 72
11
 73
7
 74
0
 42
0.0000001
 43
0.0000001
 44
0.0000000001
 40
0.0
 40
0.0
 40
0.0
 40
0.0
 40
0.2483606383
 40
0.4977876051
 40
0.7483726709
 40
1.0
 40
1.0
 40
1.0
 40
1.0
 10
10.9553558111
 20
9.1271540758
 30
0.0
 10
10.9577884156
 20
9.1287995459
 30
0.0
 10
10.9624708981
 20
9.1323997103
 30
0.0
 10
10.9686456051
 20
9.1387904658
 30
0.0
 10
10.9736833212
 20
9.1461667664
 30
0.0
 10
10.9760973325
 20
9.1516389226
 30
0.0
 10
10.9770287725
 20
9.1544648634
 30
0.0
  0
SPLINE
  5
426
100
AcDbEntity
  8
0
100
AcDbSpline
 62
7
  6
CONTINUOUS
 70
0
 71
3
 72
11
 73
7
 74
0
 42
0.0000001
 43
0.0000001
 44
0.0000000001
 40
0.0
 40
0.0
 40
0.0
 40
0.0
 40
0.2483691508
 40
0.4978490137
 40
0.7483930461
 40
1.0
 40
1.0
 40
1.0
 40
1.0
 10
10.9541879457
 20
9.2097051502
 30
0.0
 10
10.9567223623
 20
9.2080366172
 30
0.0
 10
10.9615933641
 20
9.2043588101
 30
0.0
 10
10.9680606739
 20
9.1978472042
 30
0.0
 10
10.973426036
 20
9.190343019
 30
0.0
 10
10.9760369925
 20
9.1847373473
 30
0.0
 10
10.9770287725
 20
9.1818278347
 30
0.0
  0
SPLINE
  5
427
100
AcDbEntity
  8
0
100
AcDbSpline
 62
7
  6
CONTINUOUS
 70
0
 71
3
 72
11
 73
7
 74
0
 42
0.0000001
 43
0.0000001
 44
0.0000000001
 40
0.0
 40
0.0
 40
0.0
 40
0.0
 40
0.2005896921
 40
0.4349634096
 40
0.7031230604
 40
1.0
 40
1.0
 40
1.0
 40
1.0
 10
10.9808190413
 20
9.1271540182
 30
0.0
 10
10.9803569197
 20
9.1289414364
 30
0.0
 10
10.9794882168
 20
9.1328522492
 30
0.0
 10
10.978431179
 20
9.1392393827
 30
0.0
 10
10.9775785099
 20
9.1465498402
 30
0.0
 10
10.9771860125
 20
9.1517369906
 30
0.0
 10
10.9770287725
 20
9.1544648634
 30
0.0
  0
SPLINE
  5
428
100
AcDbEntity
  8
0
100
AcDbSpline
 62
7
  6
CONTINUOUS
 70
0
 71
3
 72
11
 73
7
 74
0
 42
0.0000001
 43
0.0000001
 44
0.0000000001
 40
0.0
 40
0.0
 40
0.0
 40
0.0
 40
0.2980592392
 40
0.5657171836
 40
0.7998434843
 40
1.0
 40
1.0
 40
1.0
 40
1.0
 10
10.9770287725
 20
9.1818278347
 30
0.0
 10
10.9771955119
 20
9.1846248575
 30
0.0
 10
10.9776178739
 20
9.1899280413
 30
0.0
 10
10.9785312585
 20
9.1973939669
 30
0.0
 10
10.9796382747
 20
9.2039016841
 30
0.0
 10
10.9805401622
 20
9.2078865919
 30
0.0
 10
10.9810232405
 20
9.2097051502
 30
0.0
  0
SPLINE
  5
429
100
AcDbEntity
  8
0
100
AcDbSpline
 62
7
  6
CONTINUOUS
 70
0
 71
3
 72
11
 73
7
 74
0
 42
0.0000001
 43
0.0000001
 44
0.0000000001
 40
0.0
 40
0.0
 40
0.0
 40
0.0
 40
0.2491733686
 40
0.4989018933
 40
0.7492072966
 40
1.0
 40
1.0
 40
1.0
 40
1.0
 10
10.9822084229
 20
9.1271546315
 30
0.0
 10
10.9846735828
 20
9.1287986611
 30
0.0
 10
10.9894180683
 20
9.132394097
 30
0.0
 10
10.995681163
 20
9.1387827007
 30
0.0
 10
11.0007925247
 20
9.146158159
 30
0.0
 10
11.0032450679
 20
9.1516364053
 30
0.0
 10
11.0041906681
 20
9.1544648634
 30
0.0
  0
SPLINE
  5
42A
100
AcDbEntity
  8
0
100
AcDbSpline
 62
7
  6
CONTINUOUS
 70
0
 71
3
 72
11
 73
7
 74
0
 42
0.0000001
 43
0.0000001
 44
0.0000000001
 40
0.0
 40
0.0
 40
0.0
 40
0.0
 40
0.2491686188
 40
0.4989507359
 40
0.749231704
 40
1.0
 40
1.0
 40
1.0
 40
1.0
 10
10.9810232405
 20
9.2097051502
 30
0.0
 10
10.9835916168
 20
9.208038097
 30
0.0
 10
10.9885274697
 20
9.2043648111
 30
0.0
 10
10.9950874342
 20
9.1978551367
 30
0.0
 10
11.0005308978
 20
9.1903523369
 30
0.0
 10
11.0031836897
 20
9.1847402886
 30
0.0
 10
11.0041906681
 20
9.1818278347
 30
0.0
  0
SPLINE
  5
42B
100
AcDbEntity
  8
0
100
AcDbSpline
 62
7
  6
CONTINUOUS
 70
0
 71
3
 72
11
 73
7
 74
0
 42
0.0000001
 43
0.0000001
 44
0.0000000001
 40
0.0
 40
0.0
 40
0.0
 40
0.0
 40
0.1988506158
 40
0.4327863786
 40
0.7016148437
 40
1.0
 40
1.0
 40
1.0
 40
1.0
 10
11.006471849
 20
9.1271545476
 30
0.0
 10
11.0061924053
 20
9.1289504169
 30
0.0
 10
11.0056686839
 20
9.1328723121
 30
0.0
 10
11.0050335133
 20
9.1392544457
 30
0.0
 10
11.0045210074
 20
9.146559817
 30
0.0
 10
11.0042852268
 20
9.151739284
 30
0.0
 10
11.0041906681
 20
9.1544648634
 30
0.0
  0
SPLINE
  5
42C
100
AcDbEntity
  8
0
100
AcDbSpline
 62
7
  6
CONTINUOUS
 70
0
 71
3
 72
11
 73
7
 74
0
 42
0.0000001
 43
0.0000001
 44
0.0000000001
 40
0.0
 40
0.0
 40
0.0
 40
0.0
 40
0.2996432597
 40
0.5679710563
 40
0.8016386234
 40
1.0
 40
1.0
 40
1.0
 40
1.0
 10
11.0041906681
 20
9.1818278347
 30
0.0
 10
11.0042909312
 20
9.1846222784
 30
0.0
 10
11.0045446033
 20
9.1899171073
 30
0.0
 10
11.0050936631
 20
9.1973786469
 30
0.0
 10
11.0057589315
 20
9.2038812494
 30
0.0
 10
11.0063025825
 20
9.2078772753
 30
0.0
 10
11.006594823
 20
9.2097051502
 30
0.0
  0
SPLINE
  5
42D
100
AcDbEntity
  8
0
100
AcDbSpline
 62
7
  6
CONTINUOUS
 70
0
 71
3
 72
11
 73
7
 74
0
 42
0.0000001
 43
0.0000001
 44
0.0000000001
 40
0.0
 40
0.0
 40
0.0
 40
0.0
 40
0.2497127445
 40
0.4996424999
 40
0.7497625988
 40
1.0
 40
1.0
 40
1.0
 40
1.0
 10
11.0077912755
 20
9.1271547101
 30
0.0
 10
11.0102782626
 20
9.1287977922
 30
0.0
 10
11.0150642546
 20
9.1323901727
 30
0.0
 10
11.0213865535
 20
9.1387773791
 30
0.0
 10
11.0265473227
 20
9.1461522814
 30
0.0
 10
11.0290257281
 20
9.1516346743
 30
0.0
 10
11.0299808341
 20
9.1544648634
 30
0.0
  0
SPLINE
  5
42E
100
AcDbEntity
  8
0
100
AcDbSpline
 62
7
  6
CONTINUOUS
 70
0
 71
3
 72
11
 73
7
 74
0
 42
0.0000001
 43
0.0000001
 44
0.0000000001
 40
0.0
 40
0.0
 40
0.0
 40
0.0
 40
0.2496989602
 40
0.4996824327
 40
0.7497893781
 40
1.0
 40
1.0
 40
1.0
 40
1.0
 10
11.006594823
 20
9.2097051502
 30
0.0
 10
11.0091859229
 20
9.2080390672
 30
0.0
 10
11.0141651436
 20
9.2043687642
 30
0.0
 10
11.0207870858
 20
9.1978603995
 30
0.0
 10
11.0262828035
 20
9.19035857
 30
0.0
 10
11.0289636638
 20
9.1847422688
 30
0.0
 10
11.0299808341
 20
9.1818278347
 30
0.0
  0
SPLINE
  5
42F
100
AcDbEntity
  8
0
100
AcDbSpline
 62
7
  6
CONTINUOUS
 70
0
 71
3
 72
9
 73
5
 74
0
 42
0.0000001
 43
0.0000001
 44
0.0000000001
 40
0.0
 40
0.0
 40
0.0
 40
0.0
 40
0.4316597675
 40
1.0
 40
1.0
 40
1.0
 40
1.0
 10
11.0307424372
 20
9.1271538281
 30
0.0
 10
11.0305384734
 20
9.1310799381
 30
0.0
 10
11.0302056342
 20
9.1401824624
 30
0.0
 10
11.0300407831
 20
9.1492889688
 30
0.0
 10
11.0299808341
 20
9.1544648634
 30
0.0
  0
SPLINE
  5
430
100
AcDbEntity
  8
0
100
AcDbSpline
 62
7
  6
CONTINUOUS
 70
0
 71
3
 72
10
 73
6
 74
0
 42
0.0000001
 43
0.0000001
 44
0.0000000001
 40
0.0
 40
0.0
 40
0.0
 40
0.0
 40
0.569133912
 40
0.8025682353
 40
1.0
 40
1.0
 40
1.0
 40
1.0
 10
11.0299808341
 20
9.1818278347
 30
0.0
 10
11.0300442089
 20
9.1871185788
 30
0.0
 10
11.0301871526
 20
9.19457907
 30
0.0
 10
11.0305039415
 20
9.2038705827
 30
0.0
 10
11.0306856345
 20
9.2078722758
 30
0.0
 10
11.0307834664
 20
9.2097051502
 30
0.0
  0
SPLINE
  5
431
100
AcDbEntity
  8
0
100
AcDbSpline
 62
7
  6
CONTINUOUS
 70
0
 71
3
 72
11
 73
7
 74
0
 42
0.0000001
 43
0.0000001
 44
0.0000000001
 40
0.0
 40
0.0
 40
0.0
 40
0.0
 40
0.249981466
 40
0.500012179
 40
0.7500398674
 40
1.0
 40
1.0
 40
1.0
 40
1.0
 10
11.0319846358
 20
9.1271539224
 30
0.0
 10
11.0344826658
 20
9.1287965586
 30
0.0
 10
11.0392895873
 20
9.1323875921
 30
0.0
 10
11.0456417918
 20
9.1387742703
 30
0.0
 10
11.0508276555
 20
9.1461490353
 30
0.0
 10
11.0533191159
 20
9.1516337051
 30
0.0
 10
11.0542790247
 20
9.1544648634
 30
0.0
  0
SPLINE
  5
432
100
AcDbEntity
  8
0
100
AcDbSpline
 62
7
  6
CONTINUOUS
 70
0
 71
3
 72
11
 73
7
 74
0
 42
0.0000001
 43
0.0000001
 44
0.0000000001
 40
0.0
 40
0.0
 40
0.0
 40
0.0
 40
0.2499633206
 40
0.500047416
 40
0.7500677619
 40
1.0
 40
1.0
 40
1.0
 40
1.0
 10
11.0307834664
 20
9.2097051502
 30
0.0
 10
11.0333859535
 20
9.2080395475
 30
0.0
 10
11.0383868985
 20
9.2043707265
 30
0.0
 10
11.045039892
 20
9.1978630231
 30
0.0
 10
11.0505617926
 20
9.1903616926
 30
0.0
 10
11.0532567405
 20
9.1847432647
 30
0.0
 10
11.0542790247
 20
9.1818278347
 30
0.0
  0
SPLINE
  5
433
100
AcDbEntity
  8
0
100
AcDbSpline
 62
7
  6
CONTINUOUS
 70
0
 71
3
 72
11
 73
7
 74
0
 42
0.0000001
 43
0.0000001
 44
0.0000000001
 40
0.0
 40
0.0
 40
0.0
 40
0.0
 40
0.2499816772
 40
0.5000120691
 40
0.750039898
 40
1.0
 40
1.0
 40
1.0
 40
1.0
 10
11.0546783268
 20
9.1271546012
 30
0.0
 10
11.0571762664
 20
9.1287972245
 30
0.0
 10
11.061983075
 20
9.1323881137
 30
0.0
 10
11.0683350817
 20
9.1387746438
 30
0.0
 10
11.0735206651
 20
9.146149284
 30
0.0
 10
11.0760120693
 20
9.1516337861
 30
0.0
 10
11.0769719506
 20
9.1544648634
 30
0.0
  0
SPLINE
  5
434
100
AcDbEntity
  8
0
100
AcDbSpline
 62
7
  6
CONTINUOUS
 70
0
 71
3
 72
11
 73
7
 74
0
 42
0.0000001
 43
0.0000001
 44
0.0000000001
 40
0.0
 40
0.0
 40
0.0
 40
0.0
 40
0.2499633206
 40
0.500047416
 40
0.7500677619
 40
1.0
 40
1.0
 40
1.0
 40
1.0
 10
11.0534763923
 20
9.2097051502
 30
0.0
 10
11.0560788794
 20
9.2080395475
 30
0.0
 10
11.0610798244
 20
9.2043707265
 30
0.0
 10
11.0677328179
 20
9.1978630231
 30
0.0
 10
11.0732547185
 20
9.1903616926
 30
0.0
 10
11.0759496664
 20
9.1847432647
 30
0.0
 10
11.0769719506
 20
9.1818278347
 30
0.0
  0
SPLINE
  5
435
100
AcDbEntity
  8
0
100
AcDbSpline
 62
7
  6
CONTINUOUS
 70
0
 71
3
 72
11
 73
7
 74
0
 42
0.0000001
 43
0.0000001
 44
0.0000000001
 40
0.0
 40
0.0
 40
0.0
 40
0.0
 40
0.2497124537
 40
0.4996426671
 40
0.7497625471
 40
1.0
 40
1.0
 40
1.0
 40
1.0
 10
11.0757631896
 20
9.1271537662
 30
0.0
 10
11.0782503024
 20
9.1287968664
 30
0.0
 10
11.0830364523
 20
9.1323894455
 30
0.0
 10
11.0893590314
 20
9.1387768527
 30
0.0
 10
11.0945201898
 20
9.1461519311
 30
0.0
 10
11.0969986627
 20
9.1516345614
 30
0.0
 10
11.0979538069
 20
9.1544648634
 30
0.0
  0
SPLINE
  5
436
100
AcDbEntity
  8
0
100
AcDbSpline
 62
7
  6
CONTINUOUS
 70
0
 71
3
 72
11
 73
7
 74
0
 42
0.0000001
 43
0.0000001
 44
0.0000000001
 40
0.0
 40
0.0
 40
0.0
 40
0.0
 40
0.2496989602
 40
0.4996824327
 40
0.7497893781
 40
1.0
 40
1.0
 40
1.0
 40
1.0
 10
11.0745677958
 20
9.2097051502
 30
0.0
 10
11.0771588957
 20
9.2080390672
 30
0.0
 10
11.0821381164
 20
9.2043687642
 30
0.0
 10
11.0887600586
 20
9.1978603995
 30
0.0
 10
11.0942557763
 20
9.19035857
 30
0.0
 10
11.0969366366
 20
9.1847422688
 30
0.0
 10
11.0979538069
 20
9.1818278347
 30
0.0
  0
SPLINE
  5
437
100
AcDbEntity
  8
0
100
AcDbSpline
 62
7
  6
CONTINUOUS
 70
0
 71
3
 72
11
 73
7
 74
0
 42
0.0000001
 43
0.0000001
 44
0.0000000001
 40
0.0
 40
0.0
 40
0.0
 40
0.0
 40
0.2491703042
 40
0.4989044484
 40
0.7492092913
 40
1.0
 40
1.0
 40
1.0
 40
1.0
 10
11.0951438454
 20
9.1271541573
 30
0.0
 10
11.0976090501
 20
9.1287981763
 30
0.0
 10
11.1023533858
 20
9.1323941057
 30
0.0
 10
11.1086167933
 20
9.1387825901
 30
0.0
 10
11.1137292476
 20
9.1461576845
 30
0.0
 10
11.116181152
 20
9.151636363
 30
0.0
 10
11.1171267664
 20
9.1544648634
 30
0.0
  0
SPLINE
  5
438
100
AcDbEntity
  8
0
100
AcDbSpline
 62
7
  6
CONTINUOUS
 70
0
 71
3
 72
11
 73
7
 74
0
 42
0.0000001
 43
0.0000001
 44
0.0000000001
 40
0.0
 40
0.0
 40
0.0
 40
0.0
 40
0.2491685966
 40
0.4989507411
 40
0.7492317305
 40
1.0
 40
1.0
 40
1.0
 40
1.0
 10
11.0939593388
 20
9.2097051502
 30
0.0
 10
11.0965277148
 20
9.2080380972
 30
0.0
 10
11.1014635676
 20
9.2043648112
 30
0.0
 10
11.10802353
 20
9.1978551344
 30
0.0
 10
11.1134669929
 20
9.1903523348
 30
0.0
 10
11.1161197882
 20
9.1847402882
 30
0.0
 10
11.1171267664
 20
9.1818278347
 30
0.0
  0
SPLINE
  5
439
100
AcDbEntity
  8
0
100
AcDbSpline
 62
7
  6
CONTINUOUS
 70
0
 71
3
 72
11
 73
7
 74
0
 42
0.0000001
 43
0.0000001
 44
0.0000000001
 40
0.0
 40
0.0
 40
0.0
 40
0.0
 40
0.2483605361
 40
0.4977876772
 40
0.7483726463
 40
1.0
 40
1.0
 40
1.0
 40
1.0
 10
11.1127280661
 20
9.1271537022
 30
0.0
 10
11.1151607195
 20
9.1287991793
 30
0.0
 10
11.1198432604
 20
9.1323994241
 30
0.0
 10
11.1260180691
 20
9.1387902642
 30
0.0
 10
11.1310559352
 20
9.1461666336
 30
0.0
 10
11.1334699816
 20
9.1516388784
 30
0.0
 10
11.1344014361
 20
9.1544648634
 30
0.0
  0
SPLINE
  5
43A
100
AcDbEntity
  8
0
100
AcDbSpline
 62
7
  6
CONTINUOUS
 70
0
 71
3
 72
9
 73
5
 74
0
 42
0.0000001
 43
0.0000001
 44
0.0000000001
 40
0.0
 40
0.0
 40
0.0
 40
0.0
 40
0.4924832816
 40
1.0
 40
1.0
 40
1.0
 40
1.0
 10
11.1797934862
 20
9.1271536987
 30
0.0
 10
11.1812139827
 20
9.1283922684
 30
0.0
 10
11.1839764211
 20
9.1310508977
 30
0.0
 10
11.186443707
 20
9.1339877495
 30
0.0
 10
11.1876075896
 20
9.1355425482
 30
0.0
  0
SPLINE
  5
43B
100
AcDbEntity
  8
0
100
AcDbSpline
 62
7
  6
CONTINUOUS
 70
0
 71
3
 72
11
 73
7
 74
0
 42
0.0000001
 43
0.0000001
 44
0.0000000001
 40
0.0
 40
0.0
 40
0.0
 40
0.0
 40
0.2483691508
 40
0.4978490137
 40
0.7483930461
 40
1.0
 40
1.0
 40
1.0
 40
1.0
 10
11.1115606093
 20
9.2097051502
 30
0.0
 10
11.1140950259
 20
9.2080366172
 30
0.0
 10
11.1189660278
 20
9.2043588101
 30
0.0
 10
11.1254333375
 20
9.1978472042
 30
0.0
 10
11.1307986996
 20
9.190343019
 30
0.0
 10
11.1334096561
 20
9.1847373473
 30
0.0
 10
11.1344014361
 20
9.1818278347
 30
0.0
  0
SPLINE
  5
43C
100
AcDbEntity
  8
0
100
AcDbSpline
 62
7
  6
CONTINUOUS
 70
0
 71
3
 72
9
 73
5
 74
0
 42
0.0000001
 43
0.0000001
 44
0.0000000001
 40
0.0
 40
0.0
 40
0.0
 40
0.0
 40
0.2490853137
 40
1.0
 40
1.0
 40
1.0
 40
1.0
 10
11.1284352523
 20
9.127154066
 30
0.0
 10
11.1293221777
 20
9.127765601
 30
0.0
 10
11.1328258512
 20
9.1303013469
 30
0.0
 10
11.1360844282
 20
9.1331845396
 30
0.0
 10
11.138317145
 20
9.1355431448
 30
0.0
  0
SPLINE
  5
43D
100
AcDbEntity
  8
0
100
AcDbSpline
 62
7
  6
CONTINUOUS
 70
0
 71
3
 72
9
 73
5
 74
0
 42
0.0000001
 43
0.0000001
 44
0.0000000001
 40
0.0
 40
0.0
 40
0.0
 40
0.0
 40
0.2492447237
 40
1.0
 40
1.0
 40
1.0
 40
1.0
 10
11.138317145
 20
9.1355431448
 30
0.0
 10
11.1389715118
 20
9.1362344071
 30
0.0
 10
11.1415245601
 20
9.1390750517
 30
0.0
 10
11.1437739442
 20
9.1421916912
 30
0.0
 10
11.1452419801
 20
9.1446544643
 30
0.0
  0
SPLINE
  5
43E
100
AcDbEntity
  8
0
100
AcDbSpline
 62
7
  6
CONTINUOUS
 70
0
 71
3
 72
9
 73
5
 74
0
 42
0.0000001
 43
0.0000001
 44
0.0000000001
 40
0.0
 40
0.0
 40
0.0
 40
0.0
 40
0.2495803074
 40
1.0
 40
1.0
 40
1.0
 40
1.0
 10
11.1452419801
 20
9.1446544643
 30
0.0
 10
11.1457014856
 20
9.1454253296
 30
0.0
 10
11.1474576721
 20
9.1485636352
 30
0.0
 10
11.1488670829
 20
9.1518974263
 30
0.0
 10
11.1496972734
 20
9.1544648634
 30
0.0
  0
SPLINE
  5
43F
100
AcDbEntity
  8
0
100
AcDbSpline
 62
7
  6
CONTINUOUS
 70
0
 71
3
 72
11
 73
7
 74
0
 42
0.0000001
 43
0.0000001
 44
0.0000000001
 40
0.0
 40
0.0
 40
0.0
 40
0.0
 40
0.2472960895
 40
0.4963726842
 40
0.7472711716
 40
1.0
 40
1.0
 40
1.0
 40
1.0
 10
11.1272895418
 20
9.2097051502
 30
0.0
 10
11.1297789117
 20
9.2080345976
 30
0.0
 10
11.1345638151
 20
9.2043506763
 30
0.0
 10
11.1409081665
 20
9.1978365603
 30
0.0
 10
11.146169919
 20
9.1903306592
 30
0.0
 10
11.1487255922
 20
9.1847334802
 30
0.0
 10
11.1496972734
 20
9.1818278347
 30
0.0
  0
SPLINE
  5
440
100
AcDbEntity
  8
0
100
AcDbSpline
 62
7
  6
CONTINUOUS
 70
0
 71
3
 72
10
 73
6
 74
0
 42
0.0000001
 43
0.0000001
 44
0.0000000001
 40
0.0
 40
0.0
 40
0.0
 40
0.0
 40
0.485452286
 40
0.7390682512
 40
1.0
 40
1.0
 40
1.0
 40
1.0
 10
10.2434036438
 20
9.1271536928
 30
0.0
 10
10.2400484322
 20
9.1299209784
 30
0.0
 10
10.2353761248
 20
9.1347277626
 30
0.0
 10
10.2304596576
 20
9.1422401243
 30
0.0
 10
10.2284606529
 20
9.1464130989
 30
0.0
 10
10.2275923755
 20
9.1485835585
 30
0.0
  0
SPLINE
  5
441
100
AcDbEntity
  8
0
100
AcDbSpline
 62
7
  6
CONTINUOUS
 70
0
 71
3
 72
9
 73
5
 74
0
 42
0.0000001
 43
0.0000001
 44
0.0000000001
 40
0.0
 40
0.0
 40
0.0
 40
0.0
 40
0.2486300135
 40
1.0
 40
1.0
 40
1.0
 40
1.0
 10
11.1421907747
 20
9.1271538272
 30
0.0
 10
11.1430568804
 20
9.1277656797
 30
0.0
 10
11.1464827454
 20
9.1303061538
 30
0.0
 10
11.1496607558
 20
9.1331889776
 30
0.0
 10
11.151835488
 20
9.1355427654
 30
0.0
  0
SPLINE
  5
442
100
AcDbEntity
  8
0
100
AcDbSpline
 62
7
  6
CONTINUOUS
 70
0
 71
3
 72
9
 73
5
 74
0
 42
0.0000001
 43
0.0000001
 44
0.0000000001
 40
0.0
 40
0.0
 40
0.0
 40
0.0
 40
0.2487644498
 40
1.0
 40
1.0
 40
1.0
 40
1.0
 10
11.151835488
 20
9.1355427654
 30
0.0
 10
11.1524745914
 20
9.1362344892
 30
0.0
 10
11.1549712738
 20
9.1390808502
 30
0.0
 10
11.1571643347
 20
9.1421961632
 30
0.0
 10
11.1585945309
 20
9.1446544203
 30
0.0
  0
SPLINE
  5
443
100
AcDbEntity
  8
0
100
AcDbSpline
 62
7
  6
CONTINUOUS
 70
0
 71
3
 72
9
 73
5
 74
0
 42
0.0000001
 43
0.0000001
 44
0.0000000001
 40
0.0
 40
0.0
 40
0.0
 40
0.0
 40
0.2491868027
 40
1.0
 40
1.0
 40
1.0
 40
1.0
 10
11.1585945309
 20
9.1446544203
 30
0.0
 10
11.1590432721
 20
9.1454257279
 30
0.0
 10
11.1607599452
 20
9.1485690789
 30
0.0
 10
11.1621337631
 20
9.1519008323
 30
0.0
 10
11.162942962
 20
9.1544648634
 30
0.0
  0
SPLINE
  5
444
100
AcDbEntity
  8
0
100
AcDbSpline
 62
7
  6
CONTINUOUS
 70
0
 71
3
 72
9
 73
5
 74
0
 42
0.0000001
 43
0.0000001
 44
0.0000000001
 40
0.0
 40
0.0
 40
0.0
 40
0.0
 40
0.5116394149
 40
1.0
 40
1.0
 40
1.0
 40
1.0
 10
10.2295903785
 20
9.1918112845
 30
0.0
 10
10.2314271876
 20
9.1953401881
 30
0.0
 10
10.2357994876
 20
9.2018545672
 30
0.0
 10
10.2413998608
 20
9.2073280354
 30
0.0
 10
10.2443610945
 20
9.2097051502
 30
0.0
  0
SPLINE
  5
445
100
AcDbEntity
  8
0
100
AcDbSpline
 62
7
  6
CONTINUOUS
 70
0
 71
3
 72
11
 73
7
 74
0
 42
0.0000001
 43
0.0000001
 44
0.0000000001
 40
0.0
 40
0.0
 40
0.0
 40
0.0
 40
0.2459439817
 40
0.4945163988
 40
0.7458637042
 40
1.0
 40
1.0
 40
1.0
 40
1.0
 10
11.1410728008
 20
9.2097051502
 30
0.0
 10
11.143506232
 20
9.208031997
 30
0.0
 10
11.1481840952
 20
9.2043402972
 30
0.0
 10
11.1543756832
 20
9.1978231557
 30
0.0
 10
11.1595087744
 20
9.1903153222
 30
0.0
 10
11.1619961406
 20
9.1847287352
 30
0.0
 10
11.162942962
 20
9.1818278347
 30
0.0
  0
SPLINE
  5
446
100
AcDbEntity
  8
0
100
AcDbSpline
 62
7
  6
CONTINUOUS
 70
0
 71
3
 72
9
 73
5
 74
0
 42
0.0000001
 43
0.0000001
 44
0.0000000001
 40
0.0
 40
0.0
 40
0.0
 40
0.0
 40
0.494672758
 40
1.0
 40
1.0
 40
1.0
 40
1.0
 10
11.1539313393
 20
9.1271537635
 30
0.0
 10
11.1571043529
 20
9.1294628166
 30
0.0
 10
11.1631278172
 20
9.1347092966
 30
0.0
 10
11.1678841019
 20
9.1411638888
 30
0.0
 10
11.1698554878
 20
9.1446544326
 30
0.0
  0
SPLINE
  5
447
100
AcDbEntity
  8
0
100
AcDbSpline
 62
7
  6
CONTINUOUS
 70
0
 71
3
 72
11
 73
7
 74
0
 42
0.0000001
 43
0.0000001
 44
0.0000000001
 40
0.0
 40
0.0
 40
0.0
 40
0.0
 40
0.2443068919
 40
0.492274784
 40
0.7441686952
 40
1.0
 40
1.0
 40
1.0
 40
1.0
 10
11.1528461225
 20
9.2097051502
 30
0.0
 10
11.1552129607
 20
9.2080287625
 30
0.0
 10
11.1597632108
 20
9.2043275351
 30
0.0
 10
11.1657728536
 20
9.1978069409
 30
0.0
 10
11.1707528111
 20
9.1902971018
 30
0.0
 10
11.1731593728
 20
9.1847231731
 30
0.0
 10
11.1740767445
 20
9.1818278347
 30
0.0
  0
SPLINE
  5
448
100
AcDbEntity
  8
0
100
AcDbSpline
 62
7
  6
CONTINUOUS
 70
0
 71
3
 72
11
 73
7
 74
0
 42
0.0000001
 43
0.0000001
 44
0.0000000001
 40
0.0
 40
0.0
 40
0.0
 40
0.0
 40
0.241862817
 40
0.4887887683
 40
0.7414747729
 40
1.0
 40
1.0
 40
1.0
 40
1.0
 10
10.2488091015
 20
9.1271538051
 30
0.0
 10
10.2470733942
 20
9.1285179548
 30
0.0
 10
10.243710918
 20
9.1314663651
 30
0.0
 10
10.2391669041
 20
9.1365051595
 30
0.0
 10
10.235234695
 20
9.1422238602
 30
0.0
 10
10.2331299355
 20
9.1464078169
 30
0.0
 10
10.2322165333
 20
9.1485835727
 30
0.0
  0
SPLINE
  5
449
100
AcDbEntity
  8
0
100
AcDbSpline
 62
7
  6
CONTINUOUS
 70
0
 71
3
 72
9
 73
5
 74
0
 42
0.0000001
 43
0.0000001
 44
0.0000000001
 40
0.0
 40
0.0
 40
0.0
 40
0.0
 40
0.4927958889
 40
1.0
 40
1.0
 40
1.0
 40
1.0
 10
11.1636022026
 20
9.1271538877
 30
0.0
 10
11.1666748939
 20
9.1294705432
 30
0.0
 10
11.172509203
 20
9.1347430036
 30
0.0
 10
11.1770765715
 20
9.1411769064
 30
0.0
 10
11.178972284
 20
9.1446544315
 30
0.0
  0
SPLINE
  5
44A
100
AcDbEntity
  8
0
100
AcDbSpline
 62
7
  6
CONTINUOUS
 70
0
 71
3
 72
11
 73
7
 74
0
 42
0.0000001
 43
0.0000001
 44
0.0000000001
 40
0.0
 40
0.0
 40
0.0
 40
0.0
 40
0.2596201042
 40
0.5125457675
 40
0.7591943954
 40
1.0
 40
1.0
 40
1.0
 40
1.0
 10
10.2309633487
 20
9.1843255422
 30
0.0
 10
10.2318867574
 20
9.186938909
 30
0.0
 10
10.2341481821
 20
9.1919533338
 30
0.0
 10
10.2385977109
 20
9.1987617062
 30
0.0
 10
10.2438351268
 20
9.2047141884
 30
0.0
 10
10.2477720302
 20
9.2081431855
 30
0.0
 10
10.2498139679
 20
9.2097051502
 30
0.0
  0
SPLINE
  5
44B
100
AcDbEntity
  8
0
100
AcDbSpline
 62
7
  6
CONTINUOUS
 70
0
 71
3
 72
11
 73
7
 74
0
 42
0.0000001
 43
0.0000001
 44
0.0000000001
 40
0.0
 40
0.0
 40
0.0
 40
0.0
 40
0.2423791249
 40
0.4896434801
 40
0.7421854079
 40
1.0
 40
1.0
 40
1.0
 40
1.0
 10
11.1625546142
 20
9.2097051502
 30
0.0
 10
11.1648444809
 20
9.2080248285
 30
0.0
 10
11.1692469671
 20
9.2043122304
 30
0.0
 10
11.1750462341
 20
9.1977878753
 30
0.0
 10
11.1798492931
 20
9.1902761285
 30
0.0
 10
11.1821631779
 20
9.1847168687
 30
0.0
 10
11.18304671
 20
9.1818278347
 30
0.0
  0
SPLINE
  5
44C
100
AcDbEntity
  8
0
100
AcDbSpline
 62
7
  6
CONTINUOUS
 70
0
 71
3
 72
11
 73
7
 74
0
 42
0.0000001
 43
0.0000001
 44
0.0000000001
 40
0.0
 40
0.0
 40
0.0
 40
0.0
 40
0.2437261248
 40
0.4913452654
 40
0.7434070007
 40
1.0
 40
1.0
 40
1.0
 40
1.0
 10
10.256364915
 20
9.1271537806
 30
0.0
 10
10.2545595591
 20
9.1285149215
 30
0.0
 10
10.2510625091
 20
9.1314550009
 30
0.0
 10
10.2463251993
 20
9.1364910971
 30
0.0
 10
10.2422236608
 20
9.1422089059
 30
0.0
 10
10.2400223192
 20
9.1464035244
 30
0.0
 10
10.2390680365
 20
9.1485842024
 30
0.0
  0
SPLINE
  5
44D
100
AcDbEntity
  8
0
100
AcDbSpline
 62
7
  6
CONTINUOUS
 70
0
 71
3
 72
11
 73
7
 74
0
 42
0.0000001
 43
0.0000001
 44
0.0000000001
 40
0.0
 40
0.0
 40
0.0
 40
0.0
 40
0.257836277
 40
0.5104005968
 40
0.7576369526
 40
1.0
 40
1.0
 40
1.0
 40
1.0
 10
10.2369202683
 20
9.1818278347
 30
0.0
 10
10.2378038726
 20
9.1847171049
 30
0.0
 10
10.2401184313
 20
9.190276626
 30
0.0
 10
10.2449213455
 20
9.1977886453
 30
0.0
 10
10.2507206844
 20
9.2043125774
 30
0.0
 10
10.2551226547
 20
9.2080249439
 30
0.0
 10
10.2574123641
 20
9.2097051502
 30
0.0
  0
SPLINE
  5
44E
100
AcDbEntity
  8
0
100
AcDbSpline
 62
7
  6
CONTINUOUS
 70
0
 71
3
 72
9
 73
5
 74
0
 42
0.0000001
 43
0.0000001
 44
0.0000000001
 40
0.0
 40
0.0
 40
0.0
 40
0.0
 40
0.490614435
 40
1.0
 40
1.0
 40
1.0
 40
1.0
 10
11.1711578562
 20
9.1271537778
 30
0.0
 10
11.1741170696
 20
9.1294795185
 30
0.0
 10
11.1797363109
 20
9.1347821737
 30
0.0
 10
11.1840915703
 20
9.1411915573
 30
0.0
 10
11.185902457
 20
9.1446544226
 30
0.0
  0
SPLINE
  5
44F
100
AcDbEntity
  8
0
100
AcDbSpline
 62
7
  6
CONTINUOUS
 70
0
 71
3
 72
11
 73
7
 74
0
 42
0.0000001
 43
0.0000001
 44
0.0000000001
 40
0.0
 40
0.0
 40
0.0
 40
0.0
 40
0.2408151523
 40
0.4874896896
 40
0.7404127987
 40
1.0
 40
1.0
 40
1.0
 40
1.0
 10
11.1701530103
 20
9.2097051502
 30
0.0
 10
11.1721963361
 20
9.2081421238
 30
0.0
 10
11.1761360308
 20
9.20471062
 30
0.0
 10
11.1813760873
 20
9.1987531912
 30
0.0
 10
11.1858270717
 20
9.1919396192
 30
0.0
 10
11.1880877708
 20
9.1869213569
 30
0.0
 10
11.1890104889
 20
9.1843062376
 30
0.0
  0
LINE
  5
450
100
AcDbEntity
  8
0
100
AcDbLine
 62
7
  6
CONTINUOUS
 10
11.0307424372
 20
9.1271538281
 11
11.0307834664
 21
9.1263523
  0
SPLINE
  5
451
100
AcDbEntity
  8
0
100
AcDbSpline
 62
7
  6
CONTINUOUS
 70
0
 71
3
 72
9
 73
5
 74
0
 42
0.0000001
 43
0.0000001
 44
0.0000000001
 40
0.0
 40
0.0
 40
0.0
 40
0.0
 40
0.4881196374
 40
1.0
 40
1.0
 40
1.0
 40
1.0
 10
11.1765633351
 20
9.1271536936
 30
0.0
 10
11.1793962044
 20
9.1294901659
 30
0.0
 10
11.1847747384
 20
9.134827099
 30
0.0
 10
11.1888961259
 20
9.1412077846
 30
0.0
 10
11.1906136416
 20
9.1446543941
 30
0.0
  0
SPLINE
  5
452
100
AcDbEntity
  8
0
100
AcDbSpline
 62
7
  6
CONTINUOUS
 70
0
 71
3
 72
11
 73
7
 74
0
 42
0.0000001
 43
0.0000001
 44
0.0000000001
 40
0.0
 40
0.0
 40
0.0
 40
0.0
 40
0.2443170995
 40
0.4922080597
 40
0.7441780173
 40
1.0
 40
1.0
 40
1.0
 40
1.0
 10
10.266035697
 20
9.1271537064
 30
0.0
 10
10.2637633798
 20
9.1288073038
 30
0.0
 10
10.2593906852
 20
9.1324350001
 30
0.0
 10
10.2536469619
 20
9.1388295784
 30
0.0
 10
10.2489785218
 20
9.1462110719
 30
0.0
 10
10.2467522173
 20
9.1516513028
 30
0.0
 10
10.2458902338
 20
9.1544648634
 30
0.0
  0
SPLINE
  5
453
100
AcDbEntity
  8
0
100
AcDbSpline
 62
7
  6
CONTINUOUS
 70
0
 71
3
 72
11
 73
7
 74
0
 42
0.0000001
 43
0.0000001
 44
0.0000000001
 40
0.0
 40
0.0
 40
0.0
 40
0.0
 40
0.2558531435
 40
0.5077693614
 40
0.7557093212
 40
1.0
 40
1.0
 40
1.0
 40
1.0
 10
10.2458902338
 20
9.1818278347
 30
0.0
 10
10.2468076816
 20
9.1847234134
 30
0.0
 10
10.2492149279
 20
9.1902975999
 30
0.0
 10
10.2541947464
 20
9.197807717
 30
0.0
 10
10.2602044613
 20
9.2043278725
 30
0.0
 10
10.2647541803
 20
9.2080288778
 30
0.0
 10
10.2671208557
 20
9.2097051502
 30
0.0
  0
SPLINE
  5
454
100
AcDbEntity
  8
0
100
AcDbSpline
 62
7
  6
CONTINUOUS
 70
0
 71
3
 72
9
 73
5
 74
0
 42
0.0000001
 43
0.0000001
 44
0.0000000001
 40
0.0
 40
0.0
 40
0.0
 40
0.0
 40
0.4882141762
 40
1.0
 40
1.0
 40
1.0
 40
1.0
 10
11.1756058838
 20
9.2097051502
 30
0.0
 10
11.1786062509
 20
9.2072966212
 30
0.0
 10
11.184276448
 20
9.2017410131
 30
0.0
 10
11.1886813701
 20
9.1951182499
 30
0.0
 10
11.1905224107
 20
9.1915296944
 30
0.0
  0
SPLINE
  5
455
100
AcDbEntity
  8
0
100
AcDbSpline
 62
7
  6
CONTINUOUS
 70
0
 71
3
 72
9
 73
5
 74
0
 42
0.0000001
 43
0.0000001
 44
0.0000000001
 40
0.0
 40
0.0
 40
0.0
 40
0.0
 40
0.2472738999
 40
1.0
 40
1.0
 40
1.0
 40
1.0
 10
11.1905224107
 20
9.1915296944
 30
0.0
 10
11.190852095
 20
9.1908870738
 30
0.0
 10
11.1921327642
 20
9.1882616957
 30
0.0
 10
11.1931971859
 20
9.1855300471
 30
0.0
 10
11.1938599331
 20
9.1834336972
 30
0.0
  0
SPLINE
  5
456
100
AcDbEntity
  8
0
100
AcDbSpline
 62
7
  6
CONTINUOUS
 70
0
 71
3
 72
9
 73
5
 74
0
 42
0.0000001
 43
0.0000001
 44
0.0000000001
 40
0.0
 40
0.0
 40
0.0
 40
0.0
 40
0.2491787175
 40
1.0
 40
1.0
 40
1.0
 40
1.0
 10
10.2777761347
 20
9.1271539051
 30
0.0
 10
10.2772348063
 20
9.1275363231
 30
0.0
 10
10.2750849167
 20
9.1291026012
 30
0.0
 10
10.2730294546
 20
9.1307994832
 30
0.0
 10
10.2715547344
 20
9.1321461622
 30
0.0
  0
SPLINE
  5
457
100
AcDbEntity
  8
0
100
AcDbSpline
 62
7
  6
CONTINUOUS
 70
0
 71
3
 72
11
 73
7
 74
0
 42
0.0000001
 43
0.0000001
 44
0.0000000001
 40
0.0
 40
0.0
 40
0.0
 40
0.0
 40
0.2467301685
 40
0.4956517548
 40
0.7468050229
 40
1.0
 40
1.0
 40
1.0
 40
1.0
 10
10.2715547344
 20
9.1321461622
 30
0.0
 10
10.269919531
 20
9.1336393906
 30
0.0
 10
10.2667968037
 20
9.1368245889
 30
0.0
 10
10.2627318777
 20
9.1421773356
 30
0.0
 10
10.2593836203
 20
9.1480734721
 30
0.0
 10
10.2577079369
 20
9.1522977895
 30
0.0
 10
10.2570240162
 20
9.1544648634
 30
0.0
  0
SPLINE
  5
458
100
AcDbEntity
  8
0
100
AcDbSpline
 62
7
  6
CONTINUOUS
 70
0
 71
3
 72
11
 73
7
 74
0
 42
0.0000001
 43
0.0000001
 44
0.0000000001
 40
0.0
 40
0.0
 40
0.0
 40
0.0
 40
0.2541582164
 40
0.5055278162
 40
0.7540723851
 40
1.0
 40
1.0
 40
1.0
 40
1.0
 10
10.2570240162
 20
9.1818278347
 30
0.0
 10
10.2579709171
 20
9.1847289783
 30
0.0
 10
10.2604589858
 20
9.1903158162
 30
0.0
 10
10.2655919378
 20
9.1978239347
 30
0.0
 10
10.2717835929
 20
9.2043406297
 30
0.0
 10
10.2764609141
 20
9.2080321124
 30
0.0
 10
10.2788941774
 20
9.2097051502
 30
0.0
  0
SPLINE
  5
459
100
AcDbEntity
  8
0
100
AcDbSpline
 62
7
  6
CONTINUOUS
 70
0
 71
3
 72
9
 73
5
 74
0
 42
0.0000001
 43
0.0000001
 44
0.0000000001
 40
0.0
 40
0.0
 40
0.0
 40
0.0
 40
0.2494491632
 40
1.0
 40
1.0
 40
1.0
 40
1.0
 10
10.2915320486
 20
9.1271538152
 30
0.0
 10
10.2909775742
 20
9.1275361209
 30
0.0
 10
10.2887771219
 20
9.1291007404
 30
0.0
 10
10.2866702163
 20
9.1307979964
 30
0.0
 10
10.2851574272
 20
9.1321463067
 30
0.0
  0
SPLINE
  5
45A
100
AcDbEntity
  8
0
100
AcDbSpline
 62
7
  6
CONTINUOUS
 70
0
 71
3
 72
11
 73
7
 74
0
 42
0.0000001
 43
0.0000001
 44
0.0000000001
 40
0.0
 40
0.0
 40
0.0
 40
0.0
 40
0.2478242585
 40
0.4971028141
 40
0.7478672993
 40
1.0
 40
1.0
 40
1.0
 40
1.0
 10
10.2851574272
 20
9.1321463067
 30
0.0
 10
10.2834843916
 20
9.1336374406
 30
0.0
 10
10.280289393
 20
9.1368170958
 30
0.0
 10
10.2761235094
 20
9.1421689783
 30
0.0
 10
10.2726912923
 20
9.1480652597
 30
0.0
 10
10.2709712091
 20
9.1522953997
 30
0.0
 10
10.2702697049
 20
9.1544648634
 30
0.0
  0
SPLINE
  5
45B
100
AcDbEntity
  8
0
100
AcDbSpline
 62
7
  6
CONTINUOUS
 70
0
 71
3
 72
11
 73
7
 74
0
 42
0.0000001
 43
0.0000001
 44
0.0000000001
 40
0.0
 40
0.0
 40
0.0
 40
0.0
 40
0.252750774
 40
0.5036716097
 40
0.7527204456
 40
1.0
 40
1.0
 40
1.0
 40
1.0
 10
10.2702697049
 20
9.1818278347
 30
0.0
 10
10.271241468
 20
9.1847337252
 30
0.0
 10
10.2737978697
 20
9.190331144
 30
0.0
 10
10.2790594763
 20
9.197837339
 30
0.0
 10
10.2854038849
 20
9.2043510087
 30
0.0
 10
10.2901882393
 20
9.2080347135
 30
0.0
 10
10.2926774365
 20
9.2097051502
 30
0.0
  0
SPLINE
  5
45C
100
AcDbEntity
  8
0
100
AcDbSpline
 62
7
  6
CONTINUOUS
 70
0
 71
3
 72
43
 73
39
 74
0
 42
0.0000001
 43
0.0000001
 44
0.0000000001
 40
0.0
 40
0.0
 40
0.0
 40
0.0
 40
0.0918507241
 40
0.1834141649
 40
0.2736407192
 40
0.3618274046
 40
0.4474446805
 40
0.5299759311
 40
0.6088018478
 40
0.6831381789
 40
0.752029135
 40
0.7841002671
 40
0.8144024481
 40
0.8427988306
 40
0.8691587674
 40
0.8933578802
 40
0.9152868272
 40
0.9348442654
 40
0.9519486639
 40
0.9595571152
 40
0.9665267825
 40
0.9728515076
 40
0.9785250675
 40
0.983541649
 40
0.9878975044
 40
0.9915894503
 40
0.9946142774
 40
0.9958755245
 40
0.9969689705
 40
0.99789451
 40
0.99865204
 40
0.9992414573
 40
0.9994730915
 40
0.9996626588
 40
0.9998101462
 40
0.9999155408
 40
0.9999788297
 40
1.0
 40
1.0
 40
1.0
 40
1.0
 10
11.0860924427
 20
10.2601929362
 30
0.0
 10
11.0842462918
 20
10.2540008107
 30
0.0
 10
11.080962945
 20
10.241512684
 30
0.0
 10
11.0771521481
 20
10.2226345569
 30
0.0
 10
11.0743636021
 20
10.203840287
 30
0.0
 10
11.0724933813
 20
10.1853548023
 30
0.0
 10
11.0714295131
 20
10.1673488505
 30
0.0
 10
11.0710693867
 20
10.1499745749
 30
0.0
 10
11.0713224
 20
10.1333925805
 30
0.0
 10
11.0721016079
 20
10.1177881402
 30
0.0
 10
11.0731321022
 20
10.105496931
 30
0.0
 10
11.0741351562
 20
10.0963171055
 30
0.0
 10
11.074930056
 20
10.0899810657
 30
0.0
 10
11.0757673122
 20
10.0840560396
 30
0.0
 10
11.0766259495
 20
10.0785682857
 30
0.0
 10
11.0774855449
 20
10.07354174
 30
0.0
 10
11.0783244783
 20
10.0689975914
 30
0.0
 10
11.0791219778
 20
10.0649536661
 30
0.0
 10
11.0797582611
 20
10.0619049891
 30
0.0
 10
11.0802298531
 20
10.0597266574
 30
0.0
 10
11.0805474775
 20
10.0582909011
 30
0.0
 10
11.0808411591
 20
10.0569892675
 30
0.0
 10
11.0811090181
 20
10.0558226663
 30
0.0
 10
11.0813491746
 20
10.05479182
 30
0.0
 10
11.0815603654
 20
10.053897365
 30
0.0
 10
11.0817414053
 20
10.053139762
 30
0.0
 10
11.0818731005
 20
10.0525941976
 30
0.0
 10
11.0819623196
 20
10.0522264281
 30
0.0
 10
11.0820168509
 20
10.0520022087
 30
0.0
 10
11.08206311
 20
10.0518124407
 30
0.0
 10
11.0821010976
 20
10.0516571662
 30
0.0
 10
11.0821274762
 20
10.051549271
 30
0.0
 10
11.082144527
 20
10.0514802883
 30
0.0
 10
11.0821538995
 20
10.0514413178
 30
0.0
 10
11.0821618293
 20
10.0514114155
 30
0.0
 10
11.0821660738
 20
10.0513891016
 30
0.0
 10
11.0821711962
 20
10.0513774033
 30
0.0
 10
11.0821706493
 20
10.051370325
 30
0.0
 10
11.0821718339
 20
10.0513694223
 30
0.0
  0
SPLINE
  5
45D
100
AcDbEntity
  8
0
100
AcDbSpline
 62
7
  6
CONTINUOUS
 70
0
 71
3
 72
9
 73
5
 74
0
 42
0.0000001
 43
0.0000001
 44
0.0000000001
 40
0.0
 40
0.0
 40
0.0
 40
0.0
 40
0.2496600533
 40
1.0
 40
1.0
 40
1.0
 40
1.0
 10
10.3072387484
 20
9.1271538617
 30
0.0
 10
10.3066737297
 20
9.1275360502
 30
0.0
 10
10.3044327427
 20
9.1290992573
 30
0.0
 10
10.3022845721
 20
9.1307966632
 30
0.0
 10
10.3007412073
 20
9.1321461341
 30
0.0
  0
SPLINE
  5
45E
100
AcDbEntity
  8
0
100
AcDbSpline
 62
7
  6
CONTINUOUS
 70
0
 71
3
 72
11
 73
7
 74
0
 42
0.0000001
 43
0.0000001
 44
0.0000000001
 40
0.0
 40
0.0
 40
0.0
 40
0.0
 40
0.2486989987
 40
0.4982649444
 40
0.748719481
 40
1.0
 40
1.0
 40
1.0
 40
1.0
 10
10.3007412073
 20
9.1321461341
 30
0.0
 10
10.2990376908
 20
9.1336356369
 30
0.0
 10
10.2957845033
 20
9.1368109083
 30
0.0
 10
10.2915372173
 20
9.1421620938
 30
0.0
 10
10.2880372481
 20
9.1480584957
 30
0.0
 10
10.2862812594
 20
9.1522934141
 30
0.0
 10
10.2855655422
 20
9.1544648634
 30
0.0
  0
SPLINE
  5
45F
100
AcDbEntity
  8
0
100
AcDbSpline
 62
7
  6
CONTINUOUS
 70
0
 71
3
 72
11
 73
7
 74
0
 42
0.0000001
 43
0.0000001
 44
0.0000000001
 40
0.0
 40
0.0
 40
0.0
 40
0.0
 40
0.2516289992
 40
0.5021953072
 40
0.7516474437
 40
1.0
 40
1.0
 40
1.0
 40
1.0
 10
10.2855655422
 20
9.1818278347
 30
0.0
 10
10.2865574066
 20
9.184737595
 30
0.0
 10
10.2891690925
 20
9.1903435068
 30
0.0
 10
10.2945343156
 20
9.1978479876
 30
0.0
 10
10.3010016846
 20
9.2043591353
 30
0.0
 10
10.305872128
 20
9.2080367328
 30
0.0
 10
10.308406369
 20
9.2097051502
 30
0.0
  0
SPLINE
  5
460
100
AcDbEntity
  8
0
100
AcDbSpline
 62
7
  6
CONTINUOUS
 70
0
 71
3
 72
10
 73
6
 74
0
 42
0.0000001
 43
0.0000001
 44
0.0000000001
 40
0.0
 40
0.0
 40
0.0
 40
0.0
 40
0.5614520764
 40
0.8028766281
 40
1.0
 40
1.0
 40
1.0
 40
1.0
 10
11.0860924427
 20
10.2601929362
 30
0.0
 10
11.0944462065
 20
10.2882120717
 30
0.0
 10
11.1101901061
 20
10.3271906901
 30
0.0
 10
11.1339081507
 20
10.3735464405
 30
0.0
 10
11.1451233663
 20
10.3934493928
 30
0.0
 10
11.150301049
 20
10.4023132676
 30
0.0
  0
LINE
  5
461
100
AcDbEntity
  8
0
100
AcDbLine
 62
7
  6
CONTINUOUS
 10
11.150301049
 20
10.4023132676
 11
11.1651688813
 21
10.4277620921
  0
SPLINE
  5
462
100
AcDbEntity
  8
0
100
AcDbSpline
 62
7
  6
CONTINUOUS
 70
0
 71
3
 72
9
 73
5
 74
0
 42
0.0000001
 43
0.0000001
 44
0.0000000001
 40
0.0
 40
0.0
 40
0.0
 40
0.0
 40
0.2498151948
 40
1.0
 40
1.0
 40
1.0
 40
1.0
 10
10.3248229433
 20
9.127154228
 30
0.0
 10
10.3242499683
 20
9.1275363429
 30
0.0
 10
10.3219783905
 20
9.1290985424
 30
0.0
 10
10.3197990393
 20
9.130796042
 30
0.0
 10
10.3182325803
 20
9.1321463901
 30
0.0
  0
SPLINE
  5
463
100
AcDbEntity
  8
0
100
AcDbSpline
 62
7
  6
CONTINUOUS
 70
0
 71
3
 72
11
 73
7
 74
0
 42
0.0000001
 43
0.0000001
 44
0.0000000001
 40
0.0
 40
0.0
 40
0.0
 40
0.0
 40
0.249354518
 40
0.4991370693
 40
0.7493598305
 40
1.0
 40
1.0
 40
1.0
 40
1.0
 10
10.3182325803
 20
9.1321463901
 30
0.0
 10
10.3165061325
 20
9.1336346547
 30
0.0
 10
10.3132092538
 20
9.1368066471
 30
0.0
 10
10.308900726
 20
9.1421571807
 30
0.0
 10
10.3053497879
 20
9.1480535332
 30
0.0
 10
10.3035666525
 20
9.1522919504
 30
0.0
 10
10.3028402118
 20
9.1544648634
 30
0.0
  0
SPLINE
  5
464
100
AcDbEntity
  8
0
100
AcDbSpline
 62
7
  6
CONTINUOUS
 70
0
 71
3
 72
11
 73
7
 74
0
 42
0.0000001
 43
0.0000001
 44
0.0000000001
 40
0.0
 40
0.0
 40
0.0
 40
0.0
 40
0.2507903833
 40
0.5010936208
 40
0.7508480507
 40
1.0
 40
1.0
 40
1.0
 40
1.0
 10
10.3028402118
 20
9.1818278347
 30
0.0
 10
10.3038472764
 20
9.1847405378
 30
0.0
 10
10.3065008068
 20
9.1903528226
 30
0.0
 10
10.3119441313
 20
9.1978559215
 30
0.0
 10
10.3185041525
 20
9.2043651339
 30
0.0
 10
10.3234394415
 20
9.2080382128
 30
0.0
 10
10.3260076394
 20
9.2097051502
 30
0.0
  0
LINE
  5
465
100
AcDbEntity
  8
0
100
AcDbLine
 62
7
  6
CONTINUOUS
 10
10.3377972248
 20
10.0513779655
 11
10.3381307603
 21
10.0527473179
  0
SPLINE
  5
466
100
AcDbEntity
  8
0
100
AcDbSpline
 62
7
  6
CONTINUOUS
 70
0
 71
3
 72
14
 73
10
 74
0
 42
0.0000001
 43
0.0000001
 44
0.0000000001
 40
0.0
 40
0.0
 40
0.0
 40
0.0
 40
0.1168172631
 40
0.2231976912
 40
0.3534510944
 40
0.500860388
 40
0.6603161234
 40
0.8281832525
 40
1.0
 40
1.0
 40
1.0
 40
1.0
 10
10.3381307603
 20
10.0527473179
 30
0.0
 10
10.3400449218
 20
10.0606806492
 30
0.0
 10
10.3431420459
 20
10.0759785471
 30
0.0
 10
10.346525939
 20
10.1004494737
 30
0.0
 10
10.3486164372
 20
10.1272156942
 30
0.0
 10
10.3490719354
 20
10.1577708399
 30
0.0
 10
10.3473195174
 20
10.19092005
 30
0.0
 10
10.3427152454
 20
10.2255256526
 30
0.0
 10
10.337304082
 20
10.2486899862
 30
0.0
 10
10.3338745355
 20
10.2601929362
 30
0.0
  0
SPLINE
  5
467
100
AcDbEntity
  8
0
100
AcDbSpline
 62
7
  6
CONTINUOUS
 70
0
 71
3
 72
10
 73
6
 74
0
 42
0.0000001
 43
0.0000001
 44
0.0000000001
 40
0.0
 40
0.0
 40
0.0
 40
0.0
 40
0.1971224787
 40
0.438546731
 40
1.0
 40
1.0
 40
1.0
 40
1.0
 10
10.2696659293
 20
10.4023132676
 30
0.0
 10
10.2748435891
 20
10.393449432
 30
0.0
 10
10.2860587841
 20
10.3735465392
 30
0.0
 10
10.3097771047
 20
10.3271909179
 30
0.0
 10
10.3255207531
 20
10.2882121342
 30
0.0
 10
10.3338745355
 20
10.2601929362
 30
0.0
  0
SPLINE
  5
468
100
AcDbEntity
  8
0
100
AcDbSpline
 62
7
  6
CONTINUOUS
 70
0
 71
3
 72
11
 73
7
 74
0
 42
0.0000001
 43
0.0000001
 44
0.0000000001
 40
0.0
 40
0.0
 40
0.0
 40
0.0
 40
0.2497843406
 40
0.4996941712
 40
0.7497627537
 40
1.0
 40
1.0
 40
1.0
 40
1.0
 10
10.3442034164
 20
9.1271541252
 30
0.0
 10
10.341715626
 20
9.1287977008
 30
0.0
 10
10.336932022
 20
9.1323940881
 30
0.0
 10
10.3306031891
 20
9.1387752258
 30
0.0
 10
10.325447266
 20
9.1461532949
 30
0.0
 10
10.3229683049
 20
9.1516345929
 30
0.0
 10
10.3220131714
 20
9.1544648634
 30
0.0
  0
LINE
  5
469
100
AcDbEntity
  8
0
100
AcDbLine
 62
7
  6
CONTINUOUS
 10
10.254798097
 20
10.4277620921
 11
10.2696659293
 21
10.4023132676
  0
SPLINE
  5
46A
100
AcDbEntity
  8
0
100
AcDbSpline
 62
7
  6
CONTINUOUS
 70
0
 71
3
 72
11
 73
7
 74
0
 42
0.0000001
 43
0.0000001
 44
0.0000000001
 40
0.0
 40
0.0
 40
0.0
 40
0.0
 40
0.2502327373
 40
0.5003619479
 40
0.7503177591
 40
1.0
 40
1.0
 40
1.0
 40
1.0
 10
10.3220131714
 20
9.1818278347
 30
0.0
 10
10.323030429
 20
9.184742519
 30
0.0
 10
10.3257120337
 20
9.1903590542
 30
0.0
 10
10.3312076125
 20
9.1978611854
 30
0.0
 10
10.3378296095
 20
9.2043690855
 30
0.0
 10
10.3428082626
 20
9.208039183
 30
0.0
 10
10.3453991825
 20
9.2097051502
 30
0.0
  0
ENDSEC
  0
SECTION
  2
OBJECTS
  0
DICTIONARY
  5
C
100
AcDbDictionary
280
0
281
1
  3
ACAD_GROUP
350
D
  3
ACAD_MLINESTYLE
350
17
  3
ACAD_LAYOUT
350
1A
  3
ACAD_PLOTSETTINGS
350
19
  3
ACAD_PLOTSTYLENAME
350
E
  0
DICTIONARY
  5
D
102
{ACAD_REACTORS
330
C
102
}
100
AcDbDictionary
280
0
281
1
  0
ACDBDICTIONARYWDFLT
  5
E
102
{ACAD_REACTORS
330
C
102
}
100
AcDbDictionary
281
1
  3
Normal
350
F
100
AcDbDictionaryWithDefault
340
F
  0
DICTIONARY
  5
17
102
{ACAD_REACTORS
330
C
102
}
100
AcDbDictionary
280
0
281
1
  3
Standard
350
18
  0
DICTIONARY
  5
19
102
{ACAD_REACTORS
330
C
102
}
100
AcDbDictionary
281
1
  0
DICTIONARY
  5
1A
102
{ACAD_REACTORS
330
C
102
}
100
AcDbDictionary
281
1
  3
Model
350
46B
  3
Layout1
350
46C
  0
ACDBPLACEHOLDER
  5
F
102
{ACAD_REACTORS
330
E
102
}
  0
MLINESTYLE
  5
18
102
{ACAD_REACTORS
330
17
102
}
100
AcDbMlineStyle
  2
STANDARD
 70
0
  3

 62
256
 51
90.0
 52
90.0
 71
2
 49
0.5
 62
256
  6
BYLAYER
 49
-0.5
 62
256
  6
BYLAYER
  0
LAYOUT
  5
46B
102
{ACAD_REACTORS
330
1A
102
}
100
AcDbPlotSettings
  1

  2
none_device
  4
ANSI_C_(22.00_x_17.00_Inches)
  6

 40
0.0
 41
0.0
 42
0.0
 43
0.0
 44
558.8
 45
431.8
 46
0.0
 47
0.0
 48
0.0
 49
0.0
140
0.0
141
0.0
142
1.0
143
1.0
 70
1024
 72
0
 73
0
 74
0
  7

 75
0
147
1.0
148
0.0
149
0.0
100
AcDbLayout
  1
Model
 70
0
 71
0
 10
0.0
 20
0.0
 11
22.0
 21
17.0
 12
0.0
 22
0.0
 32
0.0
 14
0.0
 24
0.0
 34
0.0
 15
0.0
 25
0.0
 35
0.0
146
0.0
 13
0.0
 23
0.0
 33
0.0
 16
1.0
 26
0.0
 36
0.0
 17
0.0
 27
1.0
 37
0.0
 76
0
330
202
345
0
346
0
  0
LAYOUT
  5
46C
102
{ACAD_REACTORS
330
1A
102
}
100
AcDbPlotSettings
  1

  2
none_device
  4
ANSI_C_(22.00_x_17.00_Inches)
  6

 40
0.0
 41
0.0
 42
0.0
 43
0.0
 44
558.8
 45
431.8
 46
0.0
 47
0.0
 48
0.0
 49
0.0
140
0.0
141
0.0
142
1.0
143
1.0
 70
0
 72
0
 73
0
 74
0
  7

 75
0
147
1.0
148
0.0
149
0.0
100
AcDbLayout
  1
Layout1
 70
0
 71
1
 10
0.0
 20
0.0
 11
22.0
 21
17.0
 12
0.0
 22
0.0
 32
0.0
 14
0.0
 24
0.0
 34
0.0
 15
0.0
 25
0.0
 35
0.0
146
0.0
 13
0.0
 23
0.0
 33
0.0
 16
1.0
 26
0.0
 36
0.0
 17
0.0
 27
1.0
 37
0.0
 76
0
330
203
345
0
346
0
  0
ENDSEC
  0
EOF
