999
DXF file: E:\BT Custom\CADOUTPUT\_FRONT.dxf
999
Pro/ENGINEER 2018400 by Parametric Technology Corporation
  0
SECTION
  2
HEADER
  9
$ACADVER
  1
AC1018
  9
$DWGCODEPAGE
  3
ANSI_1252
  9
$EXTMAX
 10
22.0
 20
17.0
 30
0.0
  9
$EXTMIN
 10
0.0
 20
0.0
 30
0.0
  9
$LIMMIN
 10
0.0
 20
0.0
  9
$LIMMAX
 10
22.0
 20
17.0
  9
$VIEWCTR
 10
11.0
 20
8.5
  9
$VIEWSIZE
 40
17.0
  9
$CLAYER
  8
0
  9
$LTSCALE
 40
1.21
  9
$CELTYPE
  6
BYLAYER
  9
$DIMSCALE
 40
1.0
  9
$DIMASZ
 40
0.1
  9
$DIMEXO
 40
0.0625
  9
$DIMDLI
 40
0.836
  9
$DIMEXE
 40
0.125
  9
$DIMCEN
 40
0.198
  9
$DIMLFAC
 40
1.0
  9
$DIMBLK
  1
_FILLED
  9
$DIMALT
 70
1
  9
$DIMALTD
 70
2
  9
$DIMALTTD
 70
2
  9
$DIMALTF
 40
25.4
  9
$DIMTXT
 40
0.08
  9
$DIMTOL
 70
1
  9
$DIMLIM
 70
0
  9
$DIMTFAC
 40
1.0
  9
$DIMTP
 40
0.001
  9
$DIMTM
 40
0.001
  9
$DIMGAP
 40
0.09
  9
$DIMDSEP
 70
46
  9
$AUNITS
 70
0
  9
$PDMODE
 70
3
  9
$PDSIZE
 40
0.06
  9
$HANDSEED
  5
245
  9
$TILEMODE
 70
1
  9
$MEASUREMENT
 70
0
  9
$INSUNITS
 70
1
  0
ENDSEC
  0
SECTION
  2
CLASSES
  0
CLASS
  1
ACDBDICTIONARYWDFLT
  2
AcDbDictionaryWithDefault
  3
AutoCAD 2000
 90
0
 91
1
280
0
281
0
  0
CLASS
  1
ACDBPLACEHOLDER
  2
AcDbPlaceHolder
  3
AutoCAD 2000
 90
0
 91
1
280
0
281
0
  0
CLASS
  1
LAYOUT
  2
AcDbLayout
  3
AutoCAD 2000
 90
0
 91
0
280
0
281
0
  0
ENDSEC
  0
SECTION
  2
TABLES
  0
TABLE
  2
VPORT
  5
8
100
AcDbSymbolTable
 70
2
  0
VPORT
  5
1F4
100
AcDbSymbolTableRecord
100
AcDbViewportTableRecord
  2
*ACTIVE
 70
0
 10
0.0
 20
0.0
 11
1.0
 21
1.0
 12
11.0
 22
8.5
 13
0.0
 23
0.0
 14
1.0
 24
1.0
 15
0.0
 25
0.0
 16
0.0
 26
0.0
 36
1.0
 17
0.0
 27
0.0
 37
0.0
 40
17.0
 41
1.2941176471
 42
50.0
 43
0.0
 44
0.0
 50
0.0
 51
0.0
 71
0
 72
100
 73
1
 74
1
 75
0
 76
0
 77
0
 78
0
  0
ENDTAB
  0
TABLE
  2
LTYPE
  5
5
100
AcDbSymbolTable
 70
6
  0
LTYPE
  5
14
100
AcDbSymbolTableRecord
100
AcDbLinetypeTableRecord
  2
BYBLOCK
 70
0
  3

 72
65
 73
0
 40
0.0
  0
LTYPE
  5
15
100
AcDbSymbolTableRecord
100
AcDbLinetypeTableRecord
  2
BYLAYER
 70
0
  3

 72
65
 73
0
 40
0.0
  0
LTYPE
  5
16
100
AcDbSymbolTableRecord
100
AcDbLinetypeTableRecord
  2
CONTINUOUS
 70
64
  3
Solid line
 72
65
 73
0
 40
0.0
  0
LTYPE
  5
1F5
100
AcDbSymbolTableRecord
100
AcDbLinetypeTableRecord
  2
CENTER
 70
64
  3
____ _ ____ _ ____ _ ____ _ ____ _ ____ _ ____
 72
65
 73
4
 40
0.6
 49
0.375
 74
0
 49
-0.075
 74
0
 49
0.075
 74
0
 49
-0.075
 74
0
  0
LTYPE
  5
1F6
100
AcDbSymbolTableRecord
100
AcDbLinetypeTableRecord
  2
HIDDEN
 70
64
  3
- - - - - - - - - - - - - - - - - - - -
 72
65
 73
2
 40
0.2
 49
0.1
 74
0
 49
-0.1
 74
0
  0
LTYPE
  5
1F7
100
AcDbSymbolTableRecord
100
AcDbLinetypeTableRecord
  2
PHANTOM
 70
64
  3
_____ _ _ _____ _ _ _____ _ _ _____
 72
65
 73
6
 40
0.8
 49
0.45
 74
0
 49
-0.05
 74
0
 49
0.1
 74
0
 49
-0.05
 74
0
 49
0.1
 74
0
 49
-0.05
 74
0
  0
LTYPE
  5
1F8
100
AcDbSymbolTableRecord
100
AcDbLinetypeTableRecord
  2
DOT
 70
64
  3
. . . . . . . . . . . . . . . . . . . .
 72
65
 73
2
 40
0.2
 49
0.1
 74
0
 49
-0.1
 74
0
  0
LTYPE
  5
1F9
100
AcDbSymbolTableRecord
100
AcDbLinetypeTableRecord
  2
DASHED
 70
64
  3
- - - - - - - - - - - - - - - - - - - -
 72
65
 73
2
 40
0.2
 49
0.1
 74
0
 49
-0.1
 74
0
  0
ENDTAB
  0
TABLE
  2
LAYER
  5
2
100
AcDbSymbolTable
 70
36
  0
LAYER
  5
10
100
AcDbSymbolTableRecord
100
AcDbLayerTableRecord
  2
0
 70
0
 62
7
  6
CONTINUOUS
370
-3
390
F
  0
LAYER
  5
1FA
100
AcDbSymbolTableRecord
100
AcDbLayerTableRecord
  2
DEFAULT_1
 70
0
 62
7
  6
CENTER
370
-3
390
F
  0
LAYER
  5
1FB
100
AcDbSymbolTableRecord
100
AcDbLayerTableRecord
  2
DEFAULT_2
 70
0
 62
8
  6
HIDDEN
370
-3
390
F
  0
LAYER
  5
1FC
100
AcDbSymbolTableRecord
100
AcDbLayerTableRecord
  2
DEFAULT_3
 70
0
 62
7
  6
PHANTOM
370
-3
390
F
  0
LAYER
  5
1FD
100
AcDbSymbolTableRecord
100
AcDbLayerTableRecord
  2
ALL_FEATURES
 70
0
 62
7
  6
CONTINUOUS
370
-3
390
F
  0
LAYER
  5
1FE
100
AcDbSymbolTableRecord
100
AcDbLayerTableRecord
  2
AXES_FEATURES
 70
0
 62
7
  6
CONTINUOUS
370
-3
390
F
  0
LAYER
  5
1FF
100
AcDbSymbolTableRecord
100
AcDbLayerTableRecord
  2
DIMENSIONS
 70
0
 62
7
  6
CONTINUOUS
370
-3
390
F
  0
ENDTAB
  0
TABLE
  2
STYLE
  5
3
100
AcDbSymbolTable
 70
1
  0
STYLE
  5
11
100
AcDbSymbolTableRecord
100
AcDbTextStyleTableRecord
  2
STANDARD
 70
0
 40
0.0
 41
0.8
 50
0.0
 71
0
 42
0.2
  3
txt
  4

  0
STYLE
  5
200
100
AcDbSymbolTableRecord
100
AcDbTextStyleTableRecord
  2
TEXTSTYLE_1
 70
0
 40
0.0
 41
0.8
 50
0.0
 71
0
 42
0.2
  3
gdt
  4

  0
ENDTAB
  0
TABLE
  2
VIEW
  5
6
100
AcDbSymbolTable
 70
0
  0
ENDTAB
  0
TABLE
  2
UCS
  5
7
100
AcDbSymbolTable
 70
0
  0
ENDTAB
  0
TABLE
  2
APPID
  5
9
100
AcDbSymbolTable
 70
1
  0
APPID
  5
201
100
AcDbSymbolTableRecord
100
AcDbRegAppTableRecord
  2
ACAD
 70
0
  0
ENDTAB
  0
TABLE
  2
BLOCK_RECORD
  5
1
100
AcDbSymbolTable
 70
0
  0
BLOCK_RECORD
  5
202
100
AcDbSymbolTableRecord
100
AcDbBlockTableRecord
  2
*Model_Space
  0
BLOCK_RECORD
  5
203
100
AcDbSymbolTableRecord
100
AcDbBlockTableRecord
  2
*Paper_Space
  0
BLOCK_RECORD
  5
204
100
AcDbSymbolTableRecord
100
AcDbBlockTableRecord
  2
_FILLED
  0
ENDTAB
  0
TABLE
  2
DIMSTYLE
  5
A
100
AcDbSymbolTable
 70
1
100
AcDbDimStyleTable
 71
0
  0
DIMSTYLE
105
205
100
AcDbSymbolTableRecord
100
AcDbDimStyleTableRecord
  2
STANDARD
 70
0
  3

  4

 40
1.0
 41
0.1
 42
0.0625
 43
0.38
 44
0.125
 45
0.0
 46
0.0
 47
0.001
 48
0.001
140
0.08
141
0.09
142
0.0
143
25.4
144
1.0
145
0.0
146
1.0
147
0.09
 71
1.0
 72
0.0
 73
1
 74
1
 75
0
 76
0
 77
0
 78
4
 79
1
170
1
171
2
172
0
173
0
174
0
175
0
176
0
177
0
178
0
270
2
179
3
271
3
272
3
273
2
274
2
275
0
280
0
281
0
282
0
283
1
284
4
285
0
286
0
287
3
288
0
340
11
278
46
341
204
342
204
343
204
344
204
  0
ENDTAB
  0
ENDSEC
  0
SECTION
  2
BLOCKS
  0
BLOCK
  5
20
100
AcDbEntity
  8
0
100
AcDbBlockBegin
  2
*Model_Space
 70
0
 10
0.0
 20
0.0
 30
0.0
  3
*Model_Space
  1

  0
ENDBLK
  5
21
100
AcDbEntity
  8
0
100
AcDbBlockEnd
  0
BLOCK
  5
1C
100
AcDbEntity
  8
0
100
AcDbBlockBegin
  2
*Paper_Space
 70
0
 10
0.0
 20
0.0
 30
0.0
  3
*Paper_Space
  1

  0
ENDBLK
  5
1D
100
AcDbEntity
  8
0
100
AcDbBlockEnd
  0
BLOCK
  5
206
100
AcDbEntity
  8
0
100
AcDbBlockBegin
  2
_FILLED
 70
64
 10
0.0
 20
0.0
  3
_FILLED
  1

  0
SOLID
  5
207
100
AcDbEntity
  8
0
  6
BYBLOCK
 62
0
100
AcDbTrace
 10
0.0
 20
0.0
 11
-1.0
 21
0.2
 12
-1.0
 22
-0.2
 13
-1.0
 23
-0.2
  0
ENDBLK
  5
208
100
AcDbEntity
  8
0
  6
BYBLOCK
 62
0
100
AcDbBlockEnd
  0
ENDSEC
  0
SECTION
  2
ENTITIES
  0
LINE
  5
209
100
AcDbEntity
  8
0
100
AcDbLine
 62
7
  6
CONTINUOUS
 10
9.7502077607
 20
7.7161695021
 11
12.1251769248
 21
7.7161695021
  0
LINE
  5
20A
100
AcDbEntity
  8
0
100
AcDbLine
 62
7
  6
CONTINUOUS
 10
9.7501923427
 20
8.0911695021
 11
9.7501923427
 21
7.7161695021
  0
LWPOLYLINE
  5
20B
100
AcDbEntity
  8
0
100
AcDbPolyline
 62
7
  6
CONTINUOUS
 90
4
 70
0
 10
10.5626923427
 20
10.3977699034
 10
10.5612703179
 20
10.3966375162
 10
10.5470131664
 20
10.3906845854
 10
10.53522188
 20
10.3891624586
  0
LINE
  5
20C
100
AcDbEntity
  8
0
100
AcDbLine
 62
7
  6
CONTINUOUS
 10
12.1251769248
 20
8.0911695021
 11
9.7502077607
 21
8.0911695021
  0
LWPOLYLINE
  5
20D
100
AcDbEntity
  8
0
100
AcDbPolyline
 62
7
  6
CONTINUOUS
 90
3
 70
0
 10
11.3519692534
 20
10.3909544212
 10
11.3517518804
 20
10.3908711525
 10
11.346551821
 20
10.3896062276
  0
LINE
  5
20E
100
AcDbEntity
  8
0
100
AcDbLine
 62
7
  6
CONTINUOUS
 10
11.3939130433
 20
10.4191695021
 11
11.3513010039
 21
10.3907614759
  0
LINE
  5
20F
100
AcDbEntity
  8
0
100
AcDbLine
 62
7
  6
CONTINUOUS
 10
10.2814423427
 20
9.1991695021
 11
10.2814423427
 21
8.0911695021
  0
LWPOLYLINE
  5
210
100
AcDbEntity
  8
0
100
AcDbPolyline
 62
7
  6
CONTINUOUS
 90
6
 70
0
 10
12.0024436466
 20
10.404208797
 10
12.0113462697
 20
10.4094293211
 10
12.0254975102
 20
10.4152017047
 10
12.0386982784
 20
10.4182264757
 10
12.048936644
 20
10.4191376215
 10
12.0512110921
 20
10.4191696683
  0
LINE
  5
211
100
AcDbEntity
  8
0
100
AcDbLine
 62
7
  6
CONTINUOUS
 10
10.5626923427
 20
10.4191695021
 11
10.5626923427
 21
10.2840337534
  0
LINE
  5
212
100
AcDbEntity
  8
0
100
AcDbLine
 62
7
  6
CONTINUOUS
 10
10.6226923427
 20
9.8191695021
 11
10.6226923427
 21
9.1991695021
  0
LINE
  5
213
100
AcDbEntity
  8
0
100
AcDbLine
 62
7
  6
CONTINUOUS
 10
10.5626923427
 20
9.8191695021
 11
10.5626923572
 21
9.9905841249
  0
LINE
  5
214
100
AcDbEntity
  8
0
100
AcDbLine
 62
7
  6
CONTINUOUS
 10
12.0024443208
 20
10.4042093752
 11
11.3221583233
 21
9.9506853733
  0
LINE
  5
215
100
AcDbEntity
  8
0
100
AcDbLine
 62
7
  6
CONTINUOUS
 10
11.322140981
 20
9.9506738208
 11
11.3221583673
 21
9.9506854027
  0
LINE
  5
216
100
AcDbEntity
  8
0
100
AcDbLine
 62
7
  6
CONTINUOUS
 10
10.7626923427
 20
10.4191695021
 11
10.7626923427
 21
10.1253060567
  0
LINE
  5
217
100
AcDbEntity
  8
0
100
AcDbLine
 62
9
  6
CONTINUOUS
 10
10.9376923937
 20
10.4087189616
 11
10.9376924194
 21
10.4202778978
  0
LINE
  5
218
100
AcDbEntity
  8
0
100
AcDbLine
 62
9
  6
CONTINUOUS
 10
10.9376923436
 20
9.9451130629
 11
10.9376923437
 21
9.8671707765
  0
LWPOLYLINE
  5
219
100
AcDbEntity
  8
0
100
AcDbPolyline
 62
7
  6
CONTINUOUS
 90
3
 70
0
 10
11.3126923427
 20
9.9419814336
 10
11.3130504908
 20
9.9425328548
 10
11.3221391253
 20
9.9506729298
  0
LINE
  5
21A
100
AcDbEntity
  8
0
100
AcDbLine
 62
7
  6
CONTINUOUS
 10
11.5939414387
 20
9.1991695021
 11
10.2814432468
 21
9.1991695021
  0
LINE
  5
21B
100
AcDbEntity
  8
0
100
AcDbLine
 62
7
  6
CONTINUOUS
 10
11.1126923427
 20
10.4191695021
 11
11.1126923427
 21
10.1253023756
  0
LWPOLYLINE
  5
21C
100
AcDbEntity
  8
0
100
AcDbPolyline
 62
7
  6
CONTINUOUS
 90
3
 70
0
 10
10.5532455821
 20
9.9506728812
 10
10.562342317
 20
9.9425230702
 10
10.5626923427
 20
9.9419901608
  0
LINE
  5
21D
100
AcDbEntity
  8
0
100
AcDbLine
 62
7
  6
CONTINUOUS
 10
11.2526923427
 20
9.8191695021
 11
11.2526923427
 21
9.1991695021
  0
LINE
  5
21E
100
AcDbEntity
  8
0
100
AcDbLine
 62
7
  6
CONTINUOUS
 10
11.3126923427
 20
10.4191695021
 11
11.3126923427
 21
10.2840204101
  0
LINE
  5
21F
100
AcDbEntity
  8
0
100
AcDbLine
 62
7
  6
CONTINUOUS
 10
11.3126923427
 20
9.9903861941
 11
11.3126923427
 21
9.8191695021
  0
LINE
  5
220
100
AcDbEntity
  8
0
100
AcDbLine
 62
7
  6
CONTINUOUS
 10
9.8729498336
 20
10.4042030591
 11
10.553226365
 21
9.9506853714
  0
LINE
  5
221
100
AcDbEntity
  8
0
100
AcDbLine
 62
7
  6
CONTINUOUS
 10
10.5626930498
 20
9.8191695021
 11
11.3126916356
 21
9.8191695021
  0
LINE
  5
222
100
AcDbEntity
  8
0
100
AcDbLine
 62
7
  6
CONTINUOUS
 10
11.5939423427
 20
9.1991695021
 11
11.5939423427
 21
8.0911695021
  0
LINE
  5
223
100
AcDbEntity
  8
0
100
AcDbLine
 62
7
  6
CONTINUOUS
 10
10.4814716422
 20
10.4191695021
 11
10.5247317821
 21
10.3903294088
  0
LINE
  5
224
100
AcDbEntity
  8
0
100
AcDbLine
 62
7
  6
CONTINUOUS
 10
11.346551821
 20
10.3896062276
 11
11.3405265888
 21
10.3891621919
  0
LINE
  5
225
100
AcDbEntity
  8
0
100
AcDbLine
 62
7
  6
CONTINUOUS
 10
10.534860939
 20
10.3891621861
 11
10.53522188
 21
10.3891624586
  0
LINE
  5
226
100
AcDbEntity
  8
0
100
AcDbLine
 62
7
  6
CONTINUOUS
 10
11.3405265888
 20
10.3891621919
 11
11.3401728377
 21
10.3891624244
  0
LWPOLYLINE
  5
227
100
AcDbEntity
  8
0
100
AcDbPolyline
 62
7
  6
CONTINUOUS
 90
6
 70
0
 10
9.8241741116
 20
10.4191697139
 10
9.826296555
 20
10.4191417756
 10
9.8365367062
 20
10.4182486994
 10
9.8497705279
 20
10.4152379345
 10
9.8639699717
 20
10.4094643972
 10
9.87294152
 20
10.4042085556
  0
LINE
  5
228
100
AcDbEntity
  8
0
100
AcDbLine
 62
7
  6
CONTINUOUS
 10
10.5348609391
 20
10.3891621861
 11
10.5287548368
 21
10.3896180447
  0
LINE
  5
229
100
AcDbEntity
  8
0
100
AcDbLine
 62
7
  6
CONTINUOUS
 10
10.5287548368
 20
10.3896180447
 11
10.5248277759
 21
10.3904733994
  0
LINE
  5
22A
100
AcDbEntity
  8
0
100
AcDbLine
 62
7
  6
CONTINUOUS
 10
12.1251923427
 20
8.0911695021
 11
12.1251923427
 21
7.7161695021
  0
LINE
  5
22B
100
AcDbEntity
  8
0
100
AcDbLine
 62
7
  6
CONTINUOUS
 10
9.7001923427
 20
10.4191695021
 11
10.8484848128
 21
10.4191695021
  0
LINE
  5
22C
100
AcDbEntity
  8
0
100
AcDbLine
 62
7
  6
CONTINUOUS
 10
11.0268850735
 20
10.4191695021
 11
12.1751923427
 21
10.4191695021
  0
LWPOLYLINE
  5
22D
100
AcDbEntity
  8
0
100
AcDbPolyline
 62
7
  6
CONTINUOUS
 90
4
 70
0
 10
11.3401728378
 20
10.3891624244
 10
11.3296521142
 20
10.3903794382
 10
11.3146079662
 20
10.396341464
 10
11.3126923427
 20
10.3978454387
  0
LINE
  5
22E
100
AcDbEntity
  8
0
100
AcDbLine
 62
7
  6
CONTINUOUS
 10
9.7001923427
 20
10.8191695021
 11
12.1751923427
 21
10.8191695021
  0
ARC
  5
22F
100
AcDbEntity
  8
0
100
AcDbCircle
 62
7
  6
CONTINUOUS
 10
9.7001923427
 20
10.6191695021
 40
0.2
100
AcDbArc
 50
90.0
 51
270.0
  0
ARC
  5
230
100
AcDbEntity
  8
0
100
AcDbCircle
 62
7
  6
CONTINUOUS
 10
12.1751923427
 20
10.6191695021
 40
0.2
100
AcDbArc
 50
270.0
 51
90.0
  0
SPLINE
  5
231
100
AcDbEntity
  8
0
100
AcDbSpline
 62
7
  6
CONTINUOUS
 70
0
 71
3
 72
17
 73
13
 74
0
 42
0.0000001
 43
0.0000001
 44
0.0000000001
 40
0.0
 40
0.0
 40
0.0
 40
0.0
 40
0.1218791123
 40
0.2465522437
 40
0.3733951013
 40
0.5016599096
 40
0.630290663
 40
0.7577519723
 40
0.8203954928
 40
0.8818975451
 40
0.9418949158
 40
1.0
 40
1.0
 40
1.0
 40
1.0
 10
11.3126924471
 20
10.2840220754
 30
0.0
 10
11.3126925772
 20
10.2720975507
 30
0.0
 10
11.3125278547
 20
10.2479752254
 30
0.0
 10
11.3120716092
 20
10.2114455643
 30
0.0
 10
11.3116239024
 20
10.1742908493
 30
0.0
 10
11.3113704372
 20
10.1367468344
 30
0.0
 10
11.3114319611
 20
10.0991412677
 30
0.0
 10
11.311763387
 20
10.0679579641
 30
0.0
 10
11.3121242291
 20
10.0433436661
 30
0.0
 10
11.3123969094
 20
10.0253293684
 30
0.0
 10
11.3126197239
 20
10.0077584473
 30
0.0
 10
11.3126918728
 20
9.9962034439
 30
0.0
 10
11.3126923881
 20
9.9905185033
 30
0.0
  0
SPLINE
  5
232
100
AcDbEntity
  8
0
100
AcDbSpline
 62
9
  6
CONTINUOUS
 70
0
 71
3
 72
11
 73
7
 74
0
 42
0.0000001
 43
0.0000001
 44
0.0000000001
 40
0.0
 40
0.0
 40
0.0
 40
0.0
 40
0.2333591681
 40
0.4779491639
 40
0.7336732834
 40
1.0
 40
1.0
 40
1.0
 40
1.0
 10
10.4960192615
 20
10.4012197756
 30
0.0
 10
10.4986873894
 20
10.3994410257
 30
0.0
 10
10.5043893917
 20
10.3961393067
 30
0.0
 10
10.5137481623
 20
10.3923019356
 30
0.0
 10
10.52401499
 20
10.3897725761
 30
0.0
 10
10.5312012327
 20
10.389168446
 30
0.0
 10
10.5348609404
 20
10.3891635434
 30
0.0
  0
SPLINE
  5
233
100
AcDbEntity
  8
0
100
AcDbSpline
 62
9
  6
CONTINUOUS
 70
0
 71
3
 72
21
 73
17
 74
0
 42
0.0000001
 43
0.0000001
 44
0.0000000001
 40
0.0
 40
0.0
 40
0.0
 40
0.0
 40
0.1739039602
 40
0.2551018558
 40
0.3328001783
 40
0.4784543654
 40
0.6121354221
 40
0.7337434128
 40
0.7895712025
 40
0.8417459273
 40
0.8898234996
 40
0.9329824848
 40
0.9524273992
 40
0.9702041734
 40
0.9861185359
 40
1.0
 40
1.0
 40
1.0
 40
1.0
 10
11.8959469474
 20
10.4191605458
 30
0.0
 10
11.9013692735
 20
10.4156095543
 30
0.0
 10
11.9097172288
 20
10.4109678865
 30
0.0
 10
11.921136782
 20
10.4061099402
 30
0.0
 10
11.9318528439
 20
10.4023462581
 30
0.0
 10
11.9447984429
 20
10.3991089901
 30
0.0
 10
11.9596585875
 20
10.3972532713
 30
0.0
 10
11.9712817206
 20
10.3971290617
 30
0.0
 10
11.9798171916
 20
10.3978053458
 30
0.0
 10
11.9855816003
 20
10.3986169336
 30
0.0
 10
11.9908192951
 20
10.3997011558
 30
0.0
 10
11.994794495
 20
10.4008213973
 30
0.0
 10
11.9976184269
 20
10.4018246422
 30
0.0
 10
11.9994500506
 20
10.4025806333
 30
0.0
 10
12.0010460925
 20
10.4033554922
 30
0.0
 10
12.0020062509
 20
10.4039174001
 30
0.0
 10
12.0024368265
 20
10.4042042535
 30
0.0
  0
SPLINE
  5
234
100
AcDbEntity
  8
0
100
AcDbSpline
 62
9
  6
CONTINUOUS
 70
0
 71
3
 72
11
 73
7
 74
0
 42
0.0000001
 43
0.0000001
 44
0.0000000001
 40
0.0
 40
0.0
 40
0.0
 40
0.0
 40
0.2058134678
 40
0.4412020544
 40
0.7065441849
 40
1.0
 40
1.0
 40
1.0
 40
1.0
 10
11.379365324
 20
10.4012197924
 30
0.0
 10
11.3773415739
 20
10.4012195041
 30
0.0
 10
11.3730016764
 20
10.4006590271
 30
0.0
 10
11.3663439506
 20
10.398605827
 30
0.0
 10
11.3592089456
 20
10.3953928133
 30
0.0
 10
11.3544318837
 20
10.3926630341
 30
0.0
 10
11.351980114
 20
10.3911414833
 30
0.0
  0
SPLINE
  5
235
100
AcDbEntity
  8
0
100
AcDbSpline
 62
9
  6
CONTINUOUS
 70
0
 71
3
 72
22
 73
18
 74
0
 42
0.0000001
 43
0.0000001
 44
0.0000000001
 40
0.0
 40
0.0
 40
0.0
 40
0.0
 40
0.0492735306
 40
0.0967382176
 40
0.1439434624
 40
0.1920270716
 40
0.2418218385
 40
0.2938477354
 40
0.3484322084
 40
0.4059261338
 40
0.5305779869
 40
0.6698477796
 40
0.707285472
 40
0.7458762143
 40
0.8265682956
 40
0.911855743
 40
1.0
 40
1.0
 40
1.0
 40
1.0
 10
10.7734026394
 20
10.419160735
 30
0.0
 10
10.775044885
 20
10.4168711076
 30
0.0
 10
10.7786954414
 20
10.4126628331
 30
0.0
 10
10.7851778884
 20
10.4075234402
 30
0.0
 10
10.7923629225
 20
10.4035775863
 30
0.0
 10
10.8001623402
 20
10.4006758994
 30
0.0
 10
10.8085253465
 20
10.3987108888
 30
0.0
 10
10.8174083224
 20
10.397566383
 30
0.0
 10
10.8267914117
 20
10.3971385672
 30
0.0
 10
10.840333683
 20
10.3974346645
 30
0.0
 10
10.8586399409
 20
10.3993352746
 30
0.0
 10
10.8756542974
 20
10.4020694303
 30
0.0
 10
10.8878138732
 20
10.4039996591
 30
0.0
 10
10.8966706081
 20
10.4053686126
 30
0.0
 10
10.9082595957
 20
10.4069796798
 30
0.0
 10
10.9227322061
 20
10.4083524495
 30
0.0
 10
10.9326518476
 20
10.4087189061
 30
0.0
 10
10.9376923427
 20
10.4087188236
 30
0.0
  0
SPLINE
  5
236
100
AcDbEntity
  8
0
100
AcDbSpline
 62
9
  6
CONTINUOUS
 70
0
 71
3
 72
11
 73
7
 74
0
 42
0.0000001
 43
0.0000001
 44
0.0000000001
 40
0.0
 40
0.0
 40
0.0
 40
0.0
 40
0.2333597504
 40
0.4779498664
 40
0.7336737906
 40
1.0
 40
1.0
 40
1.0
 40
1.0
 10
11.3793651794
 20
10.4012197756
 30
0.0
 10
11.3766972457
 20
10.3994411511
 30
0.0
 10
11.3709956804
 20
10.3961396446
 30
0.0
 10
11.3616376646
 20
10.3923024152
 30
0.0
 10
11.3513716825
 20
10.3897729793
 30
0.0
 10
11.3441860149
 20
10.3891686142
 30
0.0
 10
11.3405265874
 20
10.3891635476
 30
0.0
  0
SPLINE
  5
237
100
AcDbEntity
  8
0
100
AcDbSpline
 62
9
  6
CONTINUOUS
 70
0
 71
3
 72
22
 73
18
 74
0
 42
0.0000001
 43
0.0000001
 44
0.0000000001
 40
0.0
 40
0.0
 40
0.0
 40
0.0
 40
0.0881272151
 40
0.1733998595
 40
0.2540728811
 40
0.2926553046
 40
0.3300867381
 40
0.4693606706
 40
0.5940584179
 40
0.6515849845
 40
0.7062042854
 40
0.7582647474
 40
0.8080914072
 40
0.8561952841
 40
0.9033976693
 40
0.9508225115
 40
1.0
 40
1.0
 40
1.0
 40
1.0
 10
10.9376923427
 20
10.4087188967
 30
0.0
 10
10.9427234655
 20
10.4087190474
 30
0.0
 10
10.9526247587
 20
10.4083541101
 30
0.0
 10
10.9670705752
 20
10.4069862092
 30
0.0
 10
10.9786380834
 20
10.4053796594
 30
0.0
 10
10.9874782531
 20
10.4040138732
 30
0.0
 10
10.9996171009
 20
10.4020877093
 30
0.0
 10
11.0166053014
 20
10.3993562753
 30
0.0
 10
11.0348843034
 20
10.3974475656
 30
0.0
 10
11.048410067
 20
10.3971374195
 30
0.0
 10
11.0577838622
 20
10.3975508731
 30
0.0
 10
11.0666598916
 20
10.3986763785
 30
0.0
 10
11.0750188531
 20
10.4006164371
 30
0.0
 10
11.0828178729
 20
10.4034865281
 30
0.0
 10
11.0900066231
 20
10.4073935457
 30
0.0
 10
11.0964992675
 20
10.4124842182
 30
0.0
 10
11.1001637717
 20
10.4166573523
 30
0.0
 10
11.1018142071
 20
10.4189285132
 30
0.0
  0
SPLINE
  5
238
100
AcDbEntity
  8
0
100
AcDbSpline
 62
9
  6
CONTINUOUS
 70
0
 71
3
 72
27
 73
23
 74
0
 42
0.0000001
 43
0.0000001
 44
0.0000000001
 40
0.0
 40
0.0
 40
0.0
 40
0.0
 40
0.0317441039
 40
0.063418695
 40
0.1262478348
 40
0.1882636035
 40
0.2190057648
 40
0.249599217
 40
0.2800997974
 40
0.3105714153
 40
0.3410785767
 40
0.3716794262
 40
0.4332876711
 40
0.4956146909
 40
0.5585760074
 40
0.6219379787
 40
0.6854351827
 40
0.7488547491
 40
0.8120602951
 40
0.8749868534
 40
0.9376244463
 40
1.0
 40
1.0
 40
1.0
 40
1.0
 10
10.9376923427
 20
9.8671707765
 30
0.0
 10
10.9437471348
 20
9.8671710802
 30
0.0
 10
10.9558509687
 20
9.8676978397
 30
0.0
 10
10.9797495495
 20
9.8708375103
 30
0.0
 10
11.008750421
 20
9.8785878495
 30
0.0
 10
11.0357727464
 20
9.8912532416
 30
0.0
 10
11.0555760699
 20
9.9040051859
 30
0.0
 10
11.0694249352
 20
9.9147696313
 30
0.0
 10
11.082235856
 20
9.9266724116
 30
0.0
 10
11.0939583429
 20
9.9396252166
 30
0.0
 10
11.104559575
 20
9.9535340183
 30
0.0
 10
11.1172002551
 20
9.9732594986
 30
0.0
 10
11.1301505861
 20
9.9998706649
 30
0.0
 10
11.1411889092
 20
10.0338668195
 30
0.0
 10
11.1481604708
 20
10.0692435114
 30
0.0
 10
11.1514730247
 20
10.1053523177
 30
0.0
 10
11.1515782789
 20
10.1416870139
 30
0.0
 10
11.148834964
 20
10.1778801901
 30
0.0
 10
11.1435331481
 20
10.2136729125
 30
0.0
 10
11.1358471763
 20
10.2488765981
 30
0.0
 10
11.125858686
 20
10.2833309229
 30
0.0
 10
11.1176344265
 20
10.305738755
 30
0.0
 10
11.113117669
 20
10.3167453919
 30
0.0
  0
SPLINE
  5
239
100
AcDbEntity
  8
0
100
AcDbSpline
 62
9
  6
CONTINUOUS
 70
0
 71
3
 72
10
 73
6
 74
0
 42
0.0000001
 43
0.0000001
 44
0.0000000001
 40
0.0
 40
0.0
 40
0.0
 40
0.0
 40
0.260525573
 40
0.5157070573
 40
1.0
 40
1.0
 40
1.0
 40
1.0
 10
10.9376923427
 20
10.4202778974
 30
0.0
 10
10.945424326
 20
10.4202785648
 30
0.0
 10
10.9607299095
 20
10.4201626993
 30
0.0
 10
10.9904029589
 20
10.419622169
 30
0.0
 10
11.0123470267
 20
10.4191714817
 30
0.0
 10
11.0267200683
 20
10.4191696512
 30
0.0
  0
SPLINE
  5
23A
100
AcDbEntity
  8
0
100
AcDbSpline
 62
9
  6
CONTINUOUS
 70
0
 71
3
 72
17
 73
13
 74
0
 42
0.0000001
 43
0.0000001
 44
0.0000000001
 40
0.0
 40
0.0
 40
0.0
 40
0.0
 40
0.0581115829
 40
0.1181156956
 40
0.1796216782
 40
0.2422647225
 40
0.369728799
 40
0.4983565006
 40
0.6266176297
 40
0.7534612966
 40
0.8781254203
 40
1.0
 40
1.0
 40
1.0
 40
1.0
 10
10.5626923197
 20
9.9905828764
 30
0.0
 10
10.5626931076
 20
9.9962674151
 30
0.0
 10
10.5627656722
 20
10.007821601
 30
0.0
 10
10.5629885025
 20
10.0253909943
 30
0.0
 10
10.5632612683
 20
10.0434029998
 30
0.0
 10
10.5636222658
 20
10.0680134124
 30
0.0
 10
10.5639521887
 20
10.0991909626
 30
0.0
 10
10.5640149751
 20
10.1367892769
 30
0.0
 10
10.5637597477
 20
10.174325851
 30
0.0
 10
10.5633133752
 20
10.2114726349
 30
0.0
 10
10.5628564434
 20
10.2479943757
 30
0.0
 10
10.5626919363
 20
10.2721109767
 30
0.0
 10
10.5626921482
 20
10.2840328818
 30
0.0
  0
SPLINE
  5
23B
100
AcDbEntity
  8
0
100
AcDbSpline
 62
9
  6
CONTINUOUS
 70
0
 71
3
 72
12
 73
8
 74
0
 42
0.0000001
 43
0.0000001
 44
0.0000000001
 40
0.0
 40
0.0
 40
0.0
 40
0.0
 40
0.2944628723
 40
0.5602920903
 40
0.6818013835
 40
0.7955149191
 40
1.0
 40
1.0
 40
1.0
 40
1.0
 10
10.5246597405
 20
10.3903524952
 30
0.0
 10
10.5220953536
 20
10.3919874394
 30
0.0
 10
10.5171002035
 20
10.3949235987
 30
0.0
 10
10.5106989716
 20
10.3978957227
 30
0.0
 10
10.5058091841
 20
10.3996058184
 30
0.0
 10
10.5014211458
 20
10.4007775709
 30
0.0
 10
10.4981314015
 20
10.4012195171
 30
0.0
 10
10.4960194625
 20
10.401219725
 30
0.0
  0
SPLINE
  5
23C
100
AcDbEntity
  8
0
100
AcDbSpline
 62
9
  6
CONTINUOUS
 70
0
 71
3
 72
51
 73
47
 74
0
 42
0.0000001
 43
0.0000001
 44
0.0000000001
 40
0.0
 40
0.0
 40
0.0
 40
0.0
 40
0.0080370976
 40
0.0161685227
 40
0.0245303305
 40
0.0332442994
 40
0.0424198705
 40
0.052148267
 40
0.0624993548
 40
0.073525174
 40
0.0852612871
 40
0.097727014
 40
0.1248747327
 40
0.1549378337
 40
0.1876870382
 40
0.2228217509
 40
0.2599265984
 40
0.2790750012
 40
0.2985478808
 40
0.3382664415
 40
0.3786872145
 40
0.4194766185
 40
0.4603615773
 40
0.5011211616
 40
0.5817133077
 40
0.6212735348
 40
0.6601521409
 40
0.6981809649
 40
0.7351885111
 40
0.7710090318
 40
0.805475224
 40
0.8383047193
 40
0.8540001068
 40
0.8691582326
 40
0.8837160693
 40
0.8976120116
 40
0.9107952346
 40
0.923226485
 40
0.9348483511
 40
0.9456150128
 40
0.9555408
 40
0.9647324377
 40
0.9734134485
 40
0.9819081375
 40
0.9906234324
 40
1.0
 40
1.0
 40
1.0
 40
1.0
 10
11.3221563528
 20
9.9506842211
 30
0.0
 10
11.3232094841
 20
9.9513866898
 30
0.0
 10
11.3252381606
 20
9.9529402278
 30
0.0
 10
11.3279853628
 20
9.9556708494
 30
0.0
 10
11.3304460809
 20
9.9587984831
 30
0.0
 10
11.3326275963
 20
9.9623199927
 30
0.0
 10
11.3345461588
 20
9.9662308209
 30
0.0
 10
11.3362237868
 20
9.9705273539
 30
0.0
 10
11.3376816815
 20
9.97520829
 30
0.0
 10
11.3389398275
 20
9.9802723607
 30
0.0
 10
11.3400208154
 20
9.9857163854
 30
0.0
 10
11.3413008995
 20
9.9937039039
 30
0.0
 10
11.3425694762
 20
10.0046090163
 30
0.0
 10
11.3438045778
 20
10.0187248112
 30
0.0
 10
11.3450035213
 20
10.0341057947
 30
0.0
 10
11.34638334
 20
10.0505850115
 30
0.0
 10
11.3477711519
 20
10.0649131323
 30
0.0
 10
11.3490886415
 20
10.076767923
 30
0.0
 10
11.3505819422
 20
10.0890166759
 30
0.0
 10
11.3527208568
 20
10.1045612817
 30
0.0
 10
11.355709126
 20
10.1233741355
 30
0.0
 10
11.3590955191
 20
10.1423058229
 30
0.0
 10
11.3628031977
 20
10.1612312711
 30
0.0
 10
11.3680623832
 20
10.1862386702
 30
0.0
 10
11.3736575737
 20
10.2109595071
 30
0.0
 10
11.379310962
 20
10.2353619411
 30
0.0
 10
11.3834470157
 20
10.2532343694
 30
0.0
 10
11.3874074025
 20
10.2707346497
 30
0.0
 10
11.3910933779
 20
10.2878026073
 30
0.0
 10
11.3944040056
 20
10.3043760129
 30
0.0
 10
11.397241291
 20
10.3203695656
 30
0.0
 10
11.3991255683
 20
10.3333085464
 30
0.0
 10
11.400233401
 20
10.3432787913
 30
0.0
 10
11.4008348626
 20
10.3504071894
 30
0.0
 10
11.4011904591
 20
10.3572687158
 30
0.0
 10
11.401270091
 20
10.3638285424
 30
0.0
 10
11.4010430107
 20
10.3700506124
 30
0.0
 10
11.4004811186
 20
10.3758929615
 30
0.0
 10
11.3995483831
 20
10.3813041157
 30
0.0
 10
11.3982004001
 20
10.3862226669
 30
0.0
 10
11.396390657
 20
10.3905852365
 30
0.0
 10
11.3940596471
 20
10.394321321
 30
0.0
 10
11.3911648229
 20
10.3973462187
 30
0.0
 10
11.3877060149
 20
10.3995814301
 30
0.0
 10
11.3837047258
 20
10.4009445237
 30
0.0
 10
11.3808419775
 20
10.4012194637
 30
0.0
 10
11.3793650808
 20
10.4012196303
 30
0.0
  0
SPLINE
  5
23D
100
AcDbEntity
  8
0
100
AcDbSpline
 62
9
  6
CONTINUOUS
 70
0
 71
3
 72
10
 73
6
 74
0
 42
0.0000001
 43
0.0000001
 44
0.0000000001
 40
0.0
 40
0.0
 40
0.0
 40
0.0
 40
0.4842801082
 40
0.739466245
 40
1.0
 40
1.0
 40
1.0
 40
1.0
 10
10.8486281263
 20
10.4191695952
 30
0.0
 10
10.8630066775
 20
10.4191709507
 30
0.0
 10
10.884959508
 20
10.4196214814
 30
0.0
 10
10.9146447087
 20
10.4201628057
 30
0.0
 10
10.9299569477
 20
10.4202784269
 30
0.0
 10
10.9376923427
 20
10.4202778973
 30
0.0
  0
SPLINE
  5
23E
100
AcDbEntity
  8
0
100
AcDbSpline
 62
9
  6
CONTINUOUS
 70
0
 71
3
 72
23
 73
19
 74
0
 42
0.0000001
 43
0.0000001
 44
0.0000000001
 40
0.0
 40
0.0
 40
0.0
 40
0.0
 40
0.0645627167
 40
0.1288544221
 40
0.19250961
 40
0.255330974
 40
0.3172407729
 40
0.3782883065
 40
0.4386529483
 40
0.4986336415
 40
0.5586232708
 40
0.6190399187
 40
0.6802098292
 40
0.742364759
 40
0.8055569366
 40
0.8696759756
 40
0.9345687337
 40
1.0
 40
1.0
 40
1.0
 40
1.0
 10
10.9376923427
 20
9.9451129238
 30
0.0
 10
10.9315775483
 20
9.9451131792
 30
0.0
 10
10.9193673834
 20
9.945629328
 30
0.0
 10
10.901260438
 20
9.9479434207
 30
0.0
 10
10.8835841661
 20
9.9518011151
 30
0.0
 10
10.8665495973
 20
9.957196874
 30
0.0
 10
10.8503443325
 20
9.9641267344
 30
0.0
 10
10.8351424822
 20
9.9725833877
 30
0.0
 10
10.8211116365
 20
9.9825612652
 30
0.0
 10
10.8084051375
 20
9.9940337489
 30
0.0
 10
10.7971530527
 20
10.0069451273
 30
0.0
 10
10.7874779455
 20
10.0212113483
 30
0.0
 10
10.7794168332
 20
10.0366762361
 30
0.0
 10
10.7730217878
 20
10.0531784505
 30
0.0
 10
10.7682185241
 20
10.0704955462
 30
0.0
 10
10.7649408813
 20
10.0884241855
 30
0.0
 10
10.7630765908
 20
10.1067619633
 30
0.0
 10
10.7626918662
 20
10.1191095844
 30
0.0
 10
10.7626925471
 20
10.12530664
 30
0.0
  0
SPLINE
  5
23F
100
AcDbEntity
  8
0
100
AcDbSpline
 62
9
  6
CONTINUOUS
 70
0
 71
3
 72
31
 73
27
 74
0
 42
0.0000001
 43
0.0000001
 44
0.0000000001
 40
0.0
 40
0.0
 40
0.0
 40
0.0
 40
0.0623639237
 40
0.1249894733
 40
0.1879042859
 40
0.2510974493
 40
0.3145042915
 40
0.3779891628
 40
0.441338208
 40
0.5042871422
 40
0.5355498822
 40
0.5666340494
 40
0.59753697
 40
0.6282716716
 40
0.6588664165
 40
0.6893674108
 40
0.7198329582
 40
0.750327766
 40
0.780915155
 40
0.8116513888
 40
0.8425780033
 40
0.8737161325
 40
0.9050638294
 40
0.9365938067
 40
0.96826214
 40
1.0
 40
1.0
 40
1.0
 40
1.0
 10
10.7622547239
 20
10.3167163951
 30
0.0
 10
10.7577383392
 20
10.3057101723
 30
0.0
 10
10.7495148071
 20
10.2833033055
 30
0.0
 10
10.7395273847
 20
10.2488502228
 30
0.0
 10
10.7318489151
 20
10.2136468738
 30
0.0
 10
10.7265426031
 20
10.1778566437
 30
0.0
 10
10.7238075473
 20
10.1416649021
 30
0.0
 10
10.7239119487
 20
10.1053318209
 30
0.0
 10
10.7272267065
 20
10.0692274633
 30
0.0
 10
10.7330524264
 20
10.0396698891
 30
0.0
 10
10.7397607231
 20
10.0167142875
 30
0.0
 10
10.7458524533
 20
9.9999863827
 30
0.0
 10
10.7530498511
 20
9.983812599
 30
0.0
 10
10.7613686753
 20
9.9682897036
 30
0.0
 10
10.77083009
 20
9.9535243428
 30
0.0
 10
10.7814325344
 20
9.9396184594
 30
0.0
 10
10.7931556398
 20
9.926667467
 30
0.0
 10
10.8059654972
 20
9.9147646498
 30
0.0
 10
10.8198130483
 20
9.9040013918
 30
0.0
 10
10.8346299425
 20
9.8944636349
 30
0.0
 10
10.8503277253
 20
9.8862292231
 30
0.0
 10
10.866801295
 20
9.879373526
 30
0.0
 10
10.8839258193
 20
9.8739657719
 30
0.0
 10
10.9015577436
 20
9.8700597049
 30
0.0
 10
10.9195355934
 20
9.8676975999
 30
0.0
 10
10.9316378798
 20
9.8671710595
 30
0.0
 10
10.9376923427
 20
9.8671707765
 30
0.0
  0
SPLINE
  5
240
100
AcDbEntity
  8
0
100
AcDbSpline
 62
9
  6
CONTINUOUS
 70
0
 71
3
 72
23
 73
19
 74
0
 42
0.0000001
 43
0.0000001
 44
0.0000000001
 40
0.0
 40
0.0
 40
0.0
 40
0.0
 40
0.0654134697
 40
0.1303019
 40
0.1944247303
 40
0.2576231119
 40
0.3197825172
 40
0.3809532338
 40
0.4413695686
 40
0.5013612252
 40
0.5613467059
 40
0.6217179454
 40
0.6827719595
 40
0.7446851402
 40
0.8075057776
 40
0.8711580442
 40
0.9354452695
 40
1.0
 40
1.0
 40
1.0
 40
1.0
 10
11.1126917996
 20
10.125301755
 30
0.0
 10
11.1126923898
 20
10.1191065241
 30
0.0
 10
11.1123074004
 20
10.1067612821
 30
0.0
 10
11.1104425965
 20
10.0884257154
 30
0.0
 10
11.1071642533
 20
10.0704970829
 30
0.0
 10
11.1023605437
 20
10.0531791185
 30
0.0
 10
11.0959652849
 20
10.0366762511
 30
0.0
 10
11.0879043527
 20
10.0212111878
 30
0.0
 10
11.0782295626
 20
10.0069449246
 30
0.0
 10
11.0669774461
 20
9.9940332739
 30
0.0
 10
11.0542705597
 20
9.9825598855
 30
0.0
 10
11.0402385487
 20
9.972581353
 30
0.0
 10
11.0250355035
 20
9.9641244357
 30
0.0
 10
11.0088296453
 20
9.9571947574
 30
0.0
 10
10.991795316
 20
9.9517996424
 30
0.0
 10
10.9741200725
 20
9.9479427742
 30
0.0
 10
10.9560149476
 20
9.9456292533
 30
0.0
 10
10.9438062434
 20
9.9451131806
 30
0.0
 10
10.9376923427
 20
9.9451129085
 30
0.0
  0
SPLINE
  5
241
100
AcDbEntity
  8
0
100
AcDbSpline
 62
9
  6
CONTINUOUS
 70
0
 71
3
 72
51
 73
47
 74
0
 42
0.0000001
 43
0.0000001
 44
0.0000000001
 40
0.0
 40
0.0
 40
0.0
 40
0.0
 40
0.0093769583
 40
0.018092598
 40
0.0265874905
 40
0.0352683649
 40
0.0444592974
 40
0.0543837236
 40
0.0651483556
 40
0.0767674852
 40
0.0891952342
 40
0.1023742413
 40
0.1162655095
 40
0.1308185074
 40
0.1459719339
 40
0.1616629909
 40
0.1944845481
 40
0.2289427756
 40
0.2647548884
 40
0.3017543489
 40
0.3397762725
 40
0.3786500228
 40
0.4182081229
 40
0.4988040966
 40
0.5395693288
 40
0.5804622122
 40
0.6212616827
 40
0.6616945049
 40
0.7014256369
 40
0.720904142
 40
0.7400572861
 40
0.7771687782
 40
0.8123067615
 40
0.8450566982
 40
0.875119657
 40
0.902267811
 40
0.9147340659
 40
0.9264709105
 40
0.9374976546
 40
0.9478497673
 40
0.9575791452
 40
0.966755509
 40
0.9754699441
 40
0.9838318662
 40
0.9919631635
 40
1.0
 40
1.0
 40
1.0
 40
1.0
 10
10.4960195574
 20
10.4012196618
 30
0.0
 10
10.4945425996
 20
10.4012194811
 30
0.0
 10
10.4916797372
 20
10.4009444643
 30
0.0
 10
10.4876783514
 20
10.3995811994
 30
0.0
 10
10.4842195336
 20
10.3973458964
 30
0.0
 10
10.4813247727
 20
10.3943210868
 30
0.0
 10
10.4789939017
 20
10.3905853289
 30
0.0
 10
10.4771843609
 20
10.3862233773
 30
0.0
 10
10.4758365706
 20
10.3813057785
 30
0.0
 10
10.4749039437
 20
10.3758959321
 30
0.0
 10
10.4743419886
 20
10.3700552485
 30
0.0
 10
10.4741146432
 20
10.3638351451
 30
0.0
 10
10.4741938729
 20
10.3572774786
 30
0.0
 10
10.47454897
 20
10.35041817
 30
0.0
 10
10.4751498806
 20
10.3432919196
 30
0.0
 10
10.4762569563
 20
10.3333242824
 30
0.0
 10
10.4781402391
 20
10.3203883808
 30
0.0
 10
10.4809762914
 20
10.3043985023
 30
0.0
 10
10.4842857255
 20
10.2878287909
 30
0.0
 10
10.4879705882
 20
10.2707643674
 30
0.0
 10
10.4919300282
 20
10.2532670822
 30
0.0
 10
10.4960653807
 20
10.2353967413
 30
0.0
 10
10.5017184192
 20
10.2109947434
 30
0.0
 10
10.5073137945
 20
10.1862727712
 30
0.0
 10
10.5125739272
 20
10.1612627797
 30
0.0
 10
10.5162829633
 20
10.1423338103
 30
0.0
 10
10.51967101
 20
10.1233976171
 30
0.0
 10
10.5226607696
 20
10.1045794713
 30
0.0
 10
10.5248006592
 20
10.0890301936
 30
0.0
 10
10.5262945938
 20
10.0767778816
 30
0.0
 10
10.5276125274
 20
10.0649204475
 30
0.0
 10
10.5290006653
 20
10.0505900423
 30
0.0
 10
10.5303806736
 20
10.034109163
 30
0.0
 10
10.5315797048
 20
10.0187275807
 30
0.0
 10
10.5328148346
 20
10.0046116304
 30
0.0
 10
10.5340834087
 20
9.9937063908
 30
0.0
 10
10.5353635138
 20
9.9857186076
 30
0.0
 10
10.5364445512
 20
9.9802742435
 30
0.0
 10
10.537702779
 20
9.9752097594
 30
0.0
 10
10.5391607741
 20
9.9705283728
 30
0.0
 10
10.5408384981
 20
9.9662314058
 30
0.0
 10
10.5427571285
 20
9.9623202196
 30
0.0
 10
10.5449386733
 20
9.958798474
 30
0.0
 10
10.5473993885
 20
9.9556707463
 30
0.0
 10
10.5501465484
 20
9.9529401429
 30
0.0
 10
10.5521751831
 20
9.9513866514
 30
0.0
 10
10.5532282836
 20
9.9506842115
 30
0.0
  0
SPLINE
  5
242
100
AcDbEntity
  8
0
100
AcDbSpline
 62
9
  6
CONTINUOUS
 70
0
 71
3
 72
21
 73
17
 74
0
 42
0.0000001
 43
0.0000001
 44
0.0000000001
 40
0.0
 40
0.0
 40
0.0
 40
0.0
 40
0.0138791909
 40
0.0297903386
 40
0.0475636115
 40
0.0670054103
 40
0.110161169
 40
0.1582385022
 40
0.2104140079
 40
0.2662428017
 40
0.3878521366
 40
0.5215319619
 40
0.6671846287
 40
0.7448833342
 40
0.8260831872
 40
1.0
 40
1.0
 40
1.0
 40
1.0
 10
9.872948061
 20
10.4042042083
 30
0.0
 10
9.8733785696
 20
10.4039173893
 30
0.0
 10
9.8743385512
 20
10.403355544
 30
0.0
 10
9.8759342988
 20
10.4025807684
 30
0.0
 10
9.8777656009
 20
10.4018248594
 30
0.0
 10
9.8805892239
 20
10.4008216699
 30
0.0
 10
9.8845642471
 20
10.3997014176
 30
0.0
 10
9.8898019218
 20
10.3986170908
 30
0.0
 10
9.8955664861
 20
10.3978053912
 30
0.0
 10
9.9041022293
 20
10.3971289952
 30
0.0
 10
9.9157256295
 20
10.3972531217
 30
0.0
 10
9.9305860093
 20
10.3991088764
 30
0.0
 10
9.9435317518
 20
10.4023462396
 30
0.0
 10
9.954248073
 20
10.4061099176
 30
0.0
 10
9.9656684499
 20
10.4109679875
 30
0.0
 10
9.9740169403
 20
10.4156102577
 30
0.0
 10
9.9794396631
 20
10.4191617435
 30
0.0
  0
ENDSEC
  0
SECTION
  2
OBJECTS
  0
DICTIONARY
  5
C
100
AcDbDictionary
280
0
281
1
  3
ACAD_GROUP
350
D
  3
ACAD_MLINESTYLE
350
17
  3
ACAD_LAYOUT
350
1A
  3
ACAD_PLOTSETTINGS
350
19
  3
ACAD_PLOTSTYLENAME
350
E
  0
DICTIONARY
  5
D
102
{ACAD_REACTORS
330
C
102
}
100
AcDbDictionary
280
0
281
1
  0
ACDBDICTIONARYWDFLT
  5
E
102
{ACAD_REACTORS
330
C
102
}
100
AcDbDictionary
281
1
  3
Normal
350
F
100
AcDbDictionaryWithDefault
340
F
  0
DICTIONARY
  5
17
102
{ACAD_REACTORS
330
C
102
}
100
AcDbDictionary
280
0
281
1
  3
Standard
350
18
  0
DICTIONARY
  5
19
102
{ACAD_REACTORS
330
C
102
}
100
AcDbDictionary
281
1
  0
DICTIONARY
  5
1A
102
{ACAD_REACTORS
330
C
102
}
100
AcDbDictionary
281
1
  3
Model
350
243
  3
Layout1
350
244
  0
ACDBPLACEHOLDER
  5
F
102
{ACAD_REACTORS
330
E
102
}
  0
MLINESTYLE
  5
18
102
{ACAD_REACTORS
330
17
102
}
100
AcDbMlineStyle
  2
STANDARD
 70
0
  3

 62
256
 51
90.0
 52
90.0
 71
2
 49
0.5
 62
256
  6
BYLAYER
 49
-0.5
 62
256
  6
BYLAYER
  0
LAYOUT
  5
243
102
{ACAD_REACTORS
330
1A
102
}
100
AcDbPlotSettings
  1

  2
none_device
  4
ANSI_C_(22.00_x_17.00_Inches)
  6

 40
0.0
 41
0.0
 42
0.0
 43
0.0
 44
558.8
 45
431.8
 46
0.0
 47
0.0
 48
0.0
 49
0.0
140
0.0
141
0.0
142
1.0
143
1.0
 70
1024
 72
0
 73
0
 74
0
  7

 75
0
147
1.0
148
0.0
149
0.0
100
AcDbLayout
  1
Model
 70
0
 71
0
 10
0.0
 20
0.0
 11
22.0
 21
17.0
 12
0.0
 22
0.0
 32
0.0
 14
0.0
 24
0.0
 34
0.0
 15
0.0
 25
0.0
 35
0.0
146
0.0
 13
0.0
 23
0.0
 33
0.0
 16
1.0
 26
0.0
 36
0.0
 17
0.0
 27
1.0
 37
0.0
 76
0
330
202
345
0
346
0
  0
LAYOUT
  5
244
102
{ACAD_REACTORS
330
1A
102
}
100
AcDbPlotSettings
  1

  2
none_device
  4
ANSI_C_(22.00_x_17.00_Inches)
  6

 40
0.0
 41
0.0
 42
0.0
 43
0.0
 44
558.8
 45
431.8
 46
0.0
 47
0.0
 48
0.0
 49
0.0
140
0.0
141
0.0
142
1.0
143
1.0
 70
0
 72
0
 73
0
 74
0
  7

 75
0
147
1.0
148
0.0
149
0.0
100
AcDbLayout
  1
Layout1
 70
0
 71
1
 10
0.0
 20
0.0
 11
22.0
 21
17.0
 12
0.0
 22
0.0
 32
0.0
 14
0.0
 24
0.0
 34
0.0
 15
0.0
 25
0.0
 35
0.0
146
0.0
 13
0.0
 23
0.0
 33
0.0
 16
1.0
 26
0.0
 36
0.0
 17
0.0
 27
1.0
 37
0.0
 76
0
330
203
345
0
346
0
  0
ENDSEC
  0
EOF
