999
DXF file: E:\BT Custom\CADOUTPUT\_TOP.dxf
999
Pro/ENGINEER 2018400 by Parametric Technology Corporation
  0
SECTION
  2
HEADER
  9
$ACADVER
  1
AC1018
  9
$DWGCODEPAGE
  3
ANSI_1252
  9
$EXTMAX
 10
22.0
 20
17.0
 30
0.0
  9
$EXTMIN
 10
0.0
 20
0.0
 30
0.0
  9
$LIMMIN
 10
0.0
 20
0.0
  9
$LIMMAX
 10
22.0
 20
17.0
  9
$VIEWCTR
 10
11.0
 20
8.5
  9
$VIEWSIZE
 40
17.0
  9
$CLAYER
  8
0
  9
$LTSCALE
 40
1.21
  9
$CELTYPE
  6
BYLAYER
  9
$DIMSCALE
 40
1.0
  9
$DIMASZ
 40
0.1
  9
$DIMEXO
 40
0.0625
  9
$DIMDLI
 40
0.836
  9
$DIMEXE
 40
0.125
  9
$DIMCEN
 40
0.198
  9
$DIMLFAC
 40
1.0
  9
$DIMBLK
  1
_FILLED
  9
$DIMALT
 70
1
  9
$DIMALTD
 70
2
  9
$DIMALTTD
 70
2
  9
$DIMALTF
 40
25.4
  9
$DIMTXT
 40
0.08
  9
$DIMTOL
 70
1
  9
$DIMLIM
 70
0
  9
$DIMTFAC
 40
1.0
  9
$DIMTP
 40
0.001
  9
$DIMTM
 40
0.001
  9
$DIMGAP
 40
0.09
  9
$DIMDSEP
 70
46
  9
$AUNITS
 70
0
  9
$PDMODE
 70
3
  9
$PDSIZE
 40
0.06
  9
$HANDSEED
  5
260
  9
$TILEMODE
 70
1
  9
$MEASUREMENT
 70
0
  9
$INSUNITS
 70
1
  0
ENDSEC
  0
SECTION
  2
CLASSES
  0
CLASS
  1
ACDBDICTIONARYWDFLT
  2
AcDbDictionaryWithDefault
  3
AutoCAD 2000
 90
0
 91
1
280
0
281
0
  0
CLASS
  1
ACDBPLACEHOLDER
  2
AcDbPlaceHolder
  3
AutoCAD 2000
 90
0
 91
1
280
0
281
0
  0
CLASS
  1
LAYOUT
  2
AcDbLayout
  3
AutoCAD 2000
 90
0
 91
0
280
0
281
0
  0
ENDSEC
  0
SECTION
  2
TABLES
  0
TABLE
  2
VPORT
  5
8
100
AcDbSymbolTable
 70
2
  0
VPORT
  5
1F4
100
AcDbSymbolTableRecord
100
AcDbViewportTableRecord
  2
*ACTIVE
 70
0
 10
0.0
 20
0.0
 11
1.0
 21
1.0
 12
11.0
 22
8.5
 13
0.0
 23
0.0
 14
1.0
 24
1.0
 15
0.0
 25
0.0
 16
0.0
 26
0.0
 36
1.0
 17
0.0
 27
0.0
 37
0.0
 40
17.0
 41
1.2941176471
 42
50.0
 43
0.0
 44
0.0
 50
0.0
 51
0.0
 71
0
 72
100
 73
1
 74
1
 75
0
 76
0
 77
0
 78
0
  0
ENDTAB
  0
TABLE
  2
LTYPE
  5
5
100
AcDbSymbolTable
 70
6
  0
LTYPE
  5
14
100
AcDbSymbolTableRecord
100
AcDbLinetypeTableRecord
  2
BYBLOCK
 70
0
  3

 72
65
 73
0
 40
0.0
  0
LTYPE
  5
15
100
AcDbSymbolTableRecord
100
AcDbLinetypeTableRecord
  2
BYLAYER
 70
0
  3

 72
65
 73
0
 40
0.0
  0
LTYPE
  5
16
100
AcDbSymbolTableRecord
100
AcDbLinetypeTableRecord
  2
CONTINUOUS
 70
64
  3
Solid line
 72
65
 73
0
 40
0.0
  0
LTYPE
  5
1F5
100
AcDbSymbolTableRecord
100
AcDbLinetypeTableRecord
  2
CENTER
 70
64
  3
____ _ ____ _ ____ _ ____ _ ____ _ ____ _ ____
 72
65
 73
4
 40
0.6
 49
0.375
 74
0
 49
-0.075
 74
0
 49
0.075
 74
0
 49
-0.075
 74
0
  0
LTYPE
  5
1F6
100
AcDbSymbolTableRecord
100
AcDbLinetypeTableRecord
  2
HIDDEN
 70
64
  3
- - - - - - - - - - - - - - - - - - - -
 72
65
 73
2
 40
0.2
 49
0.1
 74
0
 49
-0.1
 74
0
  0
LTYPE
  5
1F7
100
AcDbSymbolTableRecord
100
AcDbLinetypeTableRecord
  2
PHANTOM
 70
64
  3
_____ _ _ _____ _ _ _____ _ _ _____
 72
65
 73
6
 40
0.8
 49
0.45
 74
0
 49
-0.05
 74
0
 49
0.1
 74
0
 49
-0.05
 74
0
 49
0.1
 74
0
 49
-0.05
 74
0
  0
LTYPE
  5
1F8
100
AcDbSymbolTableRecord
100
AcDbLinetypeTableRecord
  2
DOT
 70
64
  3
. . . . . . . . . . . . . . . . . . . .
 72
65
 73
2
 40
0.2
 49
0.1
 74
0
 49
-0.1
 74
0
  0
LTYPE
  5
1F9
100
AcDbSymbolTableRecord
100
AcDbLinetypeTableRecord
  2
DASHED
 70
64
  3
- - - - - - - - - - - - - - - - - - - -
 72
65
 73
2
 40
0.2
 49
0.1
 74
0
 49
-0.1
 74
0
  0
ENDTAB
  0
TABLE
  2
LAYER
  5
2
100
AcDbSymbolTable
 70
36
  0
LAYER
  5
10
100
AcDbSymbolTableRecord
100
AcDbLayerTableRecord
  2
0
 70
0
 62
7
  6
CONTINUOUS
370
-3
390
F
  0
LAYER
  5
1FA
100
AcDbSymbolTableRecord
100
AcDbLayerTableRecord
  2
DEFAULT_1
 70
0
 62
7
  6
CENTER
370
-3
390
F
  0
LAYER
  5
1FB
100
AcDbSymbolTableRecord
100
AcDbLayerTableRecord
  2
DEFAULT_2
 70
0
 62
8
  6
HIDDEN
370
-3
390
F
  0
LAYER
  5
1FC
100
AcDbSymbolTableRecord
100
AcDbLayerTableRecord
  2
DEFAULT_3
 70
0
 62
7
  6
PHANTOM
370
-3
390
F
  0
LAYER
  5
1FD
100
AcDbSymbolTableRecord
100
AcDbLayerTableRecord
  2
ALL_FEATURES
 70
0
 62
7
  6
CONTINUOUS
370
-3
390
F
  0
LAYER
  5
1FE
100
AcDbSymbolTableRecord
100
AcDbLayerTableRecord
  2
AXES_FEATURES
 70
0
 62
7
  6
CONTINUOUS
370
-3
390
F
  0
LAYER
  5
1FF
100
AcDbSymbolTableRecord
100
AcDbLayerTableRecord
  2
DIMENSIONS
 70
0
 62
7
  6
CONTINUOUS
370
-3
390
F
  0
ENDTAB
  0
TABLE
  2
STYLE
  5
3
100
AcDbSymbolTable
 70
1
  0
STYLE
  5
11
100
AcDbSymbolTableRecord
100
AcDbTextStyleTableRecord
  2
STANDARD
 70
0
 40
0.0
 41
0.8
 50
0.0
 71
0
 42
0.2
  3
txt
  4

  0
STYLE
  5
200
100
AcDbSymbolTableRecord
100
AcDbTextStyleTableRecord
  2
TEXTSTYLE_1
 70
0
 40
0.0
 41
0.8
 50
0.0
 71
0
 42
0.2
  3
gdt
  4

  0
ENDTAB
  0
TABLE
  2
VIEW
  5
6
100
AcDbSymbolTable
 70
0
  0
ENDTAB
  0
TABLE
  2
UCS
  5
7
100
AcDbSymbolTable
 70
0
  0
ENDTAB
  0
TABLE
  2
APPID
  5
9
100
AcDbSymbolTable
 70
1
  0
APPID
  5
201
100
AcDbSymbolTableRecord
100
AcDbRegAppTableRecord
  2
ACAD
 70
0
  0
ENDTAB
  0
TABLE
  2
BLOCK_RECORD
  5
1
100
AcDbSymbolTable
 70
0
  0
BLOCK_RECORD
  5
202
100
AcDbSymbolTableRecord
100
AcDbBlockTableRecord
  2
*Model_Space
  0
BLOCK_RECORD
  5
203
100
AcDbSymbolTableRecord
100
AcDbBlockTableRecord
  2
*Paper_Space
  0
BLOCK_RECORD
  5
204
100
AcDbSymbolTableRecord
100
AcDbBlockTableRecord
  2
_FILLED
  0
ENDTAB
  0
TABLE
  2
DIMSTYLE
  5
A
100
AcDbSymbolTable
 70
1
100
AcDbDimStyleTable
 71
0
  0
DIMSTYLE
105
205
100
AcDbSymbolTableRecord
100
AcDbDimStyleTableRecord
  2
STANDARD
 70
0
  3

  4

 40
1.0
 41
0.1
 42
0.0625
 43
0.38
 44
0.125
 45
0.0
 46
0.0
 47
0.001
 48
0.001
140
0.08
141
0.09
142
0.0
143
25.4
144
1.0
145
0.0
146
1.0
147
0.09
 71
1.0
 72
0.0
 73
1
 74
1
 75
0
 76
0
 77
0
 78
4
 79
1
170
1
171
2
172
0
173
0
174
0
175
0
176
0
177
0
178
0
270
2
179
3
271
3
272
3
273
2
274
2
275
0
280
0
281
0
282
0
283
1
284
4
285
0
286
0
287
3
288
0
340
11
278
46
341
204
342
204
343
204
344
204
  0
ENDTAB
  0
ENDSEC
  0
SECTION
  2
BLOCKS
  0
BLOCK
  5
20
100
AcDbEntity
  8
0
100
AcDbBlockBegin
  2
*Model_Space
 70
0
 10
0.0
 20
0.0
 30
0.0
  3
*Model_Space
  1

  0
ENDBLK
  5
21
100
AcDbEntity
  8
0
100
AcDbBlockEnd
  0
BLOCK
  5
1C
100
AcDbEntity
  8
0
100
AcDbBlockBegin
  2
*Paper_Space
 70
0
 10
0.0
 20
0.0
 30
0.0
  3
*Paper_Space
  1

  0
ENDBLK
  5
1D
100
AcDbEntity
  8
0
100
AcDbBlockEnd
  0
BLOCK
  5
206
100
AcDbEntity
  8
0
100
AcDbBlockBegin
  2
_FILLED
 70
64
 10
0.0
 20
0.0
  3
_FILLED
  1

  0
SOLID
  5
207
100
AcDbEntity
  8
0
  6
BYBLOCK
 62
0
100
AcDbTrace
 10
0.0
 20
0.0
 11
-1.0
 21
0.2
 12
-1.0
 22
-0.2
 13
-1.0
 23
-0.2
  0
ENDBLK
  5
208
100
AcDbEntity
  8
0
  6
BYBLOCK
 62
0
100
AcDbBlockEnd
  0
ENDSEC
  0
SECTION
  2
ENTITIES
  0
LINE
  5
209
100
AcDbEntity
  8
0
100
AcDbLine
 62
7
  6
CONTINUOUS
 10
10.0550796273
 20
7.7854301784
 11
10.0550193143
 21
7.7852330664
  0
LINE
  5
20A
100
AcDbEntity
  8
0
100
AcDbLine
 62
7
  6
CONTINUOUS
 10
10.054958625
 20
7.7848938957
 11
10.0562312087
 21
7.7873882716
  0
LINE
  5
20B
100
AcDbEntity
  8
0
100
AcDbLine
 62
7
  6
CONTINUOUS
 10
10.2874958555
 20
8.1879478797
 11
10.2881453484
 21
8.1890478001
  0
LINE
  5
20C
100
AcDbEntity
  8
0
100
AcDbLine
 62
7
  6
CONTINUOUS
 10
10.2881453484
 20
8.1890478001
 11
10.2891066944
 21
8.1904592116
  0
LINE
  5
20D
100
AcDbEntity
  8
0
100
AcDbLine
 62
7
  6
CONTINUOUS
 10
10.0562312087
 20
7.7873882716
 11
10.0629807767
 21
7.7961736057
  0
LINE
  5
20E
100
AcDbEntity
  8
0
100
AcDbLine
 62
7
  6
CONTINUOUS
 10
10.2887081396
 20
8.1900866318
 11
10.2888484589
 21
8.1902371745
  0
LINE
  5
20F
100
AcDbEntity
  8
0
100
AcDbLine
 62
7
  6
CONTINUOUS
 10
11.2811504993
 20
6.4715257367
 11
11.2809468506
 21
6.4714787711
  0
LINE
  5
210
100
AcDbEntity
  8
0
100
AcDbLine
 62
7
  6
CONTINUOUS
 10
11.281473013
 20
6.4716425032
 11
11.2786546722
 21
6.4714971304
  0
LINE
  5
211
100
AcDbEntity
  8
0
100
AcDbLine
 62
7
  6
CONTINUOUS
 10
10.8161467782
 20
6.4714982632
 11
10.8148689934
 21
6.4715107648
  0
LINE
  5
212
100
AcDbEntity
  8
0
100
AcDbLine
 62
7
  6
CONTINUOUS
 10
10.8148689934
 20
6.4715107648
 11
10.8131835916
 21
6.4716363019
  0
LWPOLYLINE
  5
213
100
AcDbEntity
  8
0
100
AcDbPolyline
 62
7
  6
CONTINUOUS
 90
8
 70
0
 10
11.2786546722
 20
6.4714971304
 10
11.2676223564
 20
6.472967116
 10
11.252266492
 20
6.4791905773
 10
11.2381769243
 20
6.4901289615
 10
11.2285603828
 20
6.5029503911
 10
11.2236865192
 20
6.5145018765
 10
11.222367906
 20
6.5213652154
 10
11.2223179586
 20
6.5224380332
  0
LINE
  5
214
100
AcDbEntity
  8
0
100
AcDbLine
 62
7
  6
CONTINUOUS
 10
10.8136898259
 20
6.4714787711
 11
10.8134893865
 21
6.4715249982
  0
LWPOLYLINE
  5
215
100
AcDbEntity
  8
0
100
AcDbPolyline
 62
7
  6
CONTINUOUS
 90
7
 70
0
 10
10.0629807767
 20
7.7961736057
 10
10.0759882562
 20
7.8063478478
 10
10.092498853
 20
7.8131152816
 10
10.108460415
 20
7.8150630116
 10
10.1209523321
 20
7.8135118404
 10
10.1275871476
 20
7.8112106847
 10
10.1285335807
 20
7.8107209458
  0
LWPOLYLINE
  5
216
100
AcDbEntity
  8
0
100
AcDbPolyline
 62
7
  6
CONTINUOUS
 90
5
 70
0
 10
10.8873129382
 20
7.8214839498
 10
10.865538616
 20
7.8144292623
 10
10.842555718
 20
7.813104477
 10
10.8199460278
 20
7.8176678008
 10
10.8039078656
 20
7.8249386179
  0
LWPOLYLINE
  5
217
100
AcDbEntity
  8
0
100
AcDbPolyline
 62
7
  6
CONTINUOUS
 90
5
 70
0
 10
10.8336071598
 20
7.1741853549
 10
10.8505391802
 20
7.1589308976
 10
10.8632218204
 20
7.1396568322
 10
10.8705921299
 20
7.1177678815
 10
10.8723174457
 20
7.1002313829
  0
LINE
  5
218
100
AcDbEntity
  8
0
100
AcDbLine
 62
7
  6
CONTINUOUS
 10
10.8723183383
 20
6.5224299342
 11
10.8723183383
 21
7.1002284399
  0
LWPOLYLINE
  5
219
100
AcDbEntity
  8
0
100
AcDbPolyline
 62
7
  6
CONTINUOUS
 90
8
 70
0
 10
10.8723191462
 20
6.5224510608
 10
10.8722716048
 20
6.5214077768
 10
10.8709700026
 20
6.514570223
 10
10.8661218164
 20
6.5030318709
 10
10.8565227808
 20
6.4901935551
 10
10.842472767
 20
6.4792497163
 10
10.8272082483
 20
6.4730151862
 10
10.8161467782
 20
6.4714982632
  0
LINE
  5
21A
100
AcDbEntity
  8
0
100
AcDbLine
 62
7
  6
CONTINUOUS
 10
11.7911172309
 20
8.1138369455
 11
11.2907254888
 21
7.8249356385
  0
LWPOLYLINE
  5
21B
100
AcDbEntity
  8
0
100
AcDbPolyline
 62
7
  6
CONTINUOUS
 90
5
 70
0
 10
11.2907279826
 20
7.8249375474
 10
11.2747205545
 20
7.8176772385
 10
11.2521341536
 20
7.8131074398
 10
11.2291620058
 20
7.8144164857
 10
11.2073244353
 20
7.8214830332
  0
LINE
  5
21C
100
AcDbEntity
  8
0
100
AcDbLine
 62
7
  6
CONTINUOUS
 10
10.1285194674
 20
7.8107280416
 11
10.6289166838
 21
7.5218235741
  0
LWPOLYLINE
  5
21D
100
AcDbEntity
  8
0
100
AcDbPolyline
 62
7
  6
CONTINUOUS
 90
5
 70
0
 10
10.6289008688
 20
7.5218313691
 10
10.6431990439
 20
7.5115945071
 10
10.6584226608
 20
7.4943590054
 10
10.668751322
 20
7.4739146678
 10
10.6735830745
 20
7.4515477005
  0
LINE
  5
21E
100
AcDbEntity
  8
0
100
AcDbLine
 62
9
  6
CONTINUOUS
 10
11.0473181865
 20
6.9723318604
 11
11.0473181529
 21
7.1073318604
  0
LINE
  5
21F
100
AcDbEntity
  8
0
100
AcDbLine
 62
9
  6
CONTINUOUS
 10
11.0473182885
 20
6.4343428892
 11
11.0473182574
 21
6.4065636018
  0
LINE
  5
220
100
AcDbEntity
  8
0
100
AcDbLine
 62
9
  6
CONTINUOUS
 10
11.488991175
 20
7.7373320671
 11
11.3720777189
 21
7.6698321128
  0
LINE
  5
221
100
AcDbEntity
  8
0
100
AcDbLine
 62
9
  6
CONTINUOUS
 10
11.954903347
 20
8.0063264554
 11
11.9789608682
 21
8.0202161628
  0
LINE
  5
222
100
AcDbEntity
  8
0
100
AcDbLine
 62
9
  6
CONTINUOUS
 10
10.605645257
 20
7.7373316435
 11
10.7225586589
 21
7.6698315954
  0
LINE
  5
223
100
AcDbEntity
  8
0
100
AcDbLine
 62
9
  6
CONTINUOUS
 10
10.1397331991
 20
8.0063262293
 11
10.1156755967
 21
8.0202157954
  0
LWPOLYLINE
  5
224
100
AcDbEntity
  8
0
100
AcDbPolyline
 62
7
  6
CONTINUOUS
 90
7
 70
0
 10
11.9661006386
 20
7.8107192704
 10
11.9670301715
 20
7.8112008563
 10
11.9735962442
 20
7.8134898295
 10
11.9859979119
 20
7.8150608697
 10
12.0019044888
 20
7.8131743898
 10
12.0184075584
 20
7.8064878102
 10
12.0314552892
 20
7.7963814946
  0
LWPOLYLINE
  5
225
100
AcDbEntity
  8
0
100
AcDbPolyline
 62
7
  6
CONTINUOUS
 90
8
 70
0
 10
10.3035364207
 20
8.1138260877
 10
10.3026579141
 20
8.1143880064
 10
10.2973846875
 20
8.1189365898
 10
10.2898119863
 20
8.1289125674
 10
10.2834926445
 20
8.1436574409
 10
10.2810464567
 20
8.1612930941
 10
10.283283925
 20
8.1776263595
 10
10.2874958555
 20
8.1879478797
  0
LINE
  5
226
100
AcDbEntity
  8
0
100
AcDbLine
 62
7
  6
CONTINUOUS
 10
11.2223183383
 20
6.5224275063
 11
11.2223183383
 21
7.1002348158
  0
LWPOLYLINE
  5
227
100
AcDbEntity
  8
0
100
AcDbPolyline
 62
7
  6
CONTINUOUS
 90
5
 70
0
 10
11.2223183969
 20
7.1002301444
 10
11.2240070784
 20
7.1175849476
 10
11.2312504184
 20
7.13932188
 10
11.2437305553
 20
7.158505232
 10
11.2606703421
 20
7.1739379524
  0
LINE
  5
228
100
AcDbEntity
  8
0
100
AcDbLine
 62
7
  6
CONTINUOUS
 10
11.9661178206
 20
7.8107283946
 11
11.4657285935
 21
7.5218285397
  0
LINE
  5
229
100
AcDbEntity
  8
0
100
AcDbLine
 62
7
  6
CONTINUOUS
 10
10.3035190357
 20
8.1138371822
 11
10.8039104625
 21
7.8249360572
  0
LWPOLYLINE
  5
22A
100
AcDbEntity
  8
0
100
AcDbPolyline
 62
7
  6
CONTINUOUS
 90
5
 70
0
 10
11.4210363745
 20
7.4513252494
 10
11.4257862075
 20
7.4736305681
 10
11.4361315002
 20
7.4942364493
 10
11.4513993336
 20
7.5115610122
 10
11.4657285959
 20
7.5218273918
  0
LWPOLYLINE
  5
22B
100
AcDbEntity
  8
0
100
AcDbPolyline
 62
7
  6
CONTINUOUS
 90
7
 70
0
 10
11.8112966635
 20
8.1778216868
 10
11.8135898588
 20
8.1614301902
 10
11.8111706923
 20
8.1437521293
 10
11.8048744109
 20
8.1289961627
 10
11.7973064765
 20
8.1189929241
 10
11.79200544
 20
8.1144063828
 10
11.7911053909
 20
8.1138295179
  0
LINE
  5
22C
100
AcDbEntity
  8
0
100
AcDbLine
 62
7
  6
CONTINUOUS
 10
11.8057867312
 20
8.1902387709
 11
11.805928537
 21
8.1900866318
  0
LWPOLYLINE
  5
22D
100
AcDbEntity
  8
0
100
AcDbPolyline
 62
7
  6
CONTINUOUS
 90
3
 70
0
 10
12.0314552892
 20
7.7963814946
 10
12.0383086278
 20
7.7875534047
 10
12.0389377288
 20
7.7864390837
  0
LINE
  5
22E
100
AcDbEntity
  8
0
100
AcDbLine
 62
7
  6
CONTINUOUS
 10
11.8055164722
 20
8.1904718411
 11
11.8070550729
 21
8.1880987968
  0
LINE
  5
22F
100
AcDbEntity
  8
0
100
AcDbLine
 62
7
  6
CONTINUOUS
 10
12.0389377288
 20
7.7864390837
 11
12.0396738234
 21
7.7849126347
  0
LINE
  5
230
100
AcDbEntity
  8
0
100
AcDbLine
 62
7
  6
CONTINUOUS
 10
11.8070550729
 20
8.1880987968
 11
11.8112966635
 21
8.1778216868
  0
LINE
  5
231
100
AcDbEntity
  8
0
100
AcDbLine
 62
7
  6
CONTINUOUS
 10
12.0395570493
 20
7.7854301783
 11
12.0396174514
 21
7.7852327735
  0
CIRCLE
  5
232
100
AcDbEntity
  8
0
100
AcDbCircle
 62
7
  6
CONTINUOUS
 10
11.0473183383
 20
7.4823318604
 40
1.4375
  0
ARC
  5
233
100
AcDbEntity
  8
0
100
AcDbCircle
 62
7
  6
CONTINUOUS
 10
11.0473183383
 20
7.4823318604
 40
1.0375
100
AcDbArc
 50
283.0137046213
 51
16.9862953722
  0
ARC
  5
234
100
AcDbEntity
  8
0
100
AcDbCircle
 62
7
  6
CONTINUOUS
 10
11.0473183383
 20
7.4823318604
 40
1.0375
100
AcDbArc
 50
163.0137046198
 51
256.9862953725
  0
ARC
  5
235
100
AcDbEntity
  8
0
100
AcDbCircle
 62
7
  6
CONTINUOUS
 10
11.0473183383
 20
7.4823318604
 40
1.0375
100
AcDbArc
 50
43.01370462
 51
136.9862953741
  0
ARC
  5
236
100
AcDbEntity
  8
0
100
AcDbCircle
 62
7
  6
CONTINUOUS
 10
11.0473183383
 20
7.4823318604
 40
0.65625
100
AcDbArc
 50
285.5291079316
 51
14.4709863902
  0
ARC
  5
237
100
AcDbEntity
  8
0
100
AcDbCircle
 62
7
  6
CONTINUOUS
 10
11.0473183383
 20
7.4823318604
 40
0.65625
100
AcDbArc
 50
165.5255138048
 51
254.4747882064
  0
ARC
  5
238
100
AcDbEntity
  8
0
100
AcDbCircle
 62
7
  6
CONTINUOUS
 10
11.0473183383
 20
7.4823318604
 40
0.65625
100
AcDbArc
 50
45.532386701
 51
134.4706346127
  0
CIRCLE
  5
239
100
AcDbEntity
  8
0
100
AcDbCircle
 62
7
  6
CONTINUOUS
 10
11.0473183383
 20
7.4823318604
 40
0.375
  0
ARC
  5
23A
100
AcDbEntity
  8
0
100
AcDbCircle
 62
9
  6
CONTINUOUS
 10
12.2590339264
 20
7.8524706401
 40
0.2294875227
100
AcDbArc
 50
196.7149690695
 51
196.9855900837
  0
ARC
  5
23B
100
AcDbEntity
  8
0
100
AcDbCircle
 62
9
  6
CONTINUOUS
 10
10.762012016
 20
6.2478942099
 40
0.2294790885
100
AcDbArc
 50
76.715960165
 51
76.9855865641
  0
ARC
  5
23C
100
AcDbEntity
  8
0
100
AcDbCircle
 62
9
  6
CONTINUOUS
 10
10.1209217111
 20
8.3466293423
 40
0.2294731048
100
AcDbArc
 50
316.7154203952
 51
316.9855129174
  0
ARC
  5
23D
100
AcDbEntity
  8
0
100
AcDbCircle
 62
9
  6
CONTINUOUS
 10
11.9781848869
 20
7.7666819583
 40
0.0641719415
100
AcDbArc
 50
16.9870706468
 51
18.0286713577
  0
ARC
  5
23E
100
AcDbEntity
  8
0
100
AcDbCircle
 62
9
  6
CONTINUOUS
 10
10.3356302306
 20
8.1463112756
 40
0.0641713677
100
AcDbArc
 50
136.9870690081
 51
138.0265896733
  0
ARC
  5
23F
100
AcDbEntity
  8
0
100
AcDbCircle
 62
9
  6
CONTINUOUS
 10
10.8281392506
 20
6.534001741
 40
0.0641709252
100
AcDbArc
 50
256.9870655079
 51
258.0249357481
  0
SPLINE
  5
240
100
AcDbEntity
  8
0
100
AcDbSpline
 62
9
  6
CONTINUOUS
 70
0
 71
3
 72
19
 73
15
 74
0
 42
0.0000001
 43
0.0000001
 44
0.0000000001
 40
0.0
 40
0.0
 40
0.0
 40
0.0
 40
0.0708730094
 40
0.1412469563
 40
0.2791227127
 40
0.3464076811
 40
0.4125414462
 40
0.5413527605
 40
0.6654110085
 40
0.7841572131
 40
0.8411988116
 40
0.8963999744
 40
0.9494821465
 40
1.0
 40
1.0
 40
1.0
 40
1.0
 10
11.0473183383
 20
6.4065636044
 30
0.0
 10
11.053071272
 20
6.4065623514
 30
0.0
 10
11.0645415411
 20
6.4070323298
 30
0.0
 10
11.0870619091
 20
6.4096701663
 30
0.0
 10
11.1089623834
 20
6.4144611242
 30
0.0
 10
11.130143239
 20
6.4204879906
 30
0.0
 10
11.1504368917
 20
6.4269218961
 30
0.0
 10
11.1748646141
 20
6.4355245301
 30
0.0
 10
11.203148265
 20
6.4460088374
 30
0.0
 10
11.2259953641
 20
6.4544025832
 30
0.0
 10
11.2437049639
 20
6.4605633113
 30
0.0
 10
11.2564586935
 20
6.4647422679
 30
0.0
 10
11.2688086896
 20
6.4684407811
 30
0.0
 10
11.2769515086
 20
6.4705553932
 30
0.0
 10
11.2809468506
 20
6.4714787711
 30
0.0
  0
SPLINE
  5
241
100
AcDbEntity
  8
0
100
AcDbSpline
 62
9
  6
CONTINUOUS
 70
0
 71
3
 72
21
 73
17
 74
0
 42
0.0000001
 43
0.0000001
 44
0.0000000001
 40
0.0
 40
0.0
 40
0.0
 40
0.0
 40
0.0684254795
 40
0.1028652659
 40
0.1373994392
 40
0.2065004063
 40
0.2756810418
 40
0.3444349018
 40
0.4124856739
 40
0.5454569588
 40
0.6727328464
 40
0.7925010321
 40
0.8489721902
 40
0.902662725
 40
0.9531367411
 40
1.0
 40
1.0
 40
1.0
 40
1.0
 10
11.0473183383
 20
6.4343430642
 30
0.0
 10
11.0433349443
 20
6.4343429179
 30
0.0
 10
11.037329881
 20
6.4350362432
 30
0.0
 10
11.0295847745
 20
6.4370531408
 30
0.0
 10
11.0219922458
 20
6.439720236
 30
0.0
 10
11.0129069476
 20
6.4441137359
 30
0.0
 10
11.0026684877
 20
6.450496846
 30
0.0
 10
10.9929335577
 20
6.4575095326
 30
0.0
 10
10.9806576141
 20
6.467311853
 30
0.0
 10
10.9663057448
 20
6.4799436137
 30
0.0
 10
10.9500579412
 20
6.4949562822
 30
0.0
 10
10.9371073191
 20
6.5069773978
 30
0.0
 10
10.9271300186
 20
6.5159013153
 30
0.0
 10
10.9200363266
 20
6.5219961212
 30
0.0
 10
10.9132028575
 20
6.5275305337
 30
0.0
 10
10.9086549695
 20
6.5309154426
 30
0.0
 10
10.9064190228
 20
6.532478559
 30
0.0
  0
SPLINE
  5
242
100
AcDbEntity
  8
0
100
AcDbSpline
 62
9
  6
CONTINUOUS
 70
0
 71
3
 72
19
 73
15
 74
0
 42
0.0000001
 43
0.0000001
 44
0.0000000001
 40
0.0
 40
0.0
 40
0.0
 40
0.0
 40
0.0707873688
 40
0.1410810997
 40
0.278829119
 40
0.3460649502
 40
0.4121547168
 40
0.54090058
 40
0.6649368529
 40
0.7837199614
 40
0.8408126856
 40
0.8960988645
 40
0.9493000514
 40
1.0
 40
1.0
 40
1.0
 40
1.0
 10
10.1156757
 20
8.0202159883
 30
0.0
 10
10.1185350751
 20
8.0251705547
 30
0.0
 10
10.1246387377
 20
8.0348170944
 30
0.0
 10
10.138100594
 20
8.0529077689
 30
0.0
 10
10.1531016818
 20
8.0694047338
 30
0.0
 10
10.1688136372
 20
8.0846694356
 30
0.0
 10
10.1844420411
 20
8.0989670594
 30
0.0
 10
10.2040014214
 20
8.1157498886
 30
0.0
 10
10.2271125249
 20
8.1349190526
 30
0.0
 10
10.2457322751
 20
8.15043534
 30
0.0
 10
10.2598815453
 20
8.1626332
 30
0.0
 10
10.2698630056
 20
8.1715464122
 30
0.0
 10
10.2792431929
 20
8.1803520898
 30
0.0
 10
10.2851592694
 20
8.1863148288
 30
0.0
 10
10.2879683352
 20
8.1892974282
 30
0.0
  0
SPLINE
  5
243
100
AcDbEntity
  8
0
100
AcDbSpline
 62
9
  6
CONTINUOUS
 70
0
 71
3
 72
19
 73
15
 74
0
 42
0.0000001
 43
0.0000001
 44
0.0000000001
 40
0.0
 40
0.0
 40
0.0
 40
0.0
 40
0.0708730487
 40
0.1412477041
 40
0.279121844
 40
0.3464063412
 40
0.4125408519
 40
0.5413531543
 40
0.6654108954
 40
0.7841553382
 40
0.841199044
 40
0.8964024665
 40
0.9494834653
 40
1.0
 40
1.0
 40
1.0
 40
1.0
 10
11.9789609765
 20
8.0202159884
 30
0.0
 10
11.9760857247
 20
8.0251988789
 30
0.0
 10
11.9699425371
 20
8.0348968223
 30
0.0
 10
11.9563999675
 20
8.0530825171
 30
0.0
 10
11.941299095
 20
8.0696520188
 30
0.0
 10
11.9254893502
 20
8.0849816231
 30
0.0
 10
11.9097709356
 20
8.0993400147
 30
0.0
 10
11.8901070846
 20
8.1161940046
 30
0.0
 10
11.8668855538
 20
8.1354460037
 30
0.0
 10
11.8481926212
 20
8.1510350501
 30
0.0
 10
11.8340024489
 20
8.163291941
 30
0.0
 10
11.8240064847
 20
8.1722478799
 30
0.0
 10
11.8146284258
 20
8.1810939414
 30
0.0
 10
11.8087258167
 20
8.1870883447
 30
0.0
 10
11.805928537
 20
8.1900866318
 30
0.0
  0
SPLINE
  5
244
100
AcDbEntity
  8
0
100
AcDbSpline
 62
9
  6
CONTINUOUS
 70
0
 71
3
 72
18
 73
14
 74
0
 42
0.0000001
 43
0.0000001
 44
0.0000000001
 40
0.0
 40
0.0
 40
0.0
 40
0.0
 40
0.2442524475
 40
0.3088789339
 40
0.374234598
 40
0.4398933807
 40
0.5055048905
 40
0.6354006977
 40
0.6992950883
 40
0.7620792241
 40
0.8235763363
 40
0.8837823839
 40
1.0
 40
1.0
 40
1.0
 40
1.0
 10
10.295170794
 20
8.0792810581
 30
0.0
 10
10.2886533808
 20
8.0865983688
 30
0.0
 10
10.2816373052
 20
8.0971091377
 30
0.0
 10
10.2758435474
 20
8.110965424
 30
0.0
 10
10.2734121626
 20
8.1184389848
 30
0.0
 10
10.2716131436
 20
8.1261299512
 30
0.0
 10
10.2701482364
 20
8.136516003
 30
0.0
 10
10.2701997735
 20
8.1470020594
 30
0.0
 10
10.2717654278
 20
8.1571887047
 30
0.0
 10
10.2736665939
 20
8.1645096608
 30
0.0
 10
10.2762987361
 20
8.1714439244
 30
0.0
 10
10.2806239093
 20
8.1799656672
 30
0.0
 10
10.2848034705
 20
8.1857618915
 30
0.0
 10
10.2879216889
 20
8.189228166
 30
0.0
  0
SPLINE
  5
245
100
AcDbEntity
  8
0
100
AcDbSpline
 62
9
  6
CONTINUOUS
 70
0
 71
3
 72
22
 73
18
 74
0
 42
0.0000001
 43
0.0000001
 44
0.0000000001
 40
0.0
 40
0.0
 40
0.0
 40
0.0
 40
0.085103707
 40
0.1609929214
 40
0.2280182616
 40
0.2868937726
 40
0.3388464704
 40
0.3860012881
 40
0.4311301109
 40
0.4768894915
 40
0.5253927049
 40
0.5780823321
 40
0.6357423205
 40
0.6986378761
 40
0.7667085337
 40
0.8398020933
 40
1.0
 40
1.0
 40
1.0
 40
1.0
 10
10.1285500215
 20
7.8107129848
 30
0.0
 10
10.1297939496
 20
7.8099952074
 30
0.0
 10
10.1321941918
 20
7.8087152557
 30
0.0
 10
10.1357447689
 20
7.807215893
 30
0.0
 10
10.1390192397
 20
7.8062489444
 30
0.0
 10
10.1420027067
 20
7.8058172214
 30
0.0
 10
10.1446863107
 20
7.8059355609
 30
0.0
 10
10.1470500096
 20
7.8066158376
 30
0.0
 10
10.1490714587
 20
7.8078248112
 30
0.0
 10
10.1507432742
 20
7.8095103667
 30
0.0
 10
10.152078714
 20
7.8116184076
 30
0.0
 10
10.1531068163
 20
7.8141050497
 30
0.0
 10
10.1538595649
 20
7.8169366984
 30
0.0
 10
10.1543624765
 20
7.8200840396
 30
0.0
 10
10.154638602
 20
7.8235193331
 30
0.0
 10
10.1547307798
 20
7.8286064308
 30
0.0
 10
10.1545051608
 20
7.8325427992
 30
0.0
 10
10.1542717238
 20
7.8352361111
 30
0.0
  0
SPLINE
  5
246
100
AcDbEntity
  8
0
100
AcDbSpline
 62
9
  6
CONTINUOUS
 70
0
 71
3
 72
18
 73
14
 74
0
 42
0.0000001
 43
0.0000001
 44
0.0000000001
 40
0.0
 40
0.0
 40
0.0
 40
0.0
 40
0.1266957894
 40
0.258051243
 40
0.3247428938
 40
0.3915597851
 40
0.4580581539
 40
0.5238486776
 40
0.652106205
 40
0.7143346812
 40
0.7749529064
 40
0.8908310459
 40
1.0
 40
1.0
 40
1.0
 40
1.0
 10
10.1542713953
 20
7.8352361518
 30
0.0
 10
10.1492435853
 20
7.8362765328
 30
0.0
 10
10.1388314932
 20
7.8376334752
 30
0.0
 10
10.1256138803
 20
7.8373440837
 30
0.0
 10
10.1149880959
 20
7.8357448184
 30
0.0
 10
10.1070955788
 20
7.833856225
 30
0.0
 10
10.0994323062
 20
7.831293818
 30
0.0
 10
10.0897592805
 20
7.8270309909
 30
0.0
 10
10.0809072288
 20
7.8214454923
 30
0.0
 10
10.0731930634
 20
7.8147886672
 30
0.0
 10
10.0665321051
 20
7.8077508154
 30
0.0
 10
10.0599386013
 20
7.7981303904
 30
0.0
 10
10.0563720857
 20
7.7896612381
 30
0.0
 10
10.0550796302
 20
7.7854301881
 30
0.0
  0
SPLINE
  5
247
100
AcDbEntity
  8
0
100
AcDbSpline
 62
9
  6
CONTINUOUS
 70
0
 71
3
 72
21
 73
17
 74
0
 42
0.0000001
 43
0.0000001
 44
0.0000000001
 40
0.0
 40
0.0
 40
0.0
 40
0.0
 40
0.0468662091
 40
0.0973498484
 40
0.1510517978
 40
0.2075313186
 40
0.3272976551
 40
0.4545606871
 40
0.5875240468
 40
0.6555727297
 40
0.7243272736
 40
0.7935121196
 40
0.8626153031
 40
0.8971478451
 40
0.9315843045
 40
1.0
 40
1.0
 40
1.0
 40
1.0
 10
10.154271698
 20
7.8352361137
 30
0.0
 10
10.1540359105
 20
7.837954223
 30
0.0
 10
10.1533782429
 20
7.8435859721
 30
0.0
 10
10.15200179
 20
7.8522725012
 30
0.0
 10
10.1502701293
 20
7.8614649069
 30
0.0
 10
10.1475303092
 20
7.8745684881
 30
0.0
 10
10.1435948324
 20
7.8917941732
 30
0.0
 10
10.1387174506
 20
7.9133701658
 30
0.0
 10
10.1349547821
 20
7.9321139182
 30
0.0
 10
10.1326038962
 20
7.9476458197
 30
0.0
 10
10.1313983265
 20
7.9595830296
 30
0.0
 10
10.1309898994
 20
7.9716417616
 30
0.0
 10
10.1317277881
 20
7.9817068715
 30
0.0
 10
10.1332143857
 20
7.9896155524
 30
0.0
 10
10.1353401755
 20
7.9973305853
 30
0.0
 10
10.1377420109
 20
8.0028770327
 30
0.0
 10
10.1397335002
 20
8.0063262109
 30
0.0
  0
SPLINE
  5
248
100
AcDbEntity
  8
0
100
AcDbSpline
 62
9
  6
CONTINUOUS
 70
0
 71
3
 72
28
 73
24
 74
0
 42
0.0000001
 43
0.0000001
 44
0.0000000001
 40
0.0
 40
0.0
 40
0.0
 40
0.0
 40
0.0952293321
 40
0.1878867844
 40
0.2759883906
 40
0.318258088
 40
0.3592718957
 40
0.4376466922
 40
0.4751403248
 40
0.5115435765
 40
0.5812082604
 40
0.6468396144
 40
0.7084274361
 40
0.7658463489
 40
0.8189023692
 40
0.8672589544
 40
0.9102274962
 40
0.9294617006
 40
0.9470779876
 40
0.9629995712
 40
0.9771618293
 40
0.9895009791
 40
1.0
 40
1.0
 40
1.0
 40
1.0
 10
10.6056455529
 20
7.7373317619
 30
0.0
 10
10.6019948972
 20
7.7310081058
 30
0.0
 10
10.5956985876
 20
7.7179893161
 30
0.0
 10
10.5890375878
 20
7.6978454353
 30
0.0
 10
10.5857685034
 20
7.6810139669
 30
0.0
 10
10.5843547572
 20
7.6679445059
 30
0.0
 10
10.5836473575
 20
7.6555650346
 30
0.0
 10
10.5838145415
 20
7.6435176847
 30
0.0
 10
10.5847293379
 20
7.6318757917
 30
0.0
 10
10.5860163913
 20
7.6209410909
 30
0.0
 10
10.5882736518
 20
7.6079591166
 30
0.0
 10
10.5918188045
 20
7.5932756725
 30
0.0
 10
10.595958255
 20
7.5797285843
 30
0.0
 10
10.600534674
 20
7.5673472982
 30
0.0
 10
10.6053790673
 20
7.5561674401
 30
0.0
 10
10.6103071804
 20
7.5462488
 30
0.0
 10
10.6145231365
 20
7.5388860165
 30
0.0
 10
10.6178659681
 20
7.5337575856
 30
0.0
 10
10.6202222504
 20
7.5304661574
 30
0.0
 10
10.6225046874
 20
7.5276059097
 30
0.0
 10
10.6246949145
 20
7.5251966293
 30
0.0
 10
10.6267785719
 20
7.5232659077
 30
0.0
 10
10.6282056971
 20
7.5222363864
 30
0.0
 10
10.6289023977
 20
7.5218330691
 30
0.0
  0
SPLINE
  5
249
100
AcDbEntity
  8
0
100
AcDbSpline
 62
9
  6
CONTINUOUS
 70
0
 71
3
 72
28
 73
24
 74
0
 42
0.0000001
 43
0.0000001
 44
0.0000000001
 40
0.0
 40
0.0
 40
0.0
 40
0.0
 40
0.0104896111
 40
0.0228191694
 40
0.0369722282
 40
0.0528852598
 40
0.0704936961
 40
0.089720796
 40
0.1326775388
 40
0.1810258348
 40
0.2340771945
 40
0.2914947411
 40
0.3530842439
 40
0.418720177
 40
0.4883931191
 40
0.5248025619
 40
0.5623040057
 40
0.6406973034
 40
0.6817206852
 40
0.7239994274
 40
0.8121142539
 40
0.9047741627
 40
1.0
 40
1.0
 40
1.0
 40
1.0
 10
11.465726608
 20
7.5218278477
 30
0.0
 10
11.4664229491
 20
7.5222304074
 30
0.0
 10
11.4678494142
 20
7.5232584971
 30
0.0
 10
11.46993213
 20
7.5251872194
 30
0.0
 10
11.4721215556
 20
7.5275945678
 30
0.0
 10
11.4744033893
 20
7.5304529656
 30
0.0
 10
11.4767592634
 20
7.5337426613
 30
0.0
 10
11.4801018996
 20
7.5388690521
 30
0.0
 10
11.484318028
 20
7.5462297116
 30
0.0
 10
11.4892468114
 20
7.5561463755
 30
0.0
 10
11.4940923994
 20
7.5673250311
 30
0.0
 10
11.4986704047
 20
7.579705919
 30
0.0
 10
11.5028116565
 20
7.5932534231
 30
0.0
 10
11.5063586637
 20
7.6079381681
 30
0.0
 10
11.5086173697
 20
7.6209218917
 30
0.0
 10
11.5099055421
 20
7.6318586069
 30
0.0
 10
11.5108214828
 20
7.6435033606
 30
0.0
 10
11.5109895838
 20
7.6555539273
 30
0.0
 10
11.5102825688
 20
7.6679367549
 30
0.0
 10
11.5088688572
 20
7.6810091877
 30
0.0
 10
11.5055996284
 20
7.6978432409
 30
0.0
 10
11.498938362
 20
7.7179888946
 30
0.0
 10
11.492641754
 20
7.7310080762
 30
0.0
 10
11.4889910764
 20
7.7373317347
 30
0.0
  0
SPLINE
  5
24A
100
AcDbEntity
  8
0
100
AcDbSpline
 62
9
  6
CONTINUOUS
 70
0
 71
3
 72
22
 73
18
 74
0
 42
0.0000001
 43
0.0000001
 44
0.0000000001
 40
0.0
 40
0.0
 40
0.0
 40
0.0
 40
0.1601832354
 40
0.2332677274
 40
0.3013334569
 40
0.3642303039
 40
0.4218958867
 40
0.474593193
 40
0.5231045608
 40
0.5688721242
 40
0.6140088447
 40
0.6611703858
 40
0.7131276264
 40
0.7720051201
 40
0.839028711
 40
0.9149106624
 40
1.0
 40
1.0
 40
1.0
 40
1.0
 10
10.2951709758
 20
8.0792808025
 30
0.0
 10
10.297619943
 20
8.0804251399
 30
0.0
 10
10.3011413841
 20
8.082197685
 30
0.0
 10
10.3055003996
 20
8.0848207838
 30
0.0
 10
10.3083371901
 20
8.0867774134
 30
0.0
 10
10.3108114669
 20
8.0887865524
 30
0.0
 10
10.3128876235
 20
8.0908543316
 30
0.0
 10
10.314527401
 20
8.0929881852
 30
0.0
 10
10.3156855733
 20
8.0951990273
 30
0.0
 10
10.3163095125
 20
8.0974900184
 30
0.0
 10
10.3163458027
 20
8.0998454966
 30
0.0
 10
10.3157530512
 20
8.1022329613
 30
0.0
 10
10.3145136531
 20
8.1046163882
 30
0.0
 10
10.3126479658
 20
8.1069842993
 30
0.0
 10
10.3101734069
 20
8.1093364623
 30
0.0
 10
10.3070999615
 20
8.1116613906
 30
0.0
 10
10.3047917021
 20
8.1130998797
 30
0.0
 10
10.3035483443
 20
8.1138181333
 30
0.0
  0
SPLINE
  5
24B
100
AcDbEntity
  8
0
100
AcDbSpline
 62
9
  6
CONTINUOUS
 70
0
 71
3
 72
21
 73
17
 74
0
 42
0.0000001
 43
0.0000001
 44
0.0000000001
 40
0.0
 40
0.0
 40
0.0
 40
0.0
 40
0.0684244896
 40
0.1028617704
 40
0.1373940815
 40
0.2064963368
 40
0.2756828919
 40
0.3444449165
 40
0.4125027935
 40
0.5454780026
 40
0.6727563249
 40
0.7925214633
 40
0.8489865189
 40
0.9026697732
 40
0.9531380908
 40
1.0
 40
1.0
 40
1.0
 40
1.0
 10
10.1397333581
 20
8.0063262929
 30
0.0
 10
10.1417249772
 20
8.0097759924
 30
0.0
 10
10.1453277833
 20
8.0146297205
 30
0.0
 10
10.150946821
 20
8.0203284967
 30
0.0
 10
10.1570526957
 20
8.025570178
 30
0.0
 10
10.1654002374
 20
8.0312420419
 30
0.0
 10
10.1760479964
 20
8.0369180935
 30
0.0
 10
10.1869900123
 20
8.0418424159
 30
0.0
 10
10.201618433
 20
8.047572027
 30
0.0
 10
10.219734392
 20
8.0536858551
 30
0.0
 10
10.2408597749
 20
8.060250803
 30
0.0
 10
10.2577452985
 20
8.0654557157
 30
0.0
 10
10.2704613913
 20
8.0696340238
 30
0.0
 10
10.2792854438
 20
8.0727295806
 30
0.0
 10
10.2874943182
 20
8.0758800994
 30
0.0
 10
10.2926992707
 20
8.0781261438
 30
0.0
 10
10.2951708618
 20
8.0792809606
 30
0.0
  0
SPLINE
  5
24C
100
AcDbEntity
  8
0
100
AcDbSpline
 62
9
  6
CONTINUOUS
 70
0
 71
3
 72
22
 73
18
 74
0
 42
0.0000001
 43
0.0000001
 44
0.0000000001
 40
0.0
 40
0.0
 40
0.0
 40
0.0
 40
0.0850887283
 40
0.1609737526
 40
0.228002715
 40
0.2868860875
 40
0.3388471328
 40
0.3860079345
 40
0.431139304
 40
0.4768980628
 40
0.5253988714
 40
0.5780858514
 40
0.6357437458
 40
0.6986379399
 40
0.7667078107
 40
0.8398010905
 40
1.0
 40
1.0
 40
1.0
 40
1.0
 10
11.7910928992
 20
8.1138210341
 30
0.0
 10
11.7898493719
 20
8.1131027957
 30
0.0
 10
11.7875407356
 20
8.1116642975
 30
0.0
 10
11.7844666987
 20
8.1093392689
 30
0.0
 10
11.781991481
 20
8.1069869388
 30
0.0
 10
11.7801250862
 20
8.1046188779
 30
0.0
 10
11.7788848944
 20
8.1022353979
 30
0.0
 10
11.7782913093
 20
8.0998479261
 30
0.0
 10
11.7783268043
 20
8.0974924401
 30
0.0
 10
11.7789500351
 20
8.0952014255
 30
0.0
 10
11.7801075848
 20
8.0929905222
 30
0.0
 10
11.7817468869
 20
8.0908565495
 30
0.0
 10
11.7838227967
 20
8.0887885772
 30
0.0
 10
11.7862971337
 20
8.0867791462
 30
0.0
 10
11.7891343158
 20
8.0848221437
 30
0.0
 10
11.7934941583
 20
8.0821984556
 30
0.0
 10
11.7970163001
 20
8.0804254712
 30
0.0
 10
11.7994657411
 20
8.0792808584
 30
0.0
  0
SPLINE
  5
24D
100
AcDbEntity
  8
0
100
AcDbSpline
 62
9
  6
CONTINUOUS
 70
0
 71
3
 72
28
 73
24
 74
0
 42
0.0000001
 43
0.0000001
 44
0.0000000001
 40
0.0
 40
0.0
 40
0.0
 40
0.0
 40
0.0104891669
 40
0.0228182998
 40
0.0369710964
 40
0.0528841194
 40
0.070492754
 40
0.0897201895
 40
0.1326777228
 40
0.1810264675
 40
0.2340775317
 40
0.2914942258
 40
0.3530825911
 40
0.41871736
 40
0.4883893441
 40
0.524798443
 40
0.5622996669
 40
0.6406931974
 40
0.6817172191
 40
0.7239969397
 40
0.8121138727
 40
0.9047747342
 40
1.0
 40
1.0
 40
1.0
 40
1.0
 10
10.8723185426
 20
7.1002313906
 30
0.0
 10
10.8723189901
 20
7.0994270966
 30
0.0
 10
10.8724960873
 20
7.0976777632
 30
0.0
 10
10.8731250288
 20
7.0949098036
 30
0.0
 10
10.8741151398
 20
7.0918100901
 30
0.0
 10
10.875449702
 20
7.0884047886
 30
0.0
 10
10.8771207848
 20
7.0847196815
 30
0.0
 10
10.8798891585
 20
7.0792616262
 30
0.0
 10
10.8841557374
 20
7.0719299666
 30
0.0
 10
10.8902795092
 20
7.0627031647
 30
0.0
 10
10.897537707
 20
7.0529175122
 30
0.0
 10
10.9059707751
 20
7.042762569
 30
0.0
 10
10.9156324731
 20
7.0324025923
 30
0.0
 10
10.9265761298
 20
7.0219885968
 30
0.0
 10
10.9366908283
 20
7.013540738
 30
0.0
 10
10.9455180759
 20
7.006956819
 30
0.0
 10
10.9551446792
 20
7.0003411669
 30
0.0
 10
10.965496718
 20
6.9941702168
 30
0.0
 10
10.9765741615
 20
6.9885909934
 30
0.0
 10
10.988602312
 20
6.9832789489
 30
0.0
 10
11.0048159055
 20
6.9776930193
 30
0.0
 10
11.0255933437
 20
6.9733889424
 30
0.0
 10
11.0400166023
 20
6.9723323571
 30
0.0
 10
11.0473183383
 20
6.9723321013
 30
0.0
  0
SPLINE
  5
24E
100
AcDbEntity
  8
0
100
AcDbSpline
 62
9
  6
CONTINUOUS
 70
0
 71
3
 72
18
 73
14
 74
0
 42
0.0000001
 43
0.0000001
 44
0.0000000001
 40
0.0
 40
0.0
 40
0.0
 40
0.0
 40
0.1266958205
 40
0.2580512977
 40
0.3247429566
 40
0.3915598535
 40
0.4580582252
 40
0.5238487493
 40
0.6521062695
 40
0.7143347389
 40
0.7749529555
 40
0.8908310729
 40
1.0
 40
1.0
 40
1.0
 40
1.0
 10
11.799465891
 20
8.0792810542
 30
0.0
 10
11.8028807932
 20
8.0831150758
 30
0.0
 10
11.809261987
 20
8.0914537428
 30
0.0
 10
11.8156201738
 20
8.1030452297
 30
0.0
 10
11.8195480615
 20
8.1130470633
 30
0.0
 10
11.8218587497
 20
8.1208264812
 30
0.0
 10
11.8234712757
 20
8.1287442739
 30
0.0
 10
11.824616071
 20
8.1392527735
 30
0.0
 10
11.824204912
 20
8.1497116238
 30
0.0
 10
11.8222970142
 20
8.1597206985
 30
0.0
 10
11.8195325346
 20
8.1690081818
 30
0.0
 10
11.8144977543
 20
8.1795285336
 30
0.0
 10
11.808946512
 20
8.1868518011
 30
0.0
 10
11.8059285437
 20
8.1900866246
 30
0.0
  0
SPLINE
  5
24F
100
AcDbEntity
  8
0
100
AcDbSpline
 62
9
  6
CONTINUOUS
 70
0
 71
3
 72
19
 73
15
 74
0
 42
0.0000001
 43
0.0000001
 44
0.0000000001
 40
0.0
 40
0.0
 40
0.0
 40
0.0
 40
0.0707871889
 40
0.1410808477
 40
0.2788287104
 40
0.3460643935
 40
0.4121545336
 40
0.5409013507
 40
0.664936306
 40
0.7837193373
 40
0.8408114433
 40
0.8960968905
 40
0.9492990138
 40
1.0
 40
1.0
 40
1.0
 40
1.0
 10
11.9789609765
 20
8.0202159884
 30
0.0
 10
11.9818220672
 20
8.0152624881
 30
0.0
 10
11.9871241524
 20
8.0051533074
 30
0.0
 10
11.9960604081
 20
7.9844500152
 30
0.0
 10
12.002846715
 20
7.9632104464
 30
0.0
 10
12.0082101509
 20
7.9419712899
 30
0.0
 10
12.0127783654
 20
7.9212880505
 30
0.0
 10
12.017533368
 20
7.8959580044
 30
0.0
 10
12.0225781264
 20
7.8663588107
 30
0.0
 10
12.0267056796
 20
7.8424758615
 30
0.0
 10
12.0301945806
 20
7.8241235684
 30
0.0
 10
12.0329227497
 20
7.8110228846
 30
0.0
 10
12.0358585601
 20
7.7984965703
 30
0.0
 10
12.0380643943
 20
7.7903916381
 30
0.0
 10
12.0392428513
 20
7.7864675615
 30
0.0
  0
SPLINE
  5
250
100
AcDbEntity
  8
0
100
AcDbSpline
 62
9
  6
CONTINUOUS
 70
0
 71
3
 72
18
 73
14
 74
0
 42
0.0000001
 43
0.0000001
 44
0.0000000001
 40
0.0
 40
0.0
 40
0.0
 40
0.0
 40
0.2442519011
 40
0.3088781891
 40
0.374233679
 40
0.4398923234
 40
0.5055037331
 40
0.6353994849
 40
0.6992939476
 40
0.7620782315
 40
0.8235755357
 40
0.8837817962
 40
1.0
 40
1.0
 40
1.0
 40
1.0
 10
11.94036528
 20
7.8352361378
 30
0.0
 10
11.9499607567
 20
7.8372216854
 30
0.0
 10
11.9625710997
 20
7.8380424202
 30
0.0
 10
11.9774675647
 20
7.8361319743
 30
0.0
 10
11.9851553969
 20
7.8345009436
 30
0.0
 10
11.9927153431
 20
7.8322135944
 30
0.0
 10
12.00244224
 20
7.8282894398
 30
0.0
 10
12.0114975789
 20
7.8230020517
 30
0.0
 10
12.0195366362
 20
7.8165531298
 30
0.0
 10
12.0249262294
 20
7.8112464229
 30
0.0
 10
12.0296154967
 20
7.8055000195
 30
0.0
 10
12.0348331186
 20
7.797493717
 30
0.0
 10
12.0377631863
 20
7.7909761949
 30
0.0
 10
12.0392060991
 20
7.7865427169
 30
0.0
  0
SPLINE
  5
251
100
AcDbEntity
  8
0
100
AcDbSpline
 62
9
  6
CONTINUOUS
 70
0
 71
3
 72
22
 73
18
 74
0
 42
0.0000001
 43
0.0000001
 44
0.0000000001
 40
0.0
 40
0.0
 40
0.0
 40
0.0
 40
0.1601898422
 40
0.2332789088
 40
0.3013479229
 40
0.3642457549
 40
0.4219103294
 40
0.474605227
 40
0.5231135225
 40
0.5688782165
 40
0.6140129728
 40
0.6611734651
 40
0.7131297611
 40
0.7720056621
 40
0.8390276384
 40
0.9149090419
 40
1.0
 40
1.0
 40
1.0
 40
1.0
 10
11.9403650029
 20
7.8352361162
 30
0.0
 10
11.9401315444
 20
7.8325428478
 30
0.0
 10
11.9399059049
 20
7.8286065534
 30
0.0
 10
11.939998112
 20
7.8235195173
 30
0.0
 10
11.9402742701
 20
7.8200841714
 30
0.0
 10
11.9407772064
 20
7.8169366327
 30
0.0
 10
11.9415300264
 20
7.8141046843
 30
0.0
 10
11.9425582927
 20
7.8116177298
 30
0.0
 10
11.9438940723
 20
7.8095094708
 30
0.0
 10
11.9455663951
 20
7.8078238958
 30
0.0
 10
11.9475883591
 20
7.8066150639
 30
0.0
 10
11.9499524756
 20
7.8059350157
 30
0.0
 10
11.9526363447
 20
7.8058169378
 30
0.0
 10
11.9556198877
 20
7.8062489327
 30
0.0
 10
11.9588942264
 20
7.8072160985
 30
0.0
 10
11.9624444653
 20
7.8087155646
 30
0.0
 10
11.9648444262
 20
7.8099955058
 30
0.0
 10
11.9660881801
 20
7.810713255
 30
0.0
  0
SPLINE
  5
252
100
AcDbEntity
  8
0
100
AcDbSpline
 62
9
  6
CONTINUOUS
 70
0
 71
3
 72
21
 73
17
 74
0
 42
0.0000001
 43
0.0000001
 44
0.0000000001
 40
0.0
 40
0.0
 40
0.0
 40
0.0
 40
0.0684184656
 40
0.102852996
 40
0.1373827201
 40
0.2064802837
 40
0.2756622287
 40
0.3444193304
 40
0.4124735551
 40
0.5454482999
 40
0.6727264658
 40
0.7924969737
 40
0.8489692867
 40
0.9026609201
 40
0.9531359227
 40
1.0
 40
1.0
 40
1.0
 40
1.0
 10
11.9549032045
 20
8.0063262273
 30
0.0
 10
11.9568947477
 20
8.0028768898
 30
0.0
 10
11.9592966437
 20
7.9973304101
 30
0.0
 10
11.9614223686
 20
7.9896154693
 30
0.0
 10
11.9629088976
 20
7.9817073891
 30
0.0
 10
11.9636472046
 20
7.97164298
 30
0.0
 10
11.9632392777
 20
7.9595845522
 30
0.0
 10
11.9620335211
 20
7.9476470371
 30
0.0
 10
11.9596820119
 20
7.9321140684
 30
0.0
 10
11.955918615
 20
7.9133685482
 30
0.0
 10
11.951041085
 20
7.8917907382
 30
0.0
 10
11.9471056805
 20
7.8745642992
 30
0.0
 10
11.9443659186
 20
7.8614614886
 30
0.0
 10
11.9426344668
 20
7.8522705846
 30
0.0
 10
11.9412582307
 20
7.8435852545
 30
0.0
 10
11.9406007446
 20
7.8379541096
 30
0.0
 10
11.940365015
 20
7.8352361174
 30
0.0
  0
SPLINE
  5
253
100
AcDbEntity
  8
0
100
AcDbSpline
 62
9
  6
CONTINUOUS
 70
0
 71
3
 72
21
 73
17
 74
0
 42
0.0000001
 43
0.0000001
 44
0.0000000001
 40
0.0
 40
0.0
 40
0.0
 40
0.0
 40
0.0468601814
 40
0.0973285529
 40
0.1510121271
 40
0.2074762653
 40
0.3272330641
 40
0.4544992447
 40
0.5874612854
 40
0.655510091
 40
0.7242691421
 40
0.7934650909
 40
0.8625839013
 40
0.8971251858
 40
0.9315702741
 40
1.0
 40
1.0
 40
1.0
 40
1.0
 10
11.7994657583
 20
8.0792808822
 30
0.0
 10
11.801937261
 20
8.0781261209
 30
0.0
 10
11.8071421307
 20
8.0758801467
 30
0.0
 10
11.8153509237
 20
8.0727296636
 30
0.0
 10
11.8241749267
 20
8.0696340916
 30
0.0
 10
11.8368904946
 20
8.0654558987
 30
0.0
 10
11.8537748161
 20
8.0602513751
 30
0.0
 10
11.8748983407
 20
8.0536871397
 30
0.0
 10
11.8930124496
 20
8.0475741272
 30
0.0
 10
11.9076393362
 20
8.0418446597
 30
0.0
 10
11.9185811747
 20
8.0369203934
 30
0.0
 10
11.9292306691
 20
8.0312448449
 30
0.0
 10
11.9375805801
 20
8.0255728091
 30
0.0
 10
11.9436881492
 20
8.0203301135
 30
0.0
 10
11.9493081759
 20
8.0146305276
 30
0.0
 10
11.9529115453
 20
8.0097762507
 30
0.0
 10
11.954903244
 20
8.0063262501
 30
0.0
  0
SPLINE
  5
254
100
AcDbEntity
  8
0
100
AcDbSpline
 62
9
  6
CONTINUOUS
 70
0
 71
3
 72
28
 73
24
 74
0
 42
0.0000001
 43
0.0000001
 44
0.0000000001
 40
0.0
 40
0.0
 40
0.0
 40
0.0
 40
0.0952738019
 40
0.1879671116
 40
0.2760895654
 40
0.3183642122
 40
0.3593795766
 40
0.4377506874
 40
0.4752417348
 40
0.5116432734
 40
0.5813059374
 40
0.6469344571
 40
0.7085174039
 40
0.765929128
 40
0.8189753815
 40
0.8673200722
 40
0.9102751823
 40
0.9295020919
 40
0.947110708
 40
0.9630242665
 40
0.9771782627
 40
0.9895091603
 40
1.0
 40
1.0
 40
1.0
 40
1.0
 10
11.4889913195
 20
7.7373318751
 30
0.0
 10
11.4853383421
 20
7.743658388
 30
0.0
 10
11.477207523
 20
7.755625654
 30
0.0
 10
11.4630858822
 20
7.7714712489
 30
0.0
 10
11.4501386138
 20
7.7827200304
 30
0.0
 10
11.4395238228
 20
7.7904789998
 30
0.0
 10
11.4291549995
 20
7.7972800383
 30
0.0
 10
11.4186370925
 20
7.8031571522
 30
0.0
 10
11.4080969387
 20
7.8081840523
 30
0.0
 10
11.3979832371
 20
7.8125353664
 30
0.0
 10
11.3856115442
 20
7.8170702652
 30
0.0
 10
11.3711225807
 20
7.8213402998
 30
0.0
 10
11.3573210929
 20
7.8245273981
 30
0.0
 10
11.3443113824
 20
7.8267531298
 30
0.0
 10
11.3322087997
 20
7.8281460245
 30
0.0
 10
11.3211572082
 20
7.8288359309
 30
0.0
 10
11.3126751088
 20
7.8288651267
 30
0.0
 10
11.3065643734
 20
7.8285336119
 30
0.0
 10
11.3025374635
 20
7.8281382528
 30
0.0
 10
11.2989210019
 20
7.8275913196
 30
0.0
 10
11.295741287
 20
7.8268988185
 30
0.0
 10
11.2930293574
 20
7.8260594749
 30
0.0
 10
11.2914255653
 20
7.8253381882
 30
0.0
 10
11.2907286581
 20
7.8249364329
 30
0.0
  0
SPLINE
  5
255
100
AcDbEntity
  8
0
100
AcDbSpline
 62
9
  6
CONTINUOUS
 70
0
 71
3
 72
21
 73
17
 74
0
 42
0.0000001
 43
0.0000001
 44
0.0000000001
 40
0.0
 40
0.0
 40
0.0
 40
0.0
 40
0.0468662109
 40
0.0973499924
 40
0.1510521262
 40
0.2075317768
 40
0.3272980019
 40
0.4545606165
 40
0.5875229113
 40
0.655570205
 40
0.7243235057
 40
0.7935080441
 40
0.8626120695
 40
0.897145517
 40
0.9315830013
 40
1.0
 40
1.0
 40
1.0
 40
1.0
 10
11.1882176216
 20
6.5324786305
 30
0.0
 10
11.1859815642
 20
6.5309153767
 30
0.0
 10
11.1814331544
 20
6.5275299384
 30
0.0
 10
11.1745986105
 20
6.5219946186
 30
0.0
 10
11.1675035629
 20
6.5158987365
 30
0.0
 10
11.1575254317
 20
6.5069741808
 30
0.0
 10
11.1445753235
 20
6.4949531108
 30
0.0
 10
11.128328737
 20
6.4799412259
 30
0.0
 10
11.1139776143
 20
6.4673109088
 30
0.0
 10
11.1017021547
 20
6.4575092254
 30
0.0
 10
11.0919671478
 20
6.4504966748
 30
0.0
 10
11.0817283136
 20
6.4441134901
 30
0.0
 10
11.0726427031
 20
6.4397198147
 30
0.0
 10
11.0650501424
 20
6.4370528205
 30
0.0
 10
11.0573056545
 20
6.4350362306
 30
0.0
 10
11.0513012351
 20
6.4343430273
 30
0.0
 10
11.0473183383
 20
6.4343431339
 30
0.0
  0
SPLINE
  5
256
100
AcDbEntity
  8
0
100
AcDbSpline
 62
9
  6
CONTINUOUS
 70
0
 71
3
 72
18
 73
14
 74
0
 42
0.0000001
 43
0.0000001
 44
0.0000000001
 40
0.0
 40
0.0
 40
0.0
 40
0.0
 40
0.2442531154
 40
0.3088797968
 40
0.3742356264
 40
0.4398945353
 40
0.5055061294
 40
0.6354019538
 40
0.6992962588
 40
0.7620802396
 40
0.823577153
 40
0.8837829773
 40
1.0
 40
1.0
 40
1.0
 40
1.0
 10
10.9064189377
 20
6.5324783827
 30
0.0
 10
10.9033406119
 20
6.5231753135
 30
0.0
 10
10.8977459227
 20
6.5118436291
 30
0.0
 10
10.8886426642
 20
6.499897786
 30
0.0
 10
10.883385923
 20
6.4940553014
 30
0.0
 10
10.8776247076
 20
6.4886517844
 30
0.0
 10
10.8693623632
 20
6.4821901069
 30
0.0
 10
10.8602551819
 20
6.4769917669
 30
0.0
 10
10.8506502544
 20
6.4732544579
 30
0.0
 10
10.8433593999
 20
6.4712405625
 30
0.0
 10
10.8360379625
 20
6.4700530893
 30
0.0
 10
10.8264952116
 20
6.4695381538
 30
0.0
 10
10.8193856938
 20
6.4702598434
 30
0.0
 10
10.8148246839
 20
6.4712273039
 30
0.0
  0
SPLINE
  5
257
100
AcDbEntity
  8
0
100
AcDbSpline
 62
9
  6
CONTINUOUS
 70
0
 71
3
 72
28
 73
24
 74
0
 42
0.0000001
 43
0.0000001
 44
0.0000000001
 40
0.0
 40
0.0
 40
0.0
 40
0.0
 40
0.0951787249
 40
0.1877243096
 40
0.2757722117
 40
0.3180343396
 40
0.3590490434
 40
0.4374432061
 40
0.4749511855
 40
0.5113694804
 40
0.5810651268
 40
0.6467275882
 40
0.7083452084
 40
0.7657912021
 40
0.81886998
 40
0.8672426074
 40
0.9102209101
 40
0.9294583587
 40
0.9470771378
 40
0.9630006764
 40
0.9771642942
 40
0.9895032424
 40
1.0
 40
1.0
 40
1.0
 40
1.0
 10
11.0473183383
 20
6.9723321278
 30
0.0
 10
11.0546164283
 20
6.9723321612
 30
0.0
 10
11.0690273411
 20
6.9733846028
 30
0.0
 10
11.0897874231
 20
6.9776840102
 30
0.0
 10
11.1059872309
 20
6.9832612872
 30
0.0
 10
11.1180101629
 20
6.9885665904
 30
0.0
 10
11.1290873769
 20
6.9941415022
 30
0.0
 10
11.1394408612
 20
7.0003095055
 30
0.0
 10
11.1490702154
 20
7.0069231802
 30
0.0
 10
11.1579014975
 20
7.0135065809
 30
0.0
 10
11.1680216313
 20
7.0219549729
 30
0.0
 10
11.1789719304
 20
7.0323707379
 30
0.0
 10
11.1886399435
 20
7.0427336802
 30
0.0
 10
11.1970788018
 20
7.0528922391
 30
0.0
 10
11.2043421277
 20
7.0626816576
 30
0.0
 10
11.2104700613
 20
7.0719122298
 30
0.0
 10
11.2147393181
 20
7.0792470856
 30
0.0
 10
11.2175095439
 20
7.0847076471
 30
0.0
 10
11.2191819561
 20
7.0883946865
 30
0.0
 10
11.2205178638
 20
7.091802007
 30
0.0
 10
11.2215094046
 20
7.0949037328
 30
0.0
 10
11.2221395554
 20
7.097673604
 30
0.0
 10
11.222317226
 20
7.0994242204
 30
0.0
 10
11.2223177936
 20
7.1002290879
 30
0.0
  0
SPLINE
  5
258
100
AcDbEntity
  8
0
100
AcDbSpline
 62
9
  6
CONTINUOUS
 70
0
 71
3
 72
28
 73
24
 74
0
 42
0.0000001
 43
0.0000001
 44
0.0000000001
 40
0.0
 40
0.0
 40
0.0
 40
0.0
 40
0.0104945286
 40
0.0228294544
 40
0.0369876121
 40
0.0529048259
 40
0.0705165132
 40
0.0897460529
 40
0.1327057831
 40
0.1810555108
 40
0.2341071662
 40
0.2915232928
 40
0.3531093094
 40
0.4187392533
 40
0.4884031056
 40
0.524806654
 40
0.5623011788
 40
0.6406756966
 40
0.6816859598
 40
0.7239501873
 40
0.812048237
 40
0.9047305474
 40
1.0
 40
1.0
 40
1.0
 40
1.0
 10
10.8039080629
 20
7.8249365896
 30
0.0
 10
10.8032108861
 20
7.8253384434
 30
0.0
 10
10.8016064906
 20
7.8260598442
 30
0.0
 10
10.7988936106
 20
7.8268992018
 30
0.0
 10
10.7957129406
 20
7.8275915783
 30
0.0
 10
10.7920956302
 20
7.8281384575
 30
0.0
 10
10.7880679965
 20
7.8285337765
 30
0.0
 10
10.7819564665
 20
7.8288652217
 30
0.0
 10
10.7734734232
 20
7.8288358667
 30
0.0
 10
10.7624207081
 20
7.828145369
 30
0.0
 10
10.7503170761
 20
7.8267516692
 30
0.0
 10
10.7373064912
 20
7.8245252248
 30
0.0
 10
10.7235044601
 20
7.8213374573
 30
0.0
 10
10.7090152334
 20
7.8170668002
 30
0.0
 10
10.6966433202
 20
7.8125314636
 30
0.0
 10
10.6865294035
 20
7.8081793486
 30
0.0
 10
10.6759890417
 20
7.8031513024
 30
0.0
 10
10.6654714033
 20
7.7972734604
 30
0.0
 10
10.6551035915
 20
7.7904725856
 30
0.0
 10
10.644491427
 20
7.7827152178
 30
0.0
 10
10.6315471977
 20
7.7714682946
 30
0.0
 10
10.6174282747
 20
7.7556244022
 30
0.0
 10
10.6092981784
 20
7.7436580912
 30
0.0
 10
10.6056454581
 20
7.7373318166
 30
0.0
  0
SPLINE
  5
259
100
AcDbEntity
  8
0
100
AcDbSpline
 62
9
  6
CONTINUOUS
 70
0
 71
3
 72
18
 73
14
 74
0
 42
0.0000001
 43
0.0000001
 44
0.0000000001
 40
0.0
 40
0.0
 40
0.0
 40
0.0
 40
0.1266957852
 40
0.2580512356
 40
0.3247428853
 40
0.3915597758
 40
0.4580581442
 40
0.5238486679
 40
0.6521061962
 40
0.7143346733
 40
0.7749528997
 40
0.8908310422
 40
1.0
 40
1.0
 40
1.0
 40
1.0
 10
11.1882177311
 20
6.5324783773
 30
0.0
 10
11.1898306396
 20
6.5276039756
 30
0.0
 10
11.1938615389
 20
6.5179083681
 30
0.0
 10
11.2007209655
 20
6.5066062752
 30
0.0
 10
11.2074188619
 20
6.4982037084
 30
0.0
 10
11.2130006903
 20
6.4923128847
 30
0.0
 10
11.2190514362
 20
6.4869574993
 30
0.0
 10
11.2275796657
 20
6.4807118265
 30
0.0
 10
11.2368428755
 20
6.4758384741
 30
0.0
 10
11.2464649382
 20
6.4724862232
 30
0.0
 10
11.2558903762
 20
6.4702365899
 30
0.0
 10
11.2675186612
 20
6.4693366607
 30
0.0
 10
11.2766364205
 20
6.4704825439
 30
0.0
 10
11.2809468452
 20
6.4714787698
 30
0.0
  0
SPLINE
  5
25A
100
AcDbEntity
  8
0
100
AcDbSpline
 62
9
  6
CONTINUOUS
 70
0
 71
3
 72
19
 73
15
 74
0
 42
0.0000001
 43
0.0000001
 44
0.0000000001
 40
0.0
 40
0.0
 40
0.0
 40
0.0
 40
0.0708730078
 40
0.1412466936
 40
0.27912309
 40
0.3464080557
 40
0.4125415133
 40
0.5413527619
 40
0.6654111005
 40
0.7841573102
 40
0.8411989208
 40
0.8964001053
 40
0.9494821569
 40
1.0
 40
1.0
 40
1.0
 40
1.0
 10
10.1156757
 20
8.0202159883
 30
0.0
 10
10.1127982131
 20
8.0152343903
 30
0.0
 10
10.1074696716
 20
8.0050660919
 30
0.0
 10
10.0984948156
 20
7.9842435354
 30
0.0
 10
10.0916927658
 20
7.9628819923
 30
0.0
 10
10.086321963
 20
7.9415253002
 30
0.0
 10
10.0817472683
 20
7.9207335187
 30
0.0
 10
10.0769834788
 20
7.895277201
 30
0.0
 10
10.071921306
 20
7.8655406868
 30
0.0
 10
10.067766967
 20
7.8415576329
 30
0.0
 10
10.064247495
 20
7.8231403049
 30
0.0
 10
10.0614897221
 20
7.8100057771
 30
0.0
 10
10.0585177202
 20
7.797461121
 30
0.0
 10
10.0562776291
 20
7.7893519345
 30
0.0
 10
10.0550796273
 20
7.7854301784
 30
0.0
  0
SPLINE
  5
25B
100
AcDbEntity
  8
0
100
AcDbSpline
 62
9
  6
CONTINUOUS
 70
0
 71
3
 72
19
 73
15
 74
0
 42
0.0000001
 43
0.0000001
 44
0.0000000001
 40
0.0
 40
0.0
 40
0.0
 40
0.0
 40
0.0707874617
 40
0.1410826961
 40
0.2788291483
 40
0.3460648821
 40
0.4121555939
 40
0.540902851
 40
0.6649379739
 40
0.7837207722
 40
0.8408127525
 40
0.8960979352
 40
0.9492997194
 40
1.0
 40
1.0
 40
1.0
 40
1.0
 10
11.0473183383
 20
6.4065636044
 30
0.0
 10
11.0415978201
 20
6.4065623172
 30
0.0
 10
11.0301917617
 20
6.4070274706
 30
0.0
 10
11.007793178
 20
6.4096356798
 30
0.0
 10
10.9860062188
 20
6.4143820692
 30
0.0
 10
10.9649304383
 20
6.4203561363
 30
0.0
 10
10.9447336478
 20
6.4267415798
 30
0.0
 10
10.9204192066
 20
6.4352888299
 30
0.0
 10
10.8922626731
 20
6.4457196978
 30
0.0
 10
10.8695152814
 20
6.4540866923
 30
0.0
 10
10.8518770281
 20
6.4602414213
 30
0.0
 10
10.8391672328
 20
6.464429049
 30
0.0
 10
10.8268510916
 20
6.4681496553
 30
0.0
 10
10.8187290139
 20
6.4702917089
 30
0.0
 10
10.8147414093
 20
6.4712331073
 30
0.0
  0
SPLINE
  5
25C
100
AcDbEntity
  8
0
100
AcDbSpline
 62
9
  6
CONTINUOUS
 70
0
 71
3
 72
22
 73
18
 74
0
 42
0.0000001
 43
0.0000001
 44
0.0000000001
 40
0.0
 40
0.0
 40
0.0
 40
0.0
 40
0.0851199258
 40
0.161023152
 40
0.2280601629
 40
0.2869449102
 40
0.33890365
 40
0.3860600114
 40
0.431186014
 40
0.4769393483
 40
0.5254348102
 40
0.5781160956
 40
0.6357678507
 40
0.698655719
 40
0.7667195134
 40
0.8398074593
 40
1.0
 40
1.0
 40
1.0
 40
1.0
 10
11.2223163588
 20
6.522454829
 30
0.0
 10
11.2223162223
 20
6.5238915245
 30
0.0
 10
11.2222249657
 20
6.526611187
 30
0.0
 10
11.2217486069
 20
6.5304372287
 30
0.0
 10
11.2209490855
 20
6.5337577927
 30
0.0
 10
11.2198314703
 20
6.5365585751
 30
0.0
 10
11.2183874248
 20
6.5388245281
 30
0.0
 10
11.216616642
 20
6.5405323748
 30
0.0
 10
11.2145590268
 20
6.5416793469
 30
0.0
 10
11.2122633979
 20
6.5422850749
 30
0.0
 10
11.2097699962
 20
6.5423880933
 30
0.0
 10
11.2071023182
 20
6.5420355078
 30
0.0
 10
11.2042734695
 20
6.5412718297
 30
0.0
 10
11.20129608
 20
6.540133821
 30
0.0
 10
11.1981826461
 20
6.5386553164
 30
0.0
 10
11.1937303984
 20
6.5361914045
 30
0.0
 10
11.1904337632
 20
6.5340275469
 30
0.0
 10
11.1882176827
 20
6.5324784946
 30
0.0
  0
SPLINE
  5
25D
100
AcDbEntity
  8
0
100
AcDbSpline
 62
9
  6
CONTINUOUS
 70
0
 71
3
 72
22
 73
18
 74
0
 42
0.0000001
 43
0.0000001
 44
0.0000000001
 40
0.0
 40
0.0
 40
0.0
 40
0.0
 40
0.1601890876
 40
0.2332789506
 40
0.3013490482
 40
0.3642479875
 40
0.421913615
 40
0.4746094332
 40
0.5231184155
 40
0.5688834696
 40
0.6140182136
 40
0.661178384
 40
0.7131342333
 40
0.7720097248
 40
0.8390310833
 40
0.9149112484
 40
1.0
 40
1.0
 40
1.0
 40
1.0
 10
10.9064190523
 20
6.5324786247
 30
0.0
 10
10.9042033678
 20
6.5340274141
 30
0.0
 10
10.9009072828
 20
6.5361909509
 30
0.0
 10
10.8964557083
 20
6.5386546234
 30
0.0
 10
10.8933425234
 20
6.5401331678
 30
0.0
 10
10.8903651908
 20
6.5412714184
 30
0.0
 10
10.8875362246
 20
6.5420354734
 30
0.0
 10
10.8848683098
 20
6.5423884935
 30
0.0
 10
10.8823746002
 20
6.5422858597
 30
0.0
 10
10.8800786744
 20
6.5416804342
 30
0.0
 10
10.8780208007
 20
6.5405338381
 30
0.0
 10
10.8762497962
 20
6.5388265305
 30
0.0
 10
10.8748056106
 20
6.5365613137
 30
0.0
 10
10.8736879807
 20
6.5337615365
 30
0.0
 10
10.8728884187
 20
6.5304423581
 30
0.0
 10
10.8724118761
 20
6.5266181298
 30
0.0
 10
10.8723203414
 20
6.5238998137
 30
0.0
 10
10.8723200443
 20
6.5224638658
 30
0.0
  0
ENDSEC
  0
SECTION
  2
OBJECTS
  0
DICTIONARY
  5
C
100
AcDbDictionary
280
0
281
1
  3
ACAD_GROUP
350
D
  3
ACAD_MLINESTYLE
350
17
  3
ACAD_LAYOUT
350
1A
  3
ACAD_PLOTSETTINGS
350
19
  3
ACAD_PLOTSTYLENAME
350
E
  0
DICTIONARY
  5
D
102
{ACAD_REACTORS
330
C
102
}
100
AcDbDictionary
280
0
281
1
  0
ACDBDICTIONARYWDFLT
  5
E
102
{ACAD_REACTORS
330
C
102
}
100
AcDbDictionary
281
1
  3
Normal
350
F
100
AcDbDictionaryWithDefault
340
F
  0
DICTIONARY
  5
17
102
{ACAD_REACTORS
330
C
102
}
100
AcDbDictionary
280
0
281
1
  3
Standard
350
18
  0
DICTIONARY
  5
19
102
{ACAD_REACTORS
330
C
102
}
100
AcDbDictionary
281
1
  0
DICTIONARY
  5
1A
102
{ACAD_REACTORS
330
C
102
}
100
AcDbDictionary
281
1
  3
Model
350
25E
  3
Layout1
350
25F
  0
ACDBPLACEHOLDER
  5
F
102
{ACAD_REACTORS
330
E
102
}
  0
MLINESTYLE
  5
18
102
{ACAD_REACTORS
330
17
102
}
100
AcDbMlineStyle
  2
STANDARD
 70
0
  3

 62
256
 51
90.0
 52
90.0
 71
2
 49
0.5
 62
256
  6
BYLAYER
 49
-0.5
 62
256
  6
BYLAYER
  0
LAYOUT
  5
25E
102
{ACAD_REACTORS
330
1A
102
}
100
AcDbPlotSettings
  1

  2
none_device
  4
ANSI_C_(22.00_x_17.00_Inches)
  6

 40
0.0
 41
0.0
 42
0.0
 43
0.0
 44
558.8
 45
431.8
 46
0.0
 47
0.0
 48
0.0
 49
0.0
140
0.0
141
0.0
142
1.0
143
1.0
 70
1024
 72
0
 73
0
 74
0
  7

 75
0
147
1.0
148
0.0
149
0.0
100
AcDbLayout
  1
Model
 70
0
 71
0
 10
0.0
 20
0.0
 11
22.0
 21
17.0
 12
0.0
 22
0.0
 32
0.0
 14
0.0
 24
0.0
 34
0.0
 15
0.0
 25
0.0
 35
0.0
146
0.0
 13
0.0
 23
0.0
 33
0.0
 16
1.0
 26
0.0
 36
0.0
 17
0.0
 27
1.0
 37
0.0
 76
0
330
202
345
0
346
0
  0
LAYOUT
  5
25F
102
{ACAD_REACTORS
330
1A
102
}
100
AcDbPlotSettings
  1

  2
none_device
  4
ANSI_C_(22.00_x_17.00_Inches)
  6

 40
0.0
 41
0.0
 42
0.0
 43
0.0
 44
558.8
 45
431.8
 46
0.0
 47
0.0
 48
0.0
 49
0.0
140
0.0
141
0.0
142
1.0
143
1.0
 70
0
 72
0
 73
0
 74
0
  7

 75
0
147
1.0
148
0.0
149
0.0
100
AcDbLayout
  1
Layout1
 70
0
 71
1
 10
0.0
 20
0.0
 11
22.0
 21
17.0
 12
0.0
 22
0.0
 32
0.0
 14
0.0
 24
0.0
 34
0.0
 15
0.0
 25
0.0
 35
0.0
146
0.0
 13
0.0
 23
0.0
 33
0.0
 16
1.0
 26
0.0
 36
0.0
 17
0.0
 27
1.0
 37
0.0
 76
0
330
203
345
0
346
0
  0
ENDSEC
  0
EOF
