999
DXF file: E:\BT Custom\CADOUTPUT\_RIGHT.dxf
999
Pro/ENGINEER 2018400 by Parametric Technology Corporation
  0
SECTION
  2
HEADER
  9
$ACADVER
  1
AC1018
  9
$DWGCODEPAGE
  3
ANSI_1252
  9
$EXTMAX
 10
22.0
 20
17.0
 30
0.0
  9
$EXTMIN
 10
0.0
 20
0.0
 30
0.0
  9
$LIMMIN
 10
0.0
 20
0.0
  9
$LIMMAX
 10
22.0
 20
17.0
  9
$VIEWCTR
 10
11.0
 20
8.5
  9
$VIEWSIZE
 40
17.0
  9
$CLAYER
  8
0
  9
$LTSCALE
 40
1.21
  9
$CELTYPE
  6
BYLAYER
  9
$DIMSCALE
 40
1.0
  9
$DIMASZ
 40
0.1
  9
$DIMEXO
 40
0.0625
  9
$DIMDLI
 40
0.836
  9
$DIMEXE
 40
0.125
  9
$DIMCEN
 40
0.198
  9
$DIMLFAC
 40
1.0
  9
$DIMBLK
  1
_FILLED
  9
$DIMALT
 70
1
  9
$DIMALTD
 70
2
  9
$DIMALTTD
 70
2
  9
$DIMALTF
 40
25.4
  9
$DIMTXT
 40
0.08
  9
$DIMTOL
 70
1
  9
$DIMLIM
 70
0
  9
$DIMTFAC
 40
1.0
  9
$DIMTP
 40
0.001
  9
$DIMTM
 40
0.001
  9
$DIMGAP
 40
0.09
  9
$DIMDSEP
 70
46
  9
$AUNITS
 70
0
  9
$PDMODE
 70
3
  9
$PDSIZE
 40
0.06
  9
$HANDSEED
  5
250
  9
$TILEMODE
 70
1
  9
$MEASUREMENT
 70
0
  9
$INSUNITS
 70
1
  0
ENDSEC
  0
SECTION
  2
CLASSES
  0
CLASS
  1
ACDBDICTIONARYWDFLT
  2
AcDbDictionaryWithDefault
  3
AutoCAD 2000
 90
0
 91
1
280
0
281
0
  0
CLASS
  1
ACDBPLACEHOLDER
  2
AcDbPlaceHolder
  3
AutoCAD 2000
 90
0
 91
1
280
0
281
0
  0
CLASS
  1
LAYOUT
  2
AcDbLayout
  3
AutoCAD 2000
 90
0
 91
0
280
0
281
0
  0
ENDSEC
  0
SECTION
  2
TABLES
  0
TABLE
  2
VPORT
  5
8
100
AcDbSymbolTable
 70
2
  0
VPORT
  5
1F4
100
AcDbSymbolTableRecord
100
AcDbViewportTableRecord
  2
*ACTIVE
 70
0
 10
0.0
 20
0.0
 11
1.0
 21
1.0
 12
11.0
 22
8.5
 13
0.0
 23
0.0
 14
1.0
 24
1.0
 15
0.0
 25
0.0
 16
0.0
 26
0.0
 36
1.0
 17
0.0
 27
0.0
 37
0.0
 40
17.0
 41
1.2941176471
 42
50.0
 43
0.0
 44
0.0
 50
0.0
 51
0.0
 71
0
 72
100
 73
1
 74
1
 75
0
 76
0
 77
0
 78
0
  0
ENDTAB
  0
TABLE
  2
LTYPE
  5
5
100
AcDbSymbolTable
 70
6
  0
LTYPE
  5
14
100
AcDbSymbolTableRecord
100
AcDbLinetypeTableRecord
  2
BYBLOCK
 70
0
  3

 72
65
 73
0
 40
0.0
  0
LTYPE
  5
15
100
AcDbSymbolTableRecord
100
AcDbLinetypeTableRecord
  2
BYLAYER
 70
0
  3

 72
65
 73
0
 40
0.0
  0
LTYPE
  5
16
100
AcDbSymbolTableRecord
100
AcDbLinetypeTableRecord
  2
CONTINUOUS
 70
64
  3
Solid line
 72
65
 73
0
 40
0.0
  0
LTYPE
  5
1F5
100
AcDbSymbolTableRecord
100
AcDbLinetypeTableRecord
  2
CENTER
 70
64
  3
____ _ ____ _ ____ _ ____ _ ____ _ ____ _ ____
 72
65
 73
4
 40
0.6
 49
0.375
 74
0
 49
-0.075
 74
0
 49
0.075
 74
0
 49
-0.075
 74
0
  0
LTYPE
  5
1F6
100
AcDbSymbolTableRecord
100
AcDbLinetypeTableRecord
  2
HIDDEN
 70
64
  3
- - - - - - - - - - - - - - - - - - - -
 72
65
 73
2
 40
0.2
 49
0.1
 74
0
 49
-0.1
 74
0
  0
LTYPE
  5
1F7
100
AcDbSymbolTableRecord
100
AcDbLinetypeTableRecord
  2
PHANTOM
 70
64
  3
_____ _ _ _____ _ _ _____ _ _ _____
 72
65
 73
6
 40
0.8
 49
0.45
 74
0
 49
-0.05
 74
0
 49
0.1
 74
0
 49
-0.05
 74
0
 49
0.1
 74
0
 49
-0.05
 74
0
  0
LTYPE
  5
1F8
100
AcDbSymbolTableRecord
100
AcDbLinetypeTableRecord
  2
DOT
 70
64
  3
. . . . . . . . . . . . . . . . . . . .
 72
65
 73
2
 40
0.2
 49
0.1
 74
0
 49
-0.1
 74
0
  0
LTYPE
  5
1F9
100
AcDbSymbolTableRecord
100
AcDbLinetypeTableRecord
  2
DASHED
 70
64
  3
- - - - - - - - - - - - - - - - - - - -
 72
65
 73
2
 40
0.2
 49
0.1
 74
0
 49
-0.1
 74
0
  0
ENDTAB
  0
TABLE
  2
LAYER
  5
2
100
AcDbSymbolTable
 70
36
  0
LAYER
  5
10
100
AcDbSymbolTableRecord
100
AcDbLayerTableRecord
  2
0
 70
0
 62
7
  6
CONTINUOUS
370
-3
390
F
  0
LAYER
  5
1FA
100
AcDbSymbolTableRecord
100
AcDbLayerTableRecord
  2
DEFAULT_1
 70
0
 62
7
  6
CENTER
370
-3
390
F
  0
LAYER
  5
1FB
100
AcDbSymbolTableRecord
100
AcDbLayerTableRecord
  2
DEFAULT_2
 70
0
 62
8
  6
HIDDEN
370
-3
390
F
  0
LAYER
  5
1FC
100
AcDbSymbolTableRecord
100
AcDbLayerTableRecord
  2
DEFAULT_3
 70
0
 62
7
  6
PHANTOM
370
-3
390
F
  0
LAYER
  5
1FD
100
AcDbSymbolTableRecord
100
AcDbLayerTableRecord
  2
ALL_FEATURES
 70
0
 62
7
  6
CONTINUOUS
370
-3
390
F
  0
LAYER
  5
1FE
100
AcDbSymbolTableRecord
100
AcDbLayerTableRecord
  2
AXES_FEATURES
 70
0
 62
7
  6
CONTINUOUS
370
-3
390
F
  0
LAYER
  5
1FF
100
AcDbSymbolTableRecord
100
AcDbLayerTableRecord
  2
DIMENSIONS
 70
0
 62
7
  6
CONTINUOUS
370
-3
390
F
  0
ENDTAB
  0
TABLE
  2
STYLE
  5
3
100
AcDbSymbolTable
 70
1
  0
STYLE
  5
11
100
AcDbSymbolTableRecord
100
AcDbTextStyleTableRecord
  2
STANDARD
 70
0
 40
0.0
 41
0.8
 50
0.0
 71
0
 42
0.2
  3
txt
  4

  0
STYLE
  5
200
100
AcDbSymbolTableRecord
100
AcDbTextStyleTableRecord
  2
TEXTSTYLE_1
 70
0
 40
0.0
 41
0.8
 50
0.0
 71
0
 42
0.2
  3
gdt
  4

  0
ENDTAB
  0
TABLE
  2
VIEW
  5
6
100
AcDbSymbolTable
 70
0
  0
ENDTAB
  0
TABLE
  2
UCS
  5
7
100
AcDbSymbolTable
 70
0
  0
ENDTAB
  0
TABLE
  2
APPID
  5
9
100
AcDbSymbolTable
 70
1
  0
APPID
  5
201
100
AcDbSymbolTableRecord
100
AcDbRegAppTableRecord
  2
ACAD
 70
0
  0
ENDTAB
  0
TABLE
  2
BLOCK_RECORD
  5
1
100
AcDbSymbolTable
 70
0
  0
BLOCK_RECORD
  5
202
100
AcDbSymbolTableRecord
100
AcDbBlockTableRecord
  2
*Model_Space
  0
BLOCK_RECORD
  5
203
100
AcDbSymbolTableRecord
100
AcDbBlockTableRecord
  2
*Paper_Space
  0
BLOCK_RECORD
  5
204
100
AcDbSymbolTableRecord
100
AcDbBlockTableRecord
  2
_FILLED
  0
ENDTAB
  0
TABLE
  2
DIMSTYLE
  5
A
100
AcDbSymbolTable
 70
1
100
AcDbDimStyleTable
 71
0
  0
DIMSTYLE
105
205
100
AcDbSymbolTableRecord
100
AcDbDimStyleTableRecord
  2
STANDARD
 70
0
  3

  4

 40
1.0
 41
0.1
 42
0.0625
 43
0.38
 44
0.125
 45
0.0
 46
0.0
 47
0.001
 48
0.001
140
0.08
141
0.09
142
0.0
143
25.4
144
1.0
145
0.0
146
1.0
147
0.09
 71
1.0
 72
0.0
 73
1
 74
1
 75
0
 76
0
 77
0
 78
4
 79
1
170
1
171
2
172
0
173
0
174
0
175
0
176
0
177
0
178
0
270
2
179
3
271
3
272
3
273
2
274
2
275
0
280
0
281
0
282
0
283
1
284
4
285
0
286
0
287
3
288
0
340
11
278
46
341
204
342
204
343
204
344
204
  0
ENDTAB
  0
ENDSEC
  0
SECTION
  2
BLOCKS
  0
BLOCK
  5
20
100
AcDbEntity
  8
0
100
AcDbBlockBegin
  2
*Model_Space
 70
0
 10
0.0
 20
0.0
 30
0.0
  3
*Model_Space
  1

  0
ENDBLK
  5
21
100
AcDbEntity
  8
0
100
AcDbBlockEnd
  0
BLOCK
  5
1C
100
AcDbEntity
  8
0
100
AcDbBlockBegin
  2
*Paper_Space
 70
0
 10
0.0
 20
0.0
 30
0.0
  3
*Paper_Space
  1

  0
ENDBLK
  5
1D
100
AcDbEntity
  8
0
100
AcDbBlockEnd
  0
BLOCK
  5
206
100
AcDbEntity
  8
0
100
AcDbBlockBegin
  2
_FILLED
 70
64
 10
0.0
 20
0.0
  3
_FILLED
  1

  0
SOLID
  5
207
100
AcDbEntity
  8
0
  6
BYBLOCK
 62
0
100
AcDbTrace
 10
0.0
 20
0.0
 11
-1.0
 21
0.2
 12
-1.0
 22
-0.2
 13
-1.0
 23
-0.2
  0
ENDBLK
  5
208
100
AcDbEntity
  8
0
  6
BYBLOCK
 62
0
100
AcDbBlockEnd
  0
ENDSEC
  0
SECTION
  2
ENTITIES
  0
LINE
  5
209
100
AcDbEntity
  8
0
100
AcDbLine
 62
7
  6
CONTINUOUS
 10
9.2669834891
 20
10.099891804
 11
9.2669834891
 21
10.414891804
  0
LINE
  5
20A
100
AcDbEntity
  8
0
100
AcDbLine
 62
9
  6
CONTINUOUS
 10
9.2954134103
 20
10.414891804
 11
9.2954134102
 21
10.099891804
  0
LINE
  5
20B
100
AcDbEntity
  8
0
100
AcDbLine
 62
7
  6
CONTINUOUS
 10
9.609998003
 20
7.574891804
 11
11.8099689753
 21
7.574891804
  0
LINE
  5
20C
100
AcDbEntity
  8
0
100
AcDbLine
 62
9
  6
CONTINUOUS
 10
11.8099834891
 20
7.731891804
 11
9.6099834891
 21
7.731891804
  0
LINE
  5
20D
100
AcDbEntity
  8
0
100
AcDbLine
 62
7
  6
CONTINUOUS
 10
11.7799692594
 20
7.761891804
 11
9.6399977189
 21
7.761891804
  0
LINE
  5
20E
100
AcDbEntity
  8
0
100
AcDbLine
 62
7
  6
CONTINUOUS
 10
9.9599956399
 20
7.771891804
 11
11.4599713383
 21
7.771891804
  0
LINE
  5
20F
100
AcDbEntity
  8
0
100
AcDbLine
 62
7
  6
CONTINUOUS
 10
9.6099834891
 20
7.574891804
 11
9.6099834891
 21
7.731891804
  0
LINE
  5
210
100
AcDbEntity
  8
0
100
AcDbLine
 62
9
  6
CONTINUOUS
 10
11.4599834891
 20
7.8185657491
 11
9.9599834891
 21
7.8185657491
  0
LINE
  5
211
100
AcDbEntity
  8
0
100
AcDbLine
 62
9
  6
CONTINUOUS
 10
11.4331373026
 20
7.8563411008
 11
9.9868296757
 21
7.8563411008
  0
LINE
  5
212
100
AcDbEntity
  8
0
100
AcDbLine
 62
9
  6
CONTINUOUS
 10
10.0404733149
 20
7.9290998443
 11
11.3794936634
 21
7.9290998443
  0
LINE
  5
213
100
AcDbEntity
  8
0
100
AcDbLine
 62
7
  6
CONTINUOUS
 10
9.9599834891
 20
7.8185657491
 11
9.9599834891
 21
7.771891804
  0
LINE
  5
214
100
AcDbEntity
  8
0
100
AcDbLine
 62
7
  6
CONTINUOUS
 10
10.0724834891
 20
7.761891804
 11
10.0724834891
 21
7.771891804
  0
LINE
  5
215
100
AcDbEntity
  8
0
100
AcDbLine
 62
7
  6
CONTINUOUS
 10
10.098474745
 20
9.5900434874
 11
10.0404733149
 21
7.9290998443
  0
LINE
  5
216
100
AcDbEntity
  8
0
100
AcDbLine
 62
9
  6
CONTINUOUS
 10
10.3024312729
 20
10.099891804
 11
10.3024312728
 21
10.414891804
  0
LINE
  5
217
100
AcDbEntity
  8
0
100
AcDbLine
 62
7
  6
CONTINUOUS
 10
10.3974834891
 20
10.029891804
 11
10.3974834891
 21
9.652891804
  0
LINE
  5
218
100
AcDbEntity
  8
0
100
AcDbLine
 62
9
  6
CONTINUOUS
 10
10.4207179702
 20
10.414891804
 11
10.4207179702
 21
10.099891804
  0
LINE
  5
219
100
AcDbEntity
  8
0
100
AcDbLine
 62
7
  6
CONTINUOUS
 10
10.4474834891
 20
9.652891804
 11
10.4474834891
 21
9.621891804
  0
LINE
  5
21A
100
AcDbEntity
  8
0
100
AcDbLine
 62
9
  6
CONTINUOUS
 10
10.4734935401
 20
10.099891804
 11
10.4734935401
 21
10.414891804
  0
LINE
  5
21B
100
AcDbEntity
  8
0
100
AcDbLine
 62
9
  6
CONTINUOUS
 10
10.5034524261
 20
10.444891804
 11
10.5034524261
 21
10.069891804
  0
LINE
  5
21C
100
AcDbEntity
  8
0
100
AcDbLine
 62
9
  6
CONTINUOUS
 10
10.9165145521
 20
10.069891804
 11
10.9165145521
 21
10.444891804
  0
LINE
  5
21D
100
AcDbEntity
  8
0
100
AcDbLine
 62
9
  6
CONTINUOUS
 10
10.9464734382
 20
10.414891804
 11
10.9464734382
 21
10.099891804
  0
LINE
  5
21E
100
AcDbEntity
  8
0
100
AcDbLine
 62
7
  6
CONTINUOUS
 10
10.9724834891
 20
9.652891804
 11
10.9724834891
 21
9.621891804
  0
LINE
  5
21F
100
AcDbEntity
  8
0
100
AcDbLine
 62
9
  6
CONTINUOUS
 10
10.999249008
 20
10.099891804
 11
10.999249008
 21
10.414891804
  0
LINE
  5
220
100
AcDbEntity
  8
0
100
AcDbLine
 62
7
  6
CONTINUOUS
 10
11.0224834891
 20
10.029891804
 11
11.0224834891
 21
9.652891804
  0
LINE
  5
221
100
AcDbEntity
  8
0
100
AcDbLine
 62
9
  6
CONTINUOUS
 10
11.1175357054
 20
10.414891804
 11
11.1175357055
 21
10.099891804
  0
LINE
  5
222
100
AcDbEntity
  8
0
100
AcDbLine
 62
7
  6
CONTINUOUS
 10
11.3214922333
 20
9.5900434874
 11
11.3794936634
 21
7.9290998443
  0
LINE
  5
223
100
AcDbEntity
  8
0
100
AcDbLine
 62
7
  6
CONTINUOUS
 10
11.3474834891
 20
7.761891804
 11
11.3474834891
 21
7.771891804
  0
LINE
  5
224
100
AcDbEntity
  8
0
100
AcDbLine
 62
9
  6
CONTINUOUS
 10
11.3214922333
 20
9.5900434874
 11
10.098474745
 21
9.5900434874
  0
LINE
  5
225
100
AcDbEntity
  8
0
100
AcDbLine
 62
7
  6
CONTINUOUS
 10
11.2885112691
 20
9.621891804
 11
10.1314557092
 21
9.621891804
  0
LINE
  5
226
100
AcDbEntity
  8
0
100
AcDbLine
 62
7
  6
CONTINUOUS
 10
10.3974834891
 20
9.652891804
 11
11.0224834891
 21
9.652891804
  0
LINE
  5
227
100
AcDbEntity
  8
0
100
AcDbLine
 62
7
  6
CONTINUOUS
 10
11.4599834891
 20
7.8185657491
 11
11.4599834891
 21
7.771891804
  0
LINE
  5
228
100
AcDbEntity
  8
0
100
AcDbLine
 62
7
  6
CONTINUOUS
 10
11.8099834891
 20
7.574891804
 11
11.8099834891
 21
7.731891804
  0
LINE
  5
229
100
AcDbEntity
  8
0
100
AcDbLine
 62
9
  6
CONTINUOUS
 10
11.0224834891
 20
10.029891804
 11
10.3975506084
 21
10.029891804
  0
LINE
  5
22A
100
AcDbEntity
  8
0
100
AcDbLine
 62
7
  6
CONTINUOUS
 10
9.2969834891
 20
10.069891804
 11
12.1229834891
 21
10.069891804
  0
LINE
  5
22B
100
AcDbEntity
  8
0
100
AcDbLine
 62
9
  6
CONTINUOUS
 10
9.2669834891
 20
10.099891804
 11
12.1529834891
 21
10.099891804
  0
LINE
  5
22C
100
AcDbEntity
  8
0
100
AcDbLine
 62
9
  6
CONTINUOUS
 10
12.1245535679
 20
10.099891804
 11
12.1245535679
 21
10.414891804
  0
LINE
  5
22D
100
AcDbEntity
  8
0
100
AcDbLine
 62
7
  6
CONTINUOUS
 10
12.1529834891
 20
10.414891804
 11
12.1529834891
 21
10.099891804
  0
LINE
  5
22E
100
AcDbEntity
  8
0
100
AcDbLine
 62
9
  6
CONTINUOUS
 10
12.1529834891
 20
10.414891804
 11
9.2669834891
 21
10.414891804
  0
LINE
  5
22F
100
AcDbEntity
  8
0
100
AcDbLine
 62
7
  6
CONTINUOUS
 10
9.2969834891
 20
10.444891804
 11
12.1229834891
 21
10.444891804
  0
ARC
  5
230
100
AcDbEntity
  8
0
100
AcDbCircle
 62
7
  6
CONTINUOUS
 10
9.9605220487
 20
7.931891804
 40
0.08
100
AcDbArc
 50
289.1987071253
 51
358.0
  0
ARC
  5
231
100
AcDbEntity
  8
0
100
AcDbCircle
 62
7
  6
CONTINUOUS
 10
9.9999834891
 20
7.8185657491
 40
0.04
100
AcDbArc
 50
109.1987071253
 51
180.0
  0
ARC
  5
232
100
AcDbEntity
  8
0
100
AcDbCircle
 62
7
  6
CONTINUOUS
 10
9.6399834891
 20
7.731891804
 40
0.03
100
AcDbArc
 50
90.0
 51
180.0
  0
ARC
  5
233
100
AcDbEntity
  8
0
100
AcDbCircle
 62
7
  6
CONTINUOUS
 10
10.3574834891
 20
10.029891804
 40
0.04
100
AcDbArc
 50
0.0
 51
90.0
  0
ARC
  5
234
100
AcDbEntity
  8
0
100
AcDbCircle
 62
7
  6
CONTINUOUS
 10
10.1314546423
 20
9.588891804
 40
0.033
100
AcDbArc
 50
90.0
 51
178.0
  0
ARC
  5
235
100
AcDbEntity
  8
0
100
AcDbCircle
 62
7
  6
CONTINUOUS
 10
9.2969834891
 20
10.414891804
 40
0.03
100
AcDbArc
 50
90.0
 51
180.0
  0
ARC
  5
236
100
AcDbEntity
  8
0
100
AcDbCircle
 62
7
  6
CONTINUOUS
 10
9.2969834891
 20
10.099891804
 40
0.03
100
AcDbArc
 50
180.0
 51
270.0
  0
ARC
  5
237
100
AcDbEntity
  8
0
100
AcDbCircle
 62
9
  6
CONTINUOUS
 10
10.5034751819
 20
10.4149148773
 40
0.0299788069
100
AcDbArc
 50
90.0434938118
 51
180.0440936247
  0
ARC
  5
238
100
AcDbEntity
  8
0
100
AcDbCircle
 62
9
  6
CONTINUOUS
 10
10.450699612
 20
10.4149148774
 40
0.0299788067
100
AcDbArc
 50
90.0434936966
 51
180.0440938456
  0
ARC
  5
239
100
AcDbEntity
  8
0
100
AcDbCircle
 62
9
  6
CONTINUOUS
 10
10.5034751802
 20
10.0998687311
 40
0.0299788058
100
AcDbArc
 50
179.9559069398
 51
269.9565094195
  0
ARC
  5
23A
100
AcDbEntity
  8
0
100
AcDbCircle
 62
9
  6
CONTINUOUS
 10
10.4506996103
 20
10.099868731
 40
0.0299788057
100
AcDbArc
 50
179.9559066975
 51
269.9565095353
  0
ARC
  5
23B
100
AcDbEntity
  8
0
100
AcDbCircle
 62
7
  6
CONTINUOUS
 10
11.4594449296
 20
7.931891804
 40
0.08
100
AcDbArc
 50
182.0
 51
250.8012928747
  0
ARC
  5
23C
100
AcDbEntity
  8
0
100
AcDbCircle
 62
7
  6
CONTINUOUS
 10
11.4199834891
 20
7.8185657491
 40
0.04
100
AcDbArc
 50
0.0
 51
70.8012928747
  0
ARC
  5
23D
100
AcDbEntity
  8
0
100
AcDbCircle
 62
7
  6
CONTINUOUS
 10
11.7799834891
 20
7.731891804
 40
0.03
100
AcDbArc
 50
0.0
 51
90.0
  0
ARC
  5
23E
100
AcDbEntity
  8
0
100
AcDbCircle
 62
7
  6
CONTINUOUS
 10
11.0624834891
 20
10.029891804
 40
0.04
100
AcDbArc
 50
90.0
 51
180.0
  0
ARC
  5
23F
100
AcDbEntity
  8
0
100
AcDbCircle
 62
7
  6
CONTINUOUS
 10
11.288512336
 20
9.588891804
 40
0.033
100
AcDbArc
 50
2.0
 51
90.0
  0
ARC
  5
240
100
AcDbEntity
  8
0
100
AcDbCircle
 62
7
  6
CONTINUOUS
 10
12.1229834891
 20
10.414891804
 40
0.03
100
AcDbArc
 50
0.0
 51
90.0
  0
ARC
  5
241
100
AcDbEntity
  8
0
100
AcDbCircle
 62
7
  6
CONTINUOUS
 10
12.1229834891
 20
10.099891804
 40
0.03
100
AcDbArc
 50
270.0
 51
360.0
  0
ARC
  5
242
100
AcDbEntity
  8
0
100
AcDbCircle
 62
9
  6
CONTINUOUS
 10
10.9164917944
 20
10.414914878
 40
0.029978808
100
AcDbArc
 50
359.9559050455
 51
89.9565023927
  0
ARC
  5
243
100
AcDbEntity
  8
0
100
AcDbCircle
 62
9
  6
CONTINUOUS
 10
10.9692673642
 20
10.414914878
 40
0.029978808
100
AcDbArc
 50
359.9559050527
 51
89.9565024357
  0
ARC
  5
244
100
AcDbEntity
  8
0
100
AcDbCircle
 62
9
  6
CONTINUOUS
 10
10.9164917981
 20
10.099868731
 40
0.0299788057
100
AcDbArc
 50
270.0434904667
 51
0.0440933008
  0
ARC
  5
245
100
AcDbEntity
  8
0
100
AcDbCircle
 62
9
  6
CONTINUOUS
 10
10.969267368
 20
10.099868731
 40
0.0299788057
100
AcDbArc
 50
270.0434904659
 51
0.0440933014
  0
SPLINE
  5
246
100
AcDbEntity
  8
0
100
AcDbSpline
 62
9
  6
CONTINUOUS
 70
0
 71
3
 72
23
 73
19
 74
0
 42
0.0000001
 43
0.0000001
 44
0.0000000001
 40
0.0
 40
0.0
 40
0.0
 40
0.0
 40
0.0028179108
 40
0.0072303708
 40
0.0137301163
 40
0.0224482426
 40
0.033424751
 40
0.0466693708
 40
0.0799200804
 40
0.1219266501
 40
0.172295557
 40
0.2306091615
 40
0.2963063149
 40
0.3687167268
 40
0.4471639715
 40
0.619202416
 40
0.8060680608
 40
1.0
 40
1.0
 40
1.0
 40
1.0
 10
9.2969834891
 20
10.444891804
 30
0.0
 10
9.2969551653
 20
10.444891804
 30
0.0
 10
9.2968868022
 20
10.4448490831
 30
0.0
 10
9.2968170906
 20
10.4447297874
 30
0.0
 10
9.2967421098
 20
10.4445465165
 30
0.0
 10
9.2966690536
 20
10.4442933491
 30
0.0
 10
9.2965950093
 20
10.4439705323
 30
0.0
 10
9.2964892763
 20
10.4434025011
 30
0.0
 10
9.2963656995
 20
10.4425212153
 30
0.0
 10
9.2962300566
 20
10.4412657196
 30
0.0
 10
9.2961005897
 20
10.4397565245
 30
0.0
 10
9.2959788973
 20
10.4380079481
 30
0.0
 10
9.2958663435
 20
10.4360368138
 30
0.0
 10
9.2957639904
 20
10.4338625176
 30
0.0
 10
9.2956390273
 20
10.4306193426
 30
0.0
 10
9.2955191326
 20
10.4262248495
 30
0.0
 10
9.2954329065
 20
10.4206686584
 30
0.0
 10
9.2954134104
 20
10.4168410869
 30
0.0
 10
9.2954134104
 20
10.414891804
 30
0.0
  0
SPLINE
  5
247
100
AcDbEntity
  8
0
100
AcDbSpline
 62
9
  6
CONTINUOUS
 70
0
 71
3
 72
23
 73
19
 74
0
 42
0.0000001
 43
0.0000001
 44
0.0000000001
 40
0.0
 40
0.0
 40
0.0
 40
0.0
 40
0.1939319392
 40
0.380797584
 40
0.5528360285
 40
0.6312832732
 40
0.7036936851
 40
0.7693908385
 40
0.827704443
 40
0.8780733499
 40
0.9200799196
 40
0.9533306292
 40
0.966575249
 40
0.9775517574
 40
0.9862698837
 40
0.9927696292
 40
0.9971820892
 40
1.0
 40
1.0
 40
1.0
 40
1.0
 10
10.3024312729
 20
10.414891804
 30
0.0
 10
10.3024312729
 20
10.4168410869
 30
0.0
 10
10.3024507689
 20
10.4206686584
 30
0.0
 10
10.3025369951
 20
10.4262248495
 30
0.0
 10
10.3026568898
 20
10.4306193426
 30
0.0
 10
10.3027818528
 20
10.4338625176
 30
0.0
 10
10.302884206
 20
10.4360368138
 30
0.0
 10
10.3029967598
 20
10.4380079481
 30
0.0
 10
10.3031184521
 20
10.4397565245
 30
0.0
 10
10.3032479191
 20
10.4412657196
 30
0.0
 10
10.3033835619
 20
10.4425212153
 30
0.0
 10
10.3035071388
 20
10.4434025011
 30
0.0
 10
10.3036128718
 20
10.4439705323
 30
0.0
 10
10.3036869161
 20
10.4442933491
 30
0.0
 10
10.3037599722
 20
10.4445465165
 30
0.0
 10
10.3038349531
 20
10.4447297874
 30
0.0
 10
10.3039046647
 20
10.4448490831
 30
0.0
 10
10.3039730277
 20
10.444891804
 30
0.0
 10
10.3040013516
 20
10.444891804
 30
0.0
  0
SPLINE
  5
248
100
AcDbEntity
  8
0
100
AcDbSpline
 62
9
  6
CONTINUOUS
 70
0
 71
3
 72
23
 73
19
 74
0
 42
0.0000001
 43
0.0000001
 44
0.0000000001
 40
0.0
 40
0.0
 40
0.0
 40
0.0
 40
0.0028179108
 40
0.0072303708
 40
0.0137301163
 40
0.0224482426
 40
0.033424751
 40
0.0466693708
 40
0.0799200804
 40
0.1219266501
 40
0.172295557
 40
0.2306091615
 40
0.2963063149
 40
0.3687167268
 40
0.4471639715
 40
0.619202416
 40
0.8060680608
 40
1.0
 40
1.0
 40
1.0
 40
1.0
 10
11.1159656267
 20
10.444891804
 30
0.0
 10
11.1159939506
 20
10.444891804
 30
0.0
 10
11.1160623136
 20
10.4448490831
 30
0.0
 10
11.1161320252
 20
10.4447297874
 30
0.0
 10
11.116207006
 20
10.4445465165
 30
0.0
 10
11.1162800622
 20
10.4442933491
 30
0.0
 10
11.1163541065
 20
10.4439705323
 30
0.0
 10
11.1164598395
 20
10.4434025011
 30
0.0
 10
11.1165834163
 20
10.4425212153
 30
0.0
 10
11.1167190592
 20
10.4412657196
 30
0.0
 10
11.1168485261
 20
10.4397565245
 30
0.0
 10
11.1169702185
 20
10.4380079481
 30
0.0
 10
11.1170827723
 20
10.4360368138
 30
0.0
 10
11.1171851255
 20
10.4338625176
 30
0.0
 10
11.1173100885
 20
10.4306193426
 30
0.0
 10
11.1174299832
 20
10.4262248495
 30
0.0
 10
11.1175162093
 20
10.4206686584
 30
0.0
 10
11.1175357054
 20
10.4168410869
 30
0.0
 10
11.1175357054
 20
10.414891804
 30
0.0
  0
SPLINE
  5
249
100
AcDbEntity
  8
0
100
AcDbSpline
 62
9
  6
CONTINUOUS
 70
0
 71
3
 72
23
 73
19
 74
0
 42
0.0000001
 43
0.0000001
 44
0.0000000001
 40
0.0
 40
0.0
 40
0.0
 40
0.0
 40
0.1939319212
 40
0.3807975341
 40
0.5528359804
 40
0.6312832312
 40
0.7036936521
 40
0.7693908138
 40
0.8277044229
 40
0.8780733358
 40
0.9200799118
 40
0.9533306251
 40
0.966575246
 40
0.9775517555
 40
0.9862698826
 40
0.9927696287
 40
0.9971820891
 40
1.0
 40
1.0
 40
1.0
 40
1.0
 10
12.1245535678
 20
10.414891804
 30
0.0
 10
12.1245535678
 20
10.4168410867
 30
0.0
 10
12.1245340718
 20
10.4206686578
 30
0.0
 10
12.1244478456
 20
10.4262248483
 30
0.0
 10
12.124327951
 20
10.4306193412
 30
0.0
 10
12.124202988
 20
10.4338625164
 30
0.0
 10
12.1241006348
 20
10.4360368128
 30
0.0
 10
12.123988081
 20
10.4380079473
 30
0.0
 10
12.1238663886
 20
10.4397565239
 30
0.0
 10
12.1237369217
 20
10.4412657192
 30
0.0
 10
12.1236012788
 20
10.442521215
 30
0.0
 10
12.123477702
 20
10.4434025009
 30
0.0
 10
12.123371969
 20
10.4439705322
 30
0.0
 10
12.1232979246
 20
10.444293349
 30
0.0
 10
12.1232248685
 20
10.4445465165
 30
0.0
 10
12.1231498877
 20
10.4447297873
 30
0.0
 10
12.1230801761
 20
10.4448490831
 30
0.0
 10
12.123011813
 20
10.444891804
 30
0.0
 10
12.1229834891
 20
10.444891804
 30
0.0
  0
SPLINE
  5
24A
100
AcDbEntity
  8
0
100
AcDbSpline
 62
9
  6
CONTINUOUS
 70
0
 71
3
 72
23
 73
19
 74
0
 42
0.0000001
 43
0.0000001
 44
0.0000000001
 40
0.0
 40
0.0
 40
0.0
 40
0.0
 40
0.1939319392
 40
0.380797584
 40
0.5528360285
 40
0.6312832732
 40
0.7036936851
 40
0.7693908385
 40
0.827704443
 40
0.8780733499
 40
0.9200799196
 40
0.9533306292
 40
0.966575249
 40
0.9775517574
 40
0.9862698837
 40
0.9927696292
 40
0.9971820892
 40
1.0
 40
1.0
 40
1.0
 40
1.0
 10
9.2954134104
 20
10.099891804
 30
0.0
 10
9.2954134104
 20
10.0979425212
 30
0.0
 10
9.2954329065
 20
10.0941149496
 30
0.0
 10
9.2955191326
 20
10.0885587586
 30
0.0
 10
9.2956390273
 20
10.0841642655
 30
0.0
 10
9.2957639904
 20
10.0809210905
 30
0.0
 10
9.2958663435
 20
10.0787467943
 30
0.0
 10
9.2959788973
 20
10.07677566
 30
0.0
 10
9.2961005897
 20
10.0750270836
 30
0.0
 10
9.2962300566
 20
10.0735178885
 30
0.0
 10
9.2963656995
 20
10.0722623928
 30
0.0
 10
9.2964892763
 20
10.071381107
 30
0.0
 10
9.2965950093
 20
10.0708130758
 30
0.0
 10
9.2966690536
 20
10.070490259
 30
0.0
 10
9.2967421098
 20
10.0702370916
 30
0.0
 10
9.2968170906
 20
10.0700538207
 30
0.0
 10
9.2968868022
 20
10.069934525
 30
0.0
 10
9.2969551653
 20
10.069891804
 30
0.0
 10
9.2969834891
 20
10.069891804
 30
0.0
  0
SPLINE
  5
24B
100
AcDbEntity
  8
0
100
AcDbSpline
 62
9
  6
CONTINUOUS
 70
0
 71
3
 72
23
 73
19
 74
0
 42
0.0000001
 43
0.0000001
 44
0.0000000001
 40
0.0
 40
0.0
 40
0.0
 40
0.0
 40
0.0028179108
 40
0.0072303708
 40
0.0137301163
 40
0.0224482426
 40
0.033424751
 40
0.0466693708
 40
0.0799200804
 40
0.1219266501
 40
0.172295557
 40
0.2306091615
 40
0.2963063149
 40
0.3687167268
 40
0.4471639715
 40
0.619202416
 40
0.8060680608
 40
1.0
 40
1.0
 40
1.0
 40
1.0
 10
10.3040013516
 20
10.069891804
 30
0.0
 10
10.3039730277
 20
10.069891804
 30
0.0
 10
10.3039046647
 20
10.069934525
 30
0.0
 10
10.3038349531
 20
10.0700538207
 30
0.0
 10
10.3037599722
 20
10.0702370916
 30
0.0
 10
10.3036869161
 20
10.070490259
 30
0.0
 10
10.3036128718
 20
10.0708130758
 30
0.0
 10
10.3035071388
 20
10.071381107
 30
0.0
 10
10.3033835619
 20
10.0722623928
 30
0.0
 10
10.3032479191
 20
10.0735178885
 30
0.0
 10
10.3031184521
 20
10.0750270836
 30
0.0
 10
10.3029967598
 20
10.07677566
 30
0.0
 10
10.302884206
 20
10.0787467943
 30
0.0
 10
10.3027818528
 20
10.0809210905
 30
0.0
 10
10.3026568898
 20
10.0841642655
 30
0.0
 10
10.3025369951
 20
10.0885587586
 30
0.0
 10
10.3024507689
 20
10.0941149496
 30
0.0
 10
10.3024312729
 20
10.0979425212
 30
0.0
 10
10.3024312729
 20
10.099891804
 30
0.0
  0
SPLINE
  5
24C
100
AcDbEntity
  8
0
100
AcDbSpline
 62
9
  6
CONTINUOUS
 70
0
 71
3
 72
23
 73
19
 74
0
 42
0.0000001
 43
0.0000001
 44
0.0000000001
 40
0.0
 40
0.0
 40
0.0
 40
0.0
 40
0.1939319392
 40
0.380797584
 40
0.5528360285
 40
0.6312832732
 40
0.7036936851
 40
0.7693908385
 40
0.827704443
 40
0.8780733499
 40
0.9200799196
 40
0.9533306292
 40
0.966575249
 40
0.9775517574
 40
0.9862698837
 40
0.9927696292
 40
0.9971820892
 40
1.0
 40
1.0
 40
1.0
 40
1.0
 10
11.1175357054
 20
10.099891804
 30
0.0
 10
11.1175357054
 20
10.0979425212
 30
0.0
 10
11.1175162093
 20
10.0941149496
 30
0.0
 10
11.1174299832
 20
10.0885587586
 30
0.0
 10
11.1173100885
 20
10.0841642655
 30
0.0
 10
11.1171851255
 20
10.0809210905
 30
0.0
 10
11.1170827723
 20
10.0787467943
 30
0.0
 10
11.1169702185
 20
10.07677566
 30
0.0
 10
11.1168485261
 20
10.0750270836
 30
0.0
 10
11.1167190592
 20
10.0735178885
 30
0.0
 10
11.1165834163
 20
10.0722623928
 30
0.0
 10
11.1164598395
 20
10.071381107
 30
0.0
 10
11.1163541065
 20
10.0708130758
 30
0.0
 10
11.1162800622
 20
10.070490259
 30
0.0
 10
11.116207006
 20
10.0702370916
 30
0.0
 10
11.1161320252
 20
10.0700538207
 30
0.0
 10
11.1160623136
 20
10.069934525
 30
0.0
 10
11.1159939506
 20
10.069891804
 30
0.0
 10
11.1159656267
 20
10.069891804
 30
0.0
  0
SPLINE
  5
24D
100
AcDbEntity
  8
0
100
AcDbSpline
 62
9
  6
CONTINUOUS
 70
0
 71
3
 72
23
 73
19
 74
0
 42
0.0000001
 43
0.0000001
 44
0.0000000001
 40
0.0
 40
0.0
 40
0.0
 40
0.0
 40
0.0028179108
 40
0.0072303711
 40
0.0137301173
 40
0.0224482445
 40
0.0334247541
 40
0.0466693751
 40
0.0799200886
 40
0.1219266647
 40
0.1722955776
 40
0.2306091867
 40
0.2963063485
 40
0.3687167694
 40
0.4471640202
 40
0.6192024664
 40
0.806068079
 40
1.0
 40
1.0
 40
1.0
 40
1.0
 10
12.1229834891
 20
10.069891804
 30
0.0
 10
12.123011813
 20
10.069891804
 30
0.0
 10
12.1230801761
 20
10.069934525
 30
0.0
 10
12.1231498877
 20
10.0700538208
 30
0.0
 10
12.1232248685
 20
10.0702370916
 30
0.0
 10
12.1232979246
 20
10.070490259
 30
0.0
 10
12.123371969
 20
10.0708130759
 30
0.0
 10
12.123477702
 20
10.0713811072
 30
0.0
 10
12.1236012788
 20
10.0722623931
 30
0.0
 10
12.1237369217
 20
10.0735178889
 30
0.0
 10
12.1238663886
 20
10.0750270842
 30
0.0
 10
12.123988081
 20
10.0767756608
 30
0.0
 10
12.1241006348
 20
10.0787467953
 30
0.0
 10
12.124202988
 20
10.0809210917
 30
0.0
 10
12.124327951
 20
10.0841642669
 30
0.0
 10
12.1244478456
 20
10.0885587598
 30
0.0
 10
12.1245340718
 20
10.0941149503
 30
0.0
 10
12.1245535678
 20
10.0979425214
 30
0.0
 10
12.1245535678
 20
10.099891804
 30
0.0
  0
ENDSEC
  0
SECTION
  2
OBJECTS
  0
DICTIONARY
  5
C
100
AcDbDictionary
280
0
281
1
  3
ACAD_GROUP
350
D
  3
ACAD_MLINESTYLE
350
17
  3
ACAD_LAYOUT
350
1A
  3
ACAD_PLOTSETTINGS
350
19
  3
ACAD_PLOTSTYLENAME
350
E
  0
DICTIONARY
  5
D
102
{ACAD_REACTORS
330
C
102
}
100
AcDbDictionary
280
0
281
1
  0
ACDBDICTIONARYWDFLT
  5
E
102
{ACAD_REACTORS
330
C
102
}
100
AcDbDictionary
281
1
  3
Normal
350
F
100
AcDbDictionaryWithDefault
340
F
  0
DICTIONARY
  5
17
102
{ACAD_REACTORS
330
C
102
}
100
AcDbDictionary
280
0
281
1
  3
Standard
350
18
  0
DICTIONARY
  5
19
102
{ACAD_REACTORS
330
C
102
}
100
AcDbDictionary
281
1
  0
DICTIONARY
  5
1A
102
{ACAD_REACTORS
330
C
102
}
100
AcDbDictionary
281
1
  3
Model
350
24E
  3
Layout1
350
24F
  0
ACDBPLACEHOLDER
  5
F
102
{ACAD_REACTORS
330
E
102
}
  0
MLINESTYLE
  5
18
102
{ACAD_REACTORS
330
17
102
}
100
AcDbMlineStyle
  2
STANDARD
 70
0
  3

 62
256
 51
90.0
 52
90.0
 71
2
 49
0.5
 62
256
  6
BYLAYER
 49
-0.5
 62
256
  6
BYLAYER
  0
LAYOUT
  5
24E
102
{ACAD_REACTORS
330
1A
102
}
100
AcDbPlotSettings
  1

  2
none_device
  4
ANSI_C_(22.00_x_17.00_Inches)
  6

 40
0.0
 41
0.0
 42
0.0
 43
0.0
 44
558.8
 45
431.8
 46
0.0
 47
0.0
 48
0.0
 49
0.0
140
0.0
141
0.0
142
1.0
143
1.0
 70
1024
 72
0
 73
0
 74
0
  7

 75
0
147
1.0
148
0.0
149
0.0
100
AcDbLayout
  1
Model
 70
0
 71
0
 10
0.0
 20
0.0
 11
22.0
 21
17.0
 12
0.0
 22
0.0
 32
0.0
 14
0.0
 24
0.0
 34
0.0
 15
0.0
 25
0.0
 35
0.0
146
0.0
 13
0.0
 23
0.0
 33
0.0
 16
1.0
 26
0.0
 36
0.0
 17
0.0
 27
1.0
 37
0.0
 76
0
330
202
345
0
346
0
  0
LAYOUT
  5
24F
102
{ACAD_REACTORS
330
1A
102
}
100
AcDbPlotSettings
  1

  2
none_device
  4
ANSI_C_(22.00_x_17.00_Inches)
  6

 40
0.0
 41
0.0
 42
0.0
 43
0.0
 44
558.8
 45
431.8
 46
0.0
 47
0.0
 48
0.0
 49
0.0
140
0.0
141
0.0
142
1.0
143
1.0
 70
0
 72
0
 73
0
 74
0
  7

 75
0
147
1.0
148
0.0
149
0.0
100
AcDbLayout
  1
Layout1
 70
0
 71
1
 10
0.0
 20
0.0
 11
22.0
 21
17.0
 12
0.0
 22
0.0
 32
0.0
 14
0.0
 24
0.0
 34
0.0
 15
0.0
 25
0.0
 35
0.0
146
0.0
 13
0.0
 23
0.0
 33
0.0
 16
1.0
 26
0.0
 36
0.0
 17
0.0
 27
1.0
 37
0.0
 76
0
330
203
345
0
346
0
  0
ENDSEC
  0
EOF
