999
DXF file: E:\BT Custom\CADOUTPUT\_FRONT.dxf
999
Pro/ENGINEER 2018400 by Parametric Technology Corporation
  0
SECTION
  2
HEADER
  9
$ACADVER
  1
AC1018
  9
$DWGCODEPAGE
  3
ANSI_1252
  9
$EXTMAX
 10
22.0
 20
17.0
 30
0.0
  9
$EXTMIN
 10
0.0
 20
0.0
 30
0.0
  9
$LIMMIN
 10
0.0
 20
0.0
  9
$LIMMAX
 10
22.0
 20
17.0
  9
$VIEWCTR
 10
11.0
 20
8.5
  9
$VIEWSIZE
 40
17.0
  9
$CLAYER
  8
0
  9
$LTSCALE
 40
1.21
  9
$CELTYPE
  6
BYLAYER
  9
$DIMSCALE
 40
1.0
  9
$DIMASZ
 40
0.1
  9
$DIMEXO
 40
0.0625
  9
$DIMDLI
 40
0.836
  9
$DIMEXE
 40
0.125
  9
$DIMCEN
 40
0.198
  9
$DIMLFAC
 40
1.0
  9
$DIMBLK
  1
_FILLED
  9
$DIMALT
 70
1
  9
$DIMALTD
 70
2
  9
$DIMALTTD
 70
2
  9
$DIMALTF
 40
25.4
  9
$DIMTXT
 40
0.08
  9
$DIMTOL
 70
1
  9
$DIMLIM
 70
0
  9
$DIMTFAC
 40
1.0
  9
$DIMTP
 40
0.001
  9
$DIMTM
 40
0.001
  9
$DIMGAP
 40
0.09
  9
$DIMDSEP
 70
46
  9
$AUNITS
 70
0
  9
$PDMODE
 70
3
  9
$PDSIZE
 40
0.06
  9
$HANDSEED
  5
23C
  9
$TILEMODE
 70
1
  9
$MEASUREMENT
 70
0
  9
$INSUNITS
 70
1
  0
ENDSEC
  0
SECTION
  2
CLASSES
  0
CLASS
  1
ACDBDICTIONARYWDFLT
  2
AcDbDictionaryWithDefault
  3
AutoCAD 2000
 90
0
 91
1
280
0
281
0
  0
CLASS
  1
ACDBPLACEHOLDER
  2
AcDbPlaceHolder
  3
AutoCAD 2000
 90
0
 91
1
280
0
281
0
  0
CLASS
  1
LAYOUT
  2
AcDbLayout
  3
AutoCAD 2000
 90
0
 91
0
280
0
281
0
  0
ENDSEC
  0
SECTION
  2
TABLES
  0
TABLE
  2
VPORT
  5
8
100
AcDbSymbolTable
 70
2
  0
VPORT
  5
1F4
100
AcDbSymbolTableRecord
100
AcDbViewportTableRecord
  2
*ACTIVE
 70
0
 10
0.0
 20
0.0
 11
1.0
 21
1.0
 12
11.0
 22
8.5
 13
0.0
 23
0.0
 14
1.0
 24
1.0
 15
0.0
 25
0.0
 16
0.0
 26
0.0
 36
1.0
 17
0.0
 27
0.0
 37
0.0
 40
17.0
 41
1.2941176471
 42
50.0
 43
0.0
 44
0.0
 50
0.0
 51
0.0
 71
0
 72
100
 73
1
 74
1
 75
0
 76
0
 77
0
 78
0
  0
ENDTAB
  0
TABLE
  2
LTYPE
  5
5
100
AcDbSymbolTable
 70
6
  0
LTYPE
  5
14
100
AcDbSymbolTableRecord
100
AcDbLinetypeTableRecord
  2
BYBLOCK
 70
0
  3

 72
65
 73
0
 40
0.0
  0
LTYPE
  5
15
100
AcDbSymbolTableRecord
100
AcDbLinetypeTableRecord
  2
BYLAYER
 70
0
  3

 72
65
 73
0
 40
0.0
  0
LTYPE
  5
16
100
AcDbSymbolTableRecord
100
AcDbLinetypeTableRecord
  2
CONTINUOUS
 70
64
  3
Solid line
 72
65
 73
0
 40
0.0
  0
LTYPE
  5
1F5
100
AcDbSymbolTableRecord
100
AcDbLinetypeTableRecord
  2
CENTER
 70
64
  3
____ _ ____ _ ____ _ ____ _ ____ _ ____ _ ____
 72
65
 73
4
 40
0.6
 49
0.375
 74
0
 49
-0.075
 74
0
 49
0.075
 74
0
 49
-0.075
 74
0
  0
LTYPE
  5
1F6
100
AcDbSymbolTableRecord
100
AcDbLinetypeTableRecord
  2
HIDDEN
 70
64
  3
- - - - - - - - - - - - - - - - - - - -
 72
65
 73
2
 40
0.2
 49
0.1
 74
0
 49
-0.1
 74
0
  0
LTYPE
  5
1F7
100
AcDbSymbolTableRecord
100
AcDbLinetypeTableRecord
  2
PHANTOM
 70
64
  3
_____ _ _ _____ _ _ _____ _ _ _____
 72
65
 73
6
 40
0.8
 49
0.45
 74
0
 49
-0.05
 74
0
 49
0.1
 74
0
 49
-0.05
 74
0
 49
0.1
 74
0
 49
-0.05
 74
0
  0
LTYPE
  5
1F8
100
AcDbSymbolTableRecord
100
AcDbLinetypeTableRecord
  2
DOT
 70
64
  3
. . . . . . . . . . . . . . . . . . . .
 72
65
 73
2
 40
0.2
 49
0.1
 74
0
 49
-0.1
 74
0
  0
LTYPE
  5
1F9
100
AcDbSymbolTableRecord
100
AcDbLinetypeTableRecord
  2
DASHED
 70
64
  3
- - - - - - - - - - - - - - - - - - - -
 72
65
 73
2
 40
0.2
 49
0.1
 74
0
 49
-0.1
 74
0
  0
ENDTAB
  0
TABLE
  2
LAYER
  5
2
100
AcDbSymbolTable
 70
36
  0
LAYER
  5
10
100
AcDbSymbolTableRecord
100
AcDbLayerTableRecord
  2
0
 70
0
 62
7
  6
CONTINUOUS
370
-3
390
F
  0
LAYER
  5
1FA
100
AcDbSymbolTableRecord
100
AcDbLayerTableRecord
  2
DEFAULT_1
 70
0
 62
7
  6
CENTER
370
-3
390
F
  0
LAYER
  5
1FB
100
AcDbSymbolTableRecord
100
AcDbLayerTableRecord
  2
DEFAULT_2
 70
0
 62
8
  6
HIDDEN
370
-3
390
F
  0
LAYER
  5
1FC
100
AcDbSymbolTableRecord
100
AcDbLayerTableRecord
  2
DEFAULT_3
 70
0
 62
7
  6
PHANTOM
370
-3
390
F
  0
LAYER
  5
1FD
100
AcDbSymbolTableRecord
100
AcDbLayerTableRecord
  2
ALL_FEATURES
 70
0
 62
7
  6
CONTINUOUS
370
-3
390
F
  0
LAYER
  5
1FE
100
AcDbSymbolTableRecord
100
AcDbLayerTableRecord
  2
AXES_FEATURES
 70
0
 62
7
  6
CONTINUOUS
370
-3
390
F
  0
LAYER
  5
1FF
100
AcDbSymbolTableRecord
100
AcDbLayerTableRecord
  2
DIMENSIONS
 70
0
 62
7
  6
CONTINUOUS
370
-3
390
F
  0
ENDTAB
  0
TABLE
  2
STYLE
  5
3
100
AcDbSymbolTable
 70
1
  0
STYLE
  5
11
100
AcDbSymbolTableRecord
100
AcDbTextStyleTableRecord
  2
STANDARD
 70
0
 40
0.0
 41
0.8
 50
0.0
 71
0
 42
0.2
  3
txt
  4

  0
STYLE
  5
200
100
AcDbSymbolTableRecord
100
AcDbTextStyleTableRecord
  2
TEXTSTYLE_1
 70
0
 40
0.0
 41
0.8
 50
0.0
 71
0
 42
0.2
  3
gdt
  4

  0
ENDTAB
  0
TABLE
  2
VIEW
  5
6
100
AcDbSymbolTable
 70
0
  0
ENDTAB
  0
TABLE
  2
UCS
  5
7
100
AcDbSymbolTable
 70
0
  0
ENDTAB
  0
TABLE
  2
APPID
  5
9
100
AcDbSymbolTable
 70
1
  0
APPID
  5
201
100
AcDbSymbolTableRecord
100
AcDbRegAppTableRecord
  2
ACAD
 70
0
  0
ENDTAB
  0
TABLE
  2
BLOCK_RECORD
  5
1
100
AcDbSymbolTable
 70
0
  0
BLOCK_RECORD
  5
202
100
AcDbSymbolTableRecord
100
AcDbBlockTableRecord
  2
*Model_Space
  0
BLOCK_RECORD
  5
203
100
AcDbSymbolTableRecord
100
AcDbBlockTableRecord
  2
*Paper_Space
  0
BLOCK_RECORD
  5
204
100
AcDbSymbolTableRecord
100
AcDbBlockTableRecord
  2
_FILLED
  0
ENDTAB
  0
TABLE
  2
DIMSTYLE
  5
A
100
AcDbSymbolTable
 70
1
100
AcDbDimStyleTable
 71
0
  0
DIMSTYLE
105
205
100
AcDbSymbolTableRecord
100
AcDbDimStyleTableRecord
  2
STANDARD
 70
0
  3

  4

 40
1.0
 41
0.1
 42
0.0625
 43
0.38
 44
0.125
 45
0.0
 46
0.0
 47
0.001
 48
0.001
140
0.08
141
0.09
142
0.0
143
25.4
144
1.0
145
0.0
146
1.0
147
0.09
 71
1.0
 72
0.0
 73
1
 74
1
 75
0
 76
0
 77
0
 78
4
 79
1
170
1
171
2
172
0
173
0
174
0
175
0
176
0
177
0
178
0
270
2
179
3
271
3
272
3
273
2
274
2
275
0
280
0
281
0
282
0
283
1
284
4
285
0
286
0
287
3
288
0
340
11
278
46
341
204
342
204
343
204
344
204
  0
ENDTAB
  0
ENDSEC
  0
SECTION
  2
BLOCKS
  0
BLOCK
  5
20
100
AcDbEntity
  8
0
100
AcDbBlockBegin
  2
*Model_Space
 70
0
 10
0.0
 20
0.0
 30
0.0
  3
*Model_Space
  1

  0
ENDBLK
  5
21
100
AcDbEntity
  8
0
100
AcDbBlockEnd
  0
BLOCK
  5
1C
100
AcDbEntity
  8
0
100
AcDbBlockBegin
  2
*Paper_Space
 70
0
 10
0.0
 20
0.0
 30
0.0
  3
*Paper_Space
  1

  0
ENDBLK
  5
1D
100
AcDbEntity
  8
0
100
AcDbBlockEnd
  0
BLOCK
  5
206
100
AcDbEntity
  8
0
100
AcDbBlockBegin
  2
_FILLED
 70
64
 10
0.0
 20
0.0
  3
_FILLED
  1

  0
SOLID
  5
207
100
AcDbEntity
  8
0
  6
BYBLOCK
 62
0
100
AcDbTrace
 10
0.0
 20
0.0
 11
-1.0
 21
0.2
 12
-1.0
 22
-0.2
 13
-1.0
 23
-0.2
  0
ENDBLK
  5
208
100
AcDbEntity
  8
0
  6
BYBLOCK
 62
0
100
AcDbBlockEnd
  0
ENDSEC
  0
SECTION
  2
ENTITIES
  0
LINE
  5
209
100
AcDbEntity
  8
0
100
AcDbLine
 62
7
  6
CONTINUOUS
 10
8.9626923427
 20
7.9896695021
 11
8.9626923427
 21
7.8326695021
  0
LINE
  5
20A
100
AcDbEntity
  8
0
100
AcDbLine
 62
7
  6
CONTINUOUS
 10
9.3126923427
 20
8.0763434472
 11
9.3126923427
 21
8.0296695021
  0
LINE
  5
20B
100
AcDbEntity
  8
0
100
AcDbLine
 62
7
  6
CONTINUOUS
 10
9.4251923427
 20
8.0296695021
 11
9.4251923427
 21
8.0196695021
  0
LINE
  5
20C
100
AcDbEntity
  8
0
100
AcDbLine
 62
7
  6
CONTINUOUS
 10
9.4511835986
 20
9.8478211855
 11
9.3931821685
 21
8.1868775424
  0
LINE
  5
20D
100
AcDbEntity
  8
0
100
AcDbLine
 62
7
  6
CONTINUOUS
 10
9.6026923427
 20
10.3576695021
 11
9.6026923427
 21
10.6726695021
  0
LINE
  5
20E
100
AcDbEntity
  8
0
100
AcDbLine
 62
7
  6
CONTINUOUS
 10
8.9626923427
 20
7.8326695021
 11
11.1626923427
 21
7.8326695021
  0
LINE
  5
20F
100
AcDbEntity
  8
0
100
AcDbLine
 62
7
  6
CONTINUOUS
 10
9.7501923427
 20
10.2876695021
 11
9.7501923427
 21
9.9106695021
  0
LINE
  5
210
100
AcDbEntity
  8
0
100
AcDbLine
 62
7
  6
CONTINUOUS
 10
9.8001923427
 20
9.9106695021
 11
9.8001923427
 21
9.8796695021
  0
LINE
  5
211
100
AcDbEntity
  8
0
100
AcDbLine
 62
9
  6
CONTINUOUS
 10
11.1626923427
 20
7.9896695021
 11
8.9626923427
 21
7.9896695021
  0
LINE
  5
212
100
AcDbEntity
  8
0
100
AcDbLine
 62
7
  6
CONTINUOUS
 10
11.1326923427
 20
8.0196695021
 11
8.9926923427
 21
8.0196695021
  0
LINE
  5
213
100
AcDbEntity
  8
0
100
AcDbLine
 62
7
  6
CONTINUOUS
 10
9.3126923427
 20
8.0296695021
 11
10.8126923427
 21
8.0296695021
  0
LINE
  5
214
100
AcDbEntity
  8
0
100
AcDbLine
 62
9
  6
CONTINUOUS
 10
10.8126923427
 20
8.0763434472
 11
9.3126923427
 21
8.0763434472
  0
LINE
  5
215
100
AcDbEntity
  8
0
100
AcDbLine
 62
9
  6
CONTINUOUS
 10
10.7858461562
 20
8.1141187989
 11
9.3395385293
 21
8.1141187989
  0
LINE
  5
216
100
AcDbEntity
  8
0
100
AcDbLine
 62
9
  6
CONTINUOUS
 10
9.3931821685
 20
8.1868775424
 11
10.7321872637
 21
8.1868775424
  0
LINE
  5
217
100
AcDbEntity
  8
0
100
AcDbLine
 62
9
  6
CONTINUOUS
 10
10.0868105078
 20
10.6726695021
 11
10.0868105078
 21
10.3576695021
  0
LINE
  5
218
100
AcDbEntity
  8
0
100
AcDbLine
 62
7
  6
CONTINUOUS
 10
10.3251923427
 20
9.9106695021
 11
10.3251923427
 21
9.8796695021
  0
LINE
  5
219
100
AcDbEntity
  8
0
100
AcDbLine
 62
7
  6
CONTINUOUS
 10
10.3751923427
 20
10.2876695021
 11
10.3751923427
 21
9.9106695021
  0
LINE
  5
21A
100
AcDbEntity
  8
0
100
AcDbLine
 62
7
  6
CONTINUOUS
 10
10.6742010869
 20
9.8478211855
 11
10.732202517
 21
8.1868775424
  0
LINE
  5
21B
100
AcDbEntity
  8
0
100
AcDbLine
 62
7
  6
CONTINUOUS
 10
10.7001923427
 20
8.0296695021
 11
10.7001923427
 21
8.0196695021
  0
LINE
  5
21C
100
AcDbEntity
  8
0
100
AcDbLine
 62
7
  6
CONTINUOUS
 10
10.8126923427
 20
8.0763434472
 11
10.8126923427
 21
8.0296695021
  0
LINE
  5
21D
100
AcDbEntity
  8
0
100
AcDbLine
 62
7
  6
CONTINUOUS
 10
11.1626923427
 20
7.9896695021
 11
11.1626923427
 21
7.8326695021
  0
LINE
  5
21E
100
AcDbEntity
  8
0
100
AcDbLine
 62
9
  6
CONTINUOUS
 10
10.6742010869
 20
9.8478211855
 11
9.4511835986
 21
9.8478211855
  0
LINE
  5
21F
100
AcDbEntity
  8
0
100
AcDbLine
 62
7
  6
CONTINUOUS
 10
10.6412211896
 20
9.8796695021
 11
9.4841634959
 21
9.8796695021
  0
LINE
  5
220
100
AcDbEntity
  8
0
100
AcDbLine
 62
7
  6
CONTINUOUS
 10
9.7501923427
 20
9.9106695021
 11
10.3751923427
 21
9.9106695021
  0
LINE
  5
221
100
AcDbEntity
  8
0
100
AcDbLine
 62
9
  6
CONTINUOUS
 10
10.3751923427
 20
10.2876695021
 11
9.7501923427
 21
10.2876695021
  0
LINE
  5
222
100
AcDbEntity
  8
0
100
AcDbLine
 62
7
  6
CONTINUOUS
 10
9.6327035335
 20
10.3276695021
 11
12.8826923427
 21
10.3276695021
  0
LINE
  5
223
100
AcDbEntity
  8
0
100
AcDbLine
 62
9
  6
CONTINUOUS
 10
9.6026923427
 20
10.3576695021
 11
12.9126923427
 21
10.3576695021
  0
LINE
  5
224
100
AcDbEntity
  8
0
100
AcDbLine
 62
9
  6
CONTINUOUS
 10
12.9126923427
 20
10.6726695021
 11
9.6026923427
 21
10.6726695021
  0
LINE
  5
225
100
AcDbEntity
  8
0
100
AcDbLine
 62
7
  6
CONTINUOUS
 10
12.8826923427
 20
10.7026695021
 11
9.632703225
 21
10.7026695021
  0
LINE
  5
226
100
AcDbEntity
  8
0
100
AcDbLine
 62
9
  6
CONTINUOUS
 10
12.8842652667
 20
10.3576695021
 11
12.8842652668
 21
10.6726695021
  0
LINE
  5
227
100
AcDbEntity
  8
0
100
AcDbLine
 62
7
  6
CONTINUOUS
 10
12.9126923427
 20
10.6726695021
 11
12.9126923427
 21
10.3576695021
  0
ARC
  5
228
100
AcDbEntity
  8
0
100
AcDbCircle
 62
7
  6
CONTINUOUS
 10
10.8121537832
 20
8.1896695021
 40
0.08
100
AcDbArc
 50
182.0
 51
250.8012928748
  0
ARC
  5
229
100
AcDbEntity
  8
0
100
AcDbCircle
 62
7
  6
CONTINUOUS
 10
9.3132309023
 20
8.1896695021
 40
0.08
100
AcDbArc
 50
289.1987071252
 51
358.0
  0
ARC
  5
22A
100
AcDbEntity
  8
0
100
AcDbCircle
 62
7
  6
CONTINUOUS
 10
9.7101923427
 20
10.2876695021
 40
0.04
100
AcDbArc
 50
0.0
 51
90.0
  0
ARC
  5
22B
100
AcDbEntity
  8
0
100
AcDbCircle
 62
7
  6
CONTINUOUS
 10
10.4151923427
 20
10.2876695021
 40
0.04
100
AcDbArc
 50
90.0
 51
180.0
  0
ARC
  5
22C
100
AcDbEntity
  8
0
100
AcDbCircle
 62
7
  6
CONTINUOUS
 10
10.7726923427
 20
8.0763434472
 40
0.04
100
AcDbArc
 50
0.0
 51
70.8012928747
  0
ARC
  5
22D
100
AcDbEntity
  8
0
100
AcDbCircle
 62
7
  6
CONTINUOUS
 10
9.3526923427
 20
8.0763434472
 40
0.04
100
AcDbArc
 50
109.1987071253
 51
180.0
  0
ARC
  5
22E
100
AcDbEntity
  8
0
100
AcDbCircle
 62
7
  6
CONTINUOUS
 10
10.6412211896
 20
9.8466695021
 40
0.033
100
AcDbArc
 50
1.9999999997
 51
90.0
  0
ARC
  5
22F
100
AcDbEntity
  8
0
100
AcDbCircle
 62
7
  6
CONTINUOUS
 10
9.4841634959
 20
9.8466695021
 40
0.033
100
AcDbArc
 50
90.0
 51
178.0000000003
  0
ARC
  5
230
100
AcDbEntity
  8
0
100
AcDbCircle
 62
7
  6
CONTINUOUS
 10
9.6326923427
 20
10.3576695021
 40
0.03
100
AcDbArc
 50
180.0
 51
270.0
  0
ARC
  5
231
100
AcDbEntity
  8
0
100
AcDbCircle
 62
7
  6
CONTINUOUS
 10
12.8826923427
 20
10.6726695021
 40
0.03
100
AcDbArc
 50
0.0
 51
90.0
  0
ARC
  5
232
100
AcDbEntity
  8
0
100
AcDbCircle
 62
7
  6
CONTINUOUS
 10
9.6326923427
 20
10.6726695021
 40
0.03
100
AcDbArc
 50
90.0
 51
180.0
  0
ARC
  5
233
100
AcDbEntity
  8
0
100
AcDbCircle
 62
7
  6
CONTINUOUS
 10
12.8826923427
 20
10.3576695021
 40
0.03
100
AcDbArc
 50
270.0
 51
360.0
  0
ARC
  5
234
100
AcDbEntity
  8
0
100
AcDbCircle
 62
7
  6
CONTINUOUS
 10
11.1326923427
 20
7.9896695021
 40
0.03
100
AcDbArc
 50
0.0
 51
90.0
  0
ARC
  5
235
100
AcDbEntity
  8
0
100
AcDbCircle
 62
7
  6
CONTINUOUS
 10
8.9926923427
 20
7.9896695021
 40
0.03
100
AcDbArc
 50
90.0
 51
180.0
  0
SPLINE
  5
236
100
AcDbEntity
  8
0
100
AcDbSpline
 62
9
  6
CONTINUOUS
 70
0
 71
3
 72
23
 73
19
 74
0
 42
0.0000001
 43
0.0000001
 44
0.0000000001
 40
0.0
 40
0.0
 40
0.0
 40
0.0
 40
0.0028220368
 40
0.0072370865
 40
0.0137385202
 40
0.0224578245
 40
0.0334351826
 40
0.0466804177
 40
0.0799318444
 40
0.1219386438
 40
0.1723074129
 40
0.2306205811
 40
0.2963170488
 40
0.3687265641
 40
0.4471727319
 40
0.6192085889
 40
0.8060712433
 40
1.0
 40
1.0
 40
1.0
 40
1.0
 10
10.085237584
 20
10.7026695021
 30
0.0
 10
10.0852659498
 20
10.7026695021
 30
0.0
 10
10.0853344069
 20
10.7026268224
 30
0.0
 10
10.0854042821
 20
10.7025075043
 30
0.0
 10
10.0854793935
 20
10.7023242281
 30
0.0
 10
10.0855525886
 20
10.7020710546
 30
0.0
 10
10.0856267663
 20
10.7017482358
 30
0.0
 10
10.0857326913
 20
10.7011802077
 30
0.0
 10
10.0858564921
 20
10.7002989217
 30
0.0
 10
10.0859923813
 20
10.6990434232
 30
0.0
 10
10.086122083
 20
10.6975342263
 30
0.0
 10
10.0862439961
 20
10.6957856488
 30
0.0
 10
10.0863567539
 20
10.6938145139
 30
0.0
 10
10.0864592926
 20
10.6916402172
 30
0.0
 10
10.086584482
 20
10.6883970433
 30
0.0
 10
10.086704594
 20
10.6840025501
 30
0.0
 10
10.0867909764
 20
10.6784463577
 30
0.0
 10
10.0868105078
 20
10.6746187851
 30
0.0
 10
10.0868105078
 20
10.6726695021
 30
0.0
  0
SPLINE
  5
237
100
AcDbEntity
  8
0
100
AcDbSpline
 62
9
  6
CONTINUOUS
 70
0
 71
3
 72
23
 73
19
 74
0
 42
0.0000001
 43
0.0000001
 44
0.0000000001
 40
0.0
 40
0.0
 40
0.0
 40
0.0
 40
0.1939287567
 40
0.3807914111
 40
0.5528272681
 40
0.6312734359
 40
0.7036829512
 40
0.7693794189
 40
0.8276925871
 40
0.8780613562
 40
0.9200681556
 40
0.9533195823
 40
0.9665648174
 40
0.9775421755
 40
0.9862614798
 40
0.9927629135
 40
0.9971779632
 40
1.0
 40
1.0
 40
1.0
 40
1.0
 10
10.0868105078
 20
10.3576695021
 30
0.0
 10
10.0868105078
 20
10.3557202192
 30
0.0
 10
10.0867909764
 20
10.3518926466
 30
0.0
 10
10.086704594
 20
10.3463364542
 30
0.0
 10
10.086584482
 20
10.341941961
 30
0.0
 10
10.0864592926
 20
10.3386987871
 30
0.0
 10
10.0863567539
 20
10.3365244904
 30
0.0
 10
10.0862439961
 20
10.3345533554
 30
0.0
 10
10.086122083
 20
10.332804778
 30
0.0
 10
10.0859923813
 20
10.3312955811
 30
0.0
 10
10.0858564921
 20
10.3300400826
 30
0.0
 10
10.0857326913
 20
10.3291587965
 30
0.0
 10
10.0856267663
 20
10.3285907684
 30
0.0
 10
10.0855525886
 20
10.3282679497
 30
0.0
 10
10.0854793935
 20
10.3280147762
 30
0.0
 10
10.0854042821
 20
10.3278315
 30
0.0
 10
10.0853344069
 20
10.3277121819
 30
0.0
 10
10.0852659498
 20
10.3276695021
 30
0.0
 10
10.085237584
 20
10.3276695021
 30
0.0
  0
SPLINE
  5
238
100
AcDbEntity
  8
0
100
AcDbSpline
 62
9
  6
CONTINUOUS
 70
0
 71
3
 72
23
 73
19
 74
0
 42
0.0000001
 43
0.0000001
 44
0.0000000001
 40
0.0
 40
0.0
 40
0.0
 40
0.0
 40
0.0028220367
 40
0.0072370865
 40
0.0137385202
 40
0.0224578245
 40
0.0334351826
 40
0.0466804177
 40
0.0799318444
 40
0.1219386438
 40
0.1723074129
 40
0.2306205811
 40
0.2963170488
 40
0.3687265641
 40
0.4471727319
 40
0.6192085889
 40
0.8060712433
 40
1.0
 40
1.0
 40
1.0
 40
1.0
 10
12.8826923427
 20
10.3276695021
 30
0.0
 10
12.8827207086
 20
10.3276695021
 30
0.0
 10
12.8827891656
 20
10.3277121819
 30
0.0
 10
12.8828590408
 20
10.3278315
 30
0.0
 10
12.8829341523
 20
10.3280147762
 30
0.0
 10
12.8830073474
 20
10.3282679497
 30
0.0
 10
12.883081525
 20
10.3285907684
 30
0.0
 10
12.88318745
 20
10.3291587965
 30
0.0
 10
12.8833112508
 20
10.3300400826
 30
0.0
 10
12.8834471401
 20
10.3312955811
 30
0.0
 10
12.8835768418
 20
10.332804778
 30
0.0
 10
12.8836987548
 20
10.3345533554
 30
0.0
 10
12.8838115126
 20
10.3365244904
 30
0.0
 10
12.8839140513
 20
10.3386987871
 30
0.0
 10
12.8840392408
 20
10.341941961
 30
0.0
 10
12.8841593527
 20
10.3463364542
 30
0.0
 10
12.8842457352
 20
10.3518926466
 30
0.0
 10
12.8842652665
 20
10.3557202192
 30
0.0
 10
12.8842652665
 20
10.3576695021
 30
0.0
  0
SPLINE
  5
239
100
AcDbEntity
  8
0
100
AcDbSpline
 62
9
  6
CONTINUOUS
 70
0
 71
3
 72
23
 73
19
 74
0
 42
0.0000001
 43
0.0000001
 44
0.0000000001
 40
0.0
 40
0.0
 40
0.0
 40
0.0
 40
0.1939287567
 40
0.3807914111
 40
0.5528272681
 40
0.6312734359
 40
0.7036829512
 40
0.7693794189
 40
0.8276925871
 40
0.8780613562
 40
0.9200681556
 40
0.9533195823
 40
0.9665648174
 40
0.9775421755
 40
0.9862614798
 40
0.9927629135
 40
0.9971779633
 40
1.0
 40
1.0
 40
1.0
 40
1.0
 10
12.8842652665
 20
10.6726695021
 30
0.0
 10
12.8842652665
 20
10.6746187851
 30
0.0
 10
12.8842457352
 20
10.6784463577
 30
0.0
 10
12.8841593527
 20
10.6840025501
 30
0.0
 10
12.8840392408
 20
10.6883970433
 30
0.0
 10
12.8839140513
 20
10.6916402172
 30
0.0
 10
12.8838115126
 20
10.6938145139
 30
0.0
 10
12.8836987548
 20
10.6957856488
 30
0.0
 10
12.8835768418
 20
10.6975342263
 30
0.0
 10
12.8834471401
 20
10.6990434232
 30
0.0
 10
12.8833112508
 20
10.7002989217
 30
0.0
 10
12.88318745
 20
10.7011802077
 30
0.0
 10
12.883081525
 20
10.7017482358
 30
0.0
 10
12.8830073474
 20
10.7020710546
 30
0.0
 10
12.8829341523
 20
10.7023242281
 30
0.0
 10
12.8828590408
 20
10.7025075043
 30
0.0
 10
12.8827891656
 20
10.7026268224
 30
0.0
 10
12.8827207086
 20
10.7026695021
 30
0.0
 10
12.8826923427
 20
10.7026695021
 30
0.0
  0
ENDSEC
  0
SECTION
  2
OBJECTS
  0
DICTIONARY
  5
C
100
AcDbDictionary
280
0
281
1
  3
ACAD_GROUP
350
D
  3
ACAD_MLINESTYLE
350
17
  3
ACAD_LAYOUT
350
1A
  3
ACAD_PLOTSETTINGS
350
19
  3
ACAD_PLOTSTYLENAME
350
E
  0
DICTIONARY
  5
D
102
{ACAD_REACTORS
330
C
102
}
100
AcDbDictionary
280
0
281
1
  0
ACDBDICTIONARYWDFLT
  5
E
102
{ACAD_REACTORS
330
C
102
}
100
AcDbDictionary
281
1
  3
Normal
350
F
100
AcDbDictionaryWithDefault
340
F
  0
DICTIONARY
  5
17
102
{ACAD_REACTORS
330
C
102
}
100
AcDbDictionary
280
0
281
1
  3
Standard
350
18
  0
DICTIONARY
  5
19
102
{ACAD_REACTORS
330
C
102
}
100
AcDbDictionary
281
1
  0
DICTIONARY
  5
1A
102
{ACAD_REACTORS
330
C
102
}
100
AcDbDictionary
281
1
  3
Model
350
23A
  3
Layout1
350
23B
  0
ACDBPLACEHOLDER
  5
F
102
{ACAD_REACTORS
330
E
102
}
  0
MLINESTYLE
  5
18
102
{ACAD_REACTORS
330
17
102
}
100
AcDbMlineStyle
  2
STANDARD
 70
0
  3

 62
256
 51
90.0
 52
90.0
 71
2
 49
0.5
 62
256
  6
BYLAYER
 49
-0.5
 62
256
  6
BYLAYER
  0
LAYOUT
  5
23A
102
{ACAD_REACTORS
330
1A
102
}
100
AcDbPlotSettings
  1

  2
none_device
  4
ANSI_C_(22.00_x_17.00_Inches)
  6

 40
0.0
 41
0.0
 42
0.0
 43
0.0
 44
558.8
 45
431.8
 46
0.0
 47
0.0
 48
0.0
 49
0.0
140
0.0
141
0.0
142
1.0
143
1.0
 70
1024
 72
0
 73
0
 74
0
  7

 75
0
147
1.0
148
0.0
149
0.0
100
AcDbLayout
  1
Model
 70
0
 71
0
 10
0.0
 20
0.0
 11
22.0
 21
17.0
 12
0.0
 22
0.0
 32
0.0
 14
0.0
 24
0.0
 34
0.0
 15
0.0
 25
0.0
 35
0.0
146
0.0
 13
0.0
 23
0.0
 33
0.0
 16
1.0
 26
0.0
 36
0.0
 17
0.0
 27
1.0
 37
0.0
 76
0
330
202
345
0
346
0
  0
LAYOUT
  5
23B
102
{ACAD_REACTORS
330
1A
102
}
100
AcDbPlotSettings
  1

  2
none_device
  4
ANSI_C_(22.00_x_17.00_Inches)
  6

 40
0.0
 41
0.0
 42
0.0
 43
0.0
 44
558.8
 45
431.8
 46
0.0
 47
0.0
 48
0.0
 49
0.0
140
0.0
141
0.0
142
1.0
143
1.0
 70
0
 72
0
 73
0
 74
0
  7

 75
0
147
1.0
148
0.0
149
0.0
100
AcDbLayout
  1
Layout1
 70
0
 71
1
 10
0.0
 20
0.0
 11
22.0
 21
17.0
 12
0.0
 22
0.0
 32
0.0
 14
0.0
 24
0.0
 34
0.0
 15
0.0
 25
0.0
 35
0.0
146
0.0
 13
0.0
 23
0.0
 33
0.0
 16
1.0
 26
0.0
 36
0.0
 17
0.0
 27
1.0
 37
0.0
 76
0
330
203
345
0
346
0
  0
ENDSEC
  0
EOF
