999
DXF file: E:\BT Custom\CADOUTPUT\_FRONT.dxf
999
Pro/ENGINEER 2018400 by Parametric Technology Corporation
  0
SECTION
  2
HEADER
  9
$ACADVER
  1
AC1018
  9
$DWGCODEPAGE
  3
ANSI_1252
  9
$EXTMAX
 10
22.0
 20
17.0
 30
0.0
  9
$EXTMIN
 10
0.0
 20
0.0
 30
0.0
  9
$LIMMIN
 10
0.0
 20
0.0
  9
$LIMMAX
 10
22.0
 20
17.0
  9
$VIEWCTR
 10
11.0
 20
8.5
  9
$VIEWSIZE
 40
17.0
  9
$CLAYER
  8
0
  9
$LTSCALE
 40
1.21
  9
$CELTYPE
  6
BYLAYER
  9
$DIMSCALE
 40
1.0
  9
$DIMASZ
 40
0.1
  9
$DIMEXO
 40
0.0625
  9
$DIMDLI
 40
0.836
  9
$DIMEXE
 40
0.125
  9
$DIMCEN
 40
0.198
  9
$DIMLFAC
 40
1.0
  9
$DIMBLK
  1
_FILLED
  9
$DIMALT
 70
1
  9
$DIMALTD
 70
2
  9
$DIMALTTD
 70
2
  9
$DIMALTF
 40
25.4
  9
$DIMTXT
 40
0.08
  9
$DIMTOL
 70
1
  9
$DIMLIM
 70
0
  9
$DIMTFAC
 40
1.0
  9
$DIMTP
 40
0.001
  9
$DIMTM
 40
0.001
  9
$DIMGAP
 40
0.09
  9
$DIMDSEP
 70
46
  9
$AUNITS
 70
0
  9
$PDMODE
 70
3
  9
$PDSIZE
 40
0.06
  9
$HANDSEED
  5
2CA
  9
$TILEMODE
 70
1
  9
$MEASUREMENT
 70
0
  9
$INSUNITS
 70
1
  0
ENDSEC
  0
SECTION
  2
CLASSES
  0
CLASS
  1
ACDBDICTIONARYWDFLT
  2
AcDbDictionaryWithDefault
  3
AutoCAD 2000
 90
0
 91
1
280
0
281
0
  0
CLASS
  1
ACDBPLACEHOLDER
  2
AcDbPlaceHolder
  3
AutoCAD 2000
 90
0
 91
1
280
0
281
0
  0
CLASS
  1
LAYOUT
  2
AcDbLayout
  3
AutoCAD 2000
 90
0
 91
0
280
0
281
0
  0
ENDSEC
  0
SECTION
  2
TABLES
  0
TABLE
  2
VPORT
  5
8
100
AcDbSymbolTable
 70
2
  0
VPORT
  5
1F4
100
AcDbSymbolTableRecord
100
AcDbViewportTableRecord
  2
*ACTIVE
 70
0
 10
0.0
 20
0.0
 11
1.0
 21
1.0
 12
11.0
 22
8.5
 13
0.0
 23
0.0
 14
1.0
 24
1.0
 15
0.0
 25
0.0
 16
0.0
 26
0.0
 36
1.0
 17
0.0
 27
0.0
 37
0.0
 40
17.0
 41
1.2941176471
 42
50.0
 43
0.0
 44
0.0
 50
0.0
 51
0.0
 71
0
 72
100
 73
1
 74
1
 75
0
 76
0
 77
0
 78
0
  0
ENDTAB
  0
TABLE
  2
LTYPE
  5
5
100
AcDbSymbolTable
 70
6
  0
LTYPE
  5
14
100
AcDbSymbolTableRecord
100
AcDbLinetypeTableRecord
  2
BYBLOCK
 70
0
  3

 72
65
 73
0
 40
0.0
  0
LTYPE
  5
15
100
AcDbSymbolTableRecord
100
AcDbLinetypeTableRecord
  2
BYLAYER
 70
0
  3

 72
65
 73
0
 40
0.0
  0
LTYPE
  5
16
100
AcDbSymbolTableRecord
100
AcDbLinetypeTableRecord
  2
CONTINUOUS
 70
64
  3
Solid line
 72
65
 73
0
 40
0.0
  0
LTYPE
  5
1F5
100
AcDbSymbolTableRecord
100
AcDbLinetypeTableRecord
  2
CENTER
 70
64
  3
____ _ ____ _ ____ _ ____ _ ____ _ ____ _ ____
 72
65
 73
4
 40
0.6
 49
0.375
 74
0
 49
-0.075
 74
0
 49
0.075
 74
0
 49
-0.075
 74
0
  0
LTYPE
  5
1F6
100
AcDbSymbolTableRecord
100
AcDbLinetypeTableRecord
  2
HIDDEN
 70
64
  3
- - - - - - - - - - - - - - - - - - - -
 72
65
 73
2
 40
0.2
 49
0.1
 74
0
 49
-0.1
 74
0
  0
LTYPE
  5
1F7
100
AcDbSymbolTableRecord
100
AcDbLinetypeTableRecord
  2
PHANTOM
 70
64
  3
_____ _ _ _____ _ _ _____ _ _ _____
 72
65
 73
6
 40
0.8
 49
0.45
 74
0
 49
-0.05
 74
0
 49
0.1
 74
0
 49
-0.05
 74
0
 49
0.1
 74
0
 49
-0.05
 74
0
  0
LTYPE
  5
1F8
100
AcDbSymbolTableRecord
100
AcDbLinetypeTableRecord
  2
DOT
 70
64
  3
. . . . . . . . . . . . . . . . . . . .
 72
65
 73
2
 40
0.2
 49
0.1
 74
0
 49
-0.1
 74
0
  0
LTYPE
  5
1F9
100
AcDbSymbolTableRecord
100
AcDbLinetypeTableRecord
  2
DASHED
 70
64
  3
- - - - - - - - - - - - - - - - - - - -
 72
65
 73
2
 40
0.2
 49
0.1
 74
0
 49
-0.1
 74
0
  0
ENDTAB
  0
TABLE
  2
LAYER
  5
2
100
AcDbSymbolTable
 70
36
  0
LAYER
  5
10
100
AcDbSymbolTableRecord
100
AcDbLayerTableRecord
  2
0
 70
0
 62
7
  6
CONTINUOUS
370
-3
390
F
  0
LAYER
  5
1FA
100
AcDbSymbolTableRecord
100
AcDbLayerTableRecord
  2
DEFAULT_1
 70
0
 62
7
  6
CENTER
370
-3
390
F
  0
LAYER
  5
1FB
100
AcDbSymbolTableRecord
100
AcDbLayerTableRecord
  2
DEFAULT_2
 70
0
 62
8
  6
HIDDEN
370
-3
390
F
  0
LAYER
  5
1FC
100
AcDbSymbolTableRecord
100
AcDbLayerTableRecord
  2
DEFAULT_3
 70
0
 62
7
  6
PHANTOM
370
-3
390
F
  0
LAYER
  5
1FD
100
AcDbSymbolTableRecord
100
AcDbLayerTableRecord
  2
ALL_FEATURES
 70
0
 62
7
  6
CONTINUOUS
370
-3
390
F
  0
LAYER
  5
1FE
100
AcDbSymbolTableRecord
100
AcDbLayerTableRecord
  2
AXES_FEATURES
 70
0
 62
7
  6
CONTINUOUS
370
-3
390
F
  0
LAYER
  5
1FF
100
AcDbSymbolTableRecord
100
AcDbLayerTableRecord
  2
DIMENSIONS
 70
0
 62
7
  6
CONTINUOUS
370
-3
390
F
  0
ENDTAB
  0
TABLE
  2
STYLE
  5
3
100
AcDbSymbolTable
 70
1
  0
STYLE
  5
11
100
AcDbSymbolTableRecord
100
AcDbTextStyleTableRecord
  2
STANDARD
 70
0
 40
0.0
 41
0.8
 50
0.0
 71
0
 42
0.2
  3
txt
  4

  0
STYLE
  5
200
100
AcDbSymbolTableRecord
100
AcDbTextStyleTableRecord
  2
TEXTSTYLE_1
 70
0
 40
0.0
 41
0.8
 50
0.0
 71
0
 42
0.2
  3
gdt
  4

  0
ENDTAB
  0
TABLE
  2
VIEW
  5
6
100
AcDbSymbolTable
 70
0
  0
ENDTAB
  0
TABLE
  2
UCS
  5
7
100
AcDbSymbolTable
 70
0
  0
ENDTAB
  0
TABLE
  2
APPID
  5
9
100
AcDbSymbolTable
 70
1
  0
APPID
  5
201
100
AcDbSymbolTableRecord
100
AcDbRegAppTableRecord
  2
ACAD
 70
0
  0
ENDTAB
  0
TABLE
  2
BLOCK_RECORD
  5
1
100
AcDbSymbolTable
 70
0
  0
BLOCK_RECORD
  5
202
100
AcDbSymbolTableRecord
100
AcDbBlockTableRecord
  2
*Model_Space
  0
BLOCK_RECORD
  5
203
100
AcDbSymbolTableRecord
100
AcDbBlockTableRecord
  2
*Paper_Space
  0
BLOCK_RECORD
  5
204
100
AcDbSymbolTableRecord
100
AcDbBlockTableRecord
  2
_FILLED
  0
ENDTAB
  0
TABLE
  2
DIMSTYLE
  5
A
100
AcDbSymbolTable
 70
1
100
AcDbDimStyleTable
 71
0
  0
DIMSTYLE
105
205
100
AcDbSymbolTableRecord
100
AcDbDimStyleTableRecord
  2
STANDARD
 70
0
  3

  4

 40
1.0
 41
0.1
 42
0.0625
 43
0.38
 44
0.125
 45
0.0
 46
0.0
 47
0.001
 48
0.001
140
0.08
141
0.09
142
0.0
143
25.4
144
1.0
145
0.0
146
1.0
147
0.09
 71
1.0
 72
0.0
 73
1
 74
1
 75
0
 76
0
 77
0
 78
4
 79
1
170
1
171
2
172
0
173
0
174
0
175
0
176
0
177
0
178
0
270
2
179
3
271
3
272
3
273
2
274
2
275
0
280
0
281
0
282
0
283
1
284
4
285
0
286
0
287
3
288
0
340
11
278
46
341
204
342
204
343
204
344
204
  0
ENDTAB
  0
ENDSEC
  0
SECTION
  2
BLOCKS
  0
BLOCK
  5
20
100
AcDbEntity
  8
0
100
AcDbBlockBegin
  2
*Model_Space
 70
0
 10
0.0
 20
0.0
 30
0.0
  3
*Model_Space
  1

  0
ENDBLK
  5
21
100
AcDbEntity
  8
0
100
AcDbBlockEnd
  0
BLOCK
  5
1C
100
AcDbEntity
  8
0
100
AcDbBlockBegin
  2
*Paper_Space
 70
0
 10
0.0
 20
0.0
 30
0.0
  3
*Paper_Space
  1

  0
ENDBLK
  5
1D
100
AcDbEntity
  8
0
100
AcDbBlockEnd
  0
BLOCK
  5
206
100
AcDbEntity
  8
0
100
AcDbBlockBegin
  2
_FILLED
 70
64
 10
0.0
 20
0.0
  3
_FILLED
  1

  0
SOLID
  5
207
100
AcDbEntity
  8
0
  6
BYBLOCK
 62
0
100
AcDbTrace
 10
0.0
 20
0.0
 11
-1.0
 21
0.2
 12
-1.0
 22
-0.2
 13
-1.0
 23
-0.2
  0
ENDBLK
  5
208
100
AcDbEntity
  8
0
  6
BYBLOCK
 62
0
100
AcDbBlockEnd
  0
ENDSEC
  0
SECTION
  2
ENTITIES
  0
LINE
  5
209
100
AcDbEntity
  8
0
100
AcDbLine
 62
7
  6
CONTINUOUS
 10
9.7926923427
 20
7.4534195021
 11
12.0826923427
 21
7.4534195021
  0
LINE
  5
20A
100
AcDbEntity
  8
0
100
AcDbLine
 62
9
  6
CONTINUOUS
 10
12.0226923427
 20
7.6327969247
 11
9.8526923427
 21
7.6327969247
  0
LINE
  5
20B
100
AcDbEntity
  8
0
100
AcDbLine
 62
9
  6
CONTINUOUS
 10
12.02269241
 20
7.705897882
 11
9.8526923846
 21
7.705897882
  0
LINE
  5
20C
100
AcDbEntity
  8
0
100
AcDbLine
 62
9
  6
CONTINUOUS
 10
9.8526923985
 20
7.7302648681
 11
12.0226922817
 21
7.7302648681
  0
LINE
  5
20D
100
AcDbEntity
  8
0
100
AcDbLine
 62
7
  6
CONTINUOUS
 10
9.5001923427
 20
10.5184195021
 11
9.5001923427
 21
10.9584195021
  0
LINE
  5
20E
100
AcDbEntity
  8
0
100
AcDbLine
 62
9
  6
CONTINUOUS
 10
9.5301923427
 20
10.9884195021
 11
9.5301923427
 21
10.4884195021
  0
LINE
  5
20F
100
AcDbEntity
  8
0
100
AcDbLine
 62
9
  6
CONTINUOUS
 10
12.1326923427
 20
7.8334195021
 11
9.7426923427
 21
7.8334195021
  0
LINE
  5
210
100
AcDbEntity
  8
0
100
AcDbLine
 62
7
  6
CONTINUOUS
 10
9.7726923427
 20
7.8634195021
 11
12.1026923427
 21
7.8634195021
  0
LINE
  5
211
100
AcDbEntity
  8
0
100
AcDbLine
 62
7
  6
CONTINUOUS
 10
10.0651923427
 20
7.8734195021
 11
11.8101923427
 21
7.8734195021
  0
LINE
  5
212
100
AcDbEntity
  8
0
100
AcDbLine
 62
9
  6
CONTINUOUS
 10
11.8101923427
 20
8.0309195021
 11
10.0651923427
 21
8.0309195021
  0
LINE
  5
213
100
AcDbEntity
  8
0
100
AcDbLine
 62
7
  6
CONTINUOUS
 10
9.7426923427
 20
7.7304138534
 11
9.7426923427
 21
7.732476978
  0
LINE
  5
214
100
AcDbEntity
  8
0
100
AcDbLine
 62
7
  6
CONTINUOUS
 10
9.7426923427
 20
7.7329353943
 11
9.7426923427
 21
7.8334195021
  0
LINE
  5
215
100
AcDbEntity
  8
0
100
AcDbLine
 62
7
  6
CONTINUOUS
 10
9.7926923427
 20
7.4534195021
 11
9.7926923427
 21
7.6327969247
  0
LINE
  5
216
100
AcDbEntity
  8
0
100
AcDbLine
 62
9
  6
CONTINUOUS
 10
9.8026923427
 20
7.8634195021
 11
9.8026923428
 21
7.732935355
  0
LINE
  5
217
100
AcDbEntity
  8
0
100
AcDbLine
 62
9
  6
CONTINUOUS
 10
9.8526923427
 20
7.4534195021
 11
9.8526923846
 21
7.7302648681
  0
LINE
  5
218
100
AcDbEntity
  8
0
100
AcDbLine
 62
7
  6
CONTINUOUS
 10
10.0951923427
 20
8.0609195021
 11
11.7801923427
 21
8.0609195021
  0
LINE
  5
219
100
AcDbEntity
  8
0
100
AcDbLine
 62
9
  6
CONTINUOUS
 10
10.2537133604
 20
8.0857100568
 11
11.621671325
 21
8.0857100568
  0
LINE
  5
21A
100
AcDbEntity
  8
0
100
AcDbLine
 62
9
  6
CONTINUOUS
 10
9.8088277908
 20
7.7061556439
 11
9.8108740345
 21
7.7318468637
  0
LINE
  5
21B
100
AcDbEntity
  8
0
100
AcDbLine
 62
7
  6
CONTINUOUS
 10
10.0651923427
 20
7.8734195021
 11
10.0651923427
 21
8.0309195021
  0
LINE
  5
21C
100
AcDbEntity
  8
0
100
AcDbLine
 62
9
  6
CONTINUOUS
 10
10.1251923427
 20
8.0609195021
 11
10.1251923427
 21
7.8734195021
  0
LINE
  5
21D
100
AcDbEntity
  8
0
100
AcDbLine
 62
9
  6
CONTINUOUS
 10
9.7980419776
 20
7.7064741091
 11
9.8026923324
 21
7.7329353626
  0
LINE
  5
21E
100
AcDbEntity
  8
0
100
AcDbLine
 62
7
  6
CONTINUOUS
 10
10.1876923427
 20
7.8634195021
 11
10.1876923427
 21
7.8734195021
  0
LINE
  5
21F
100
AcDbEntity
  8
0
100
AcDbLine
 62
9
  6
CONTINUOUS
 10
10.2537133605
 20
8.0857100568
 11
10.2537133605
 21
8.0609195021
  0
LINE
  5
220
100
AcDbEntity
  8
0
100
AcDbLine
 62
7
  6
CONTINUOUS
 10
10.3986923427
 20
9.8419940489
 11
10.3986923427
 21
9.9689195021
  0
LINE
  5
221
100
AcDbEntity
  8
0
100
AcDbLine
 62
9
  6
CONTINUOUS
 10
10.4176923427
 20
7.8734195021
 11
10.4176923427
 21
7.8634195021
  0
LINE
  5
222
100
AcDbEntity
  8
0
100
AcDbLine
 62
9
  6
CONTINUOUS
 10
10.4586923427
 20
9.9989195021
 11
10.4586923428
 21
9.8471238288
  0
LINE
  5
223
100
AcDbEntity
  8
0
100
AcDbLine
 62
9
  6
CONTINUOUS
 10
10.4586923766
 20
9.847123828
 11
10.4572791489
 21
9.8172198872
  0
LINE
  5
224
100
AcDbEntity
  8
0
100
AcDbLine
 62
7
  6
CONTINUOUS
 10
10.4813626182
 20
9.7118804917
 11
10.1946248953
 21
8.0857100568
  0
LINE
  5
225
100
AcDbEntity
  8
0
100
AcDbLine
 62
9
  6
CONTINUOUS
 10
10.2537133604
 20
8.0857100568
 11
10.5404536772
 21
9.7118802295
  0
LINE
  5
226
100
AcDbEntity
  8
0
100
AcDbLine
 62
9
  6
CONTINUOUS
 10
10.5341923427
 20
10.4884195021
 11
10.5341923427
 21
10.9884195021
  0
LINE
  5
227
100
AcDbEntity
  8
0
100
AcDbLine
 62
7
  6
CONTINUOUS
 10
10.5941923427
 20
10.4028827549
 11
10.5941923427
 21
11.0519195021
  0
LINE
  5
228
100
AcDbEntity
  8
0
100
AcDbLine
 62
9
  6
CONTINUOUS
 10
10.6241923427
 20
11.0819195021
 11
10.6241923427
 21
10.3949195021
  0
LINE
  5
229
100
AcDbEntity
  8
0
100
AcDbLine
 62
7
  6
CONTINUOUS
 10
10.6251923427
 20
10.0299195021
 11
10.6251923427
 21
10.3349195021
  0
LINE
  5
22A
100
AcDbEntity
  8
0
100
AcDbLine
 62
9
  6
CONTINUOUS
 10
10.6276923427
 20
10.5184195018
 11
10.6276923427
 21
10.9584195023
  0
LINE
  5
22B
100
AcDbEntity
  8
0
100
AcDbLine
 62
9
  6
CONTINUOUS
 10
10.5404468608
 20
9.8419938156
 11
10.5404521678
 21
9.7118811662
  0
LINE
  5
22C
100
AcDbEntity
  8
0
100
AcDbLine
 62
7
  6
CONTINUOUS
 10
10.6846923427
 20
10.0299195021
 11
10.6846923427
 21
9.9989195021
  0
LINE
  5
22D
100
AcDbEntity
  8
0
100
AcDbLine
 62
7
  6
CONTINUOUS
 10
10.6876923427
 20
10.5184195021
 11
10.6876923427
 21
10.9584195021
  0
LINE
  5
22E
100
AcDbEntity
  8
0
100
AcDbLine
 62
9
  6
CONTINUOUS
 10
10.7176923427
 20
11.0484195021
 11
10.7176923427
 21
10.4284195021
  0
LINE
  5
22F
100
AcDbEntity
  8
0
100
AcDbLine
 62
9
  6
CONTINUOUS
 10
10.7365108327
 20
10.3949195021
 11
10.7365108327
 21
10.4249195021
  0
LWPOLYLINE
  5
230
100
AcDbEntity
  8
0
100
AcDbPolyline
 62
7
  6
CONTINUOUS
 90
4
 70
0
 10
10.5941923427
 20
10.4028827747
 10
10.5960961755
 20
10.3923658712
 10
10.6015500912
 20
10.3832021243
 10
10.6045256818
 20
10.3802283743
  0
LINE
  5
231
100
AcDbEntity
  8
0
100
AcDbLine
 62
9
  6
CONTINUOUS
 10
11.1388738589
 20
10.4249195021
 11
11.1388738589
 21
10.3949195021
  0
LINE
  5
232
100
AcDbEntity
  8
0
100
AcDbLine
 62
9
  6
CONTINUOUS
 10
11.1576923427
 20
10.4284195021
 11
11.1576923427
 21
11.0484195021
  0
LINE
  5
233
100
AcDbEntity
  8
0
100
AcDbLine
 62
7
  6
CONTINUOUS
 10
11.1876923427
 20
10.9584195021
 11
11.1876923427
 21
10.5184195021
  0
LINE
  5
234
100
AcDbEntity
  8
0
100
AcDbLine
 62
7
  6
CONTINUOUS
 10
11.1906923427
 20
10.0299195021
 11
11.1906923427
 21
9.9989195021
  0
LINE
  5
235
100
AcDbEntity
  8
0
100
AcDbLine
 62
9
  6
CONTINUOUS
 10
11.2476923427
 20
10.9584195025
 11
11.2476923427
 21
10.518419502
  0
LINE
  5
236
100
AcDbEntity
  8
0
100
AcDbLine
 62
7
  6
CONTINUOUS
 10
11.2501923427
 20
10.0299195021
 11
11.2501923427
 21
10.3349195021
  0
LINE
  5
237
100
AcDbEntity
  8
0
100
AcDbLine
 62
9
  6
CONTINUOUS
 10
11.2511923427
 20
10.3949195021
 11
11.2511923427
 21
11.0819195021
  0
LINE
  5
238
100
AcDbEntity
  8
0
100
AcDbLine
 62
7
  6
CONTINUOUS
 10
11.2811923427
 20
10.4028827275
 11
11.2811923427
 21
11.0519195021
  0
LINE
  5
239
100
AcDbEntity
  8
0
100
AcDbLine
 62
9
  6
CONTINUOUS
 10
11.3349335865
 20
9.7118811662
 11
11.3349314288
 21
9.8419938156
  0
LINE
  5
23A
100
AcDbEntity
  8
0
100
AcDbLine
 62
9
  6
CONTINUOUS
 10
11.3411923427
 20
10.9884195021
 11
11.3411923427
 21
10.4884195021
  0
LINE
  5
23B
100
AcDbEntity
  8
0
100
AcDbLine
 62
9
  6
CONTINUOUS
 10
11.4166923427
 20
9.8471237754
 11
11.4166923427
 21
9.9989195021
  0
LINE
  5
23C
100
AcDbEntity
  8
0
100
AcDbLine
 62
9
  6
CONTINUOUS
 10
11.3349342534
 20
9.7118810535
 11
10.5404536772
 21
9.7118802295
  0
LINE
  5
23D
100
AcDbEntity
  8
0
100
AcDbLine
 62
9
  6
CONTINUOUS
 10
11.3349342534
 20
9.7118810535
 11
11.621671325
 21
8.0857100568
  0
LINE
  5
23E
100
AcDbEntity
  8
0
100
AcDbLine
 62
9
  6
CONTINUOUS
 10
11.4166925024
 20
9.8471237818
 11
11.4181026363
 21
9.8172198449
  0
LINE
  5
23F
100
AcDbEntity
  8
0
100
AcDbLine
 62
9
  6
CONTINUOUS
 10
11.4576923427
 20
7.8634195021
 11
11.4576923427
 21
7.8734195021
  0
LINE
  5
240
100
AcDbEntity
  8
0
100
AcDbLine
 62
7
  6
CONTINUOUS
 10
11.4766923427
 20
9.8419937488
 11
11.4766923427
 21
9.9689195021
  0
LINE
  5
241
100
AcDbEntity
  8
0
100
AcDbLine
 62
9
  6
CONTINUOUS
 10
10.5404521678
 20
9.8133728716
 11
11.3349335865
 21
9.8133728716
  0
LINE
  5
242
100
AcDbEntity
  8
0
100
AcDbLine
 62
9
  6
CONTINUOUS
 10
10.5404469704
 20
9.841993912
 11
11.3349314073
 21
9.8419937193
  0
LINE
  5
243
100
AcDbEntity
  8
0
100
AcDbLine
 62
7
  6
CONTINUOUS
 10
11.6807597902
 20
8.0857100568
 11
11.3940214202
 21
9.7118841616
  0
LINE
  5
244
100
AcDbEntity
  8
0
100
AcDbLine
 62
9
  6
CONTINUOUS
 10
11.6216713298
 20
8.0609195021
 11
11.6216713298
 21
8.0857100568
  0
LINE
  5
245
100
AcDbEntity
  8
0
100
AcDbLine
 62
7
  6
CONTINUOUS
 10
11.6876923427
 20
7.8734195021
 11
11.6876923427
 21
7.8634195021
  0
LINE
  5
246
100
AcDbEntity
  8
0
100
AcDbLine
 62
9
  6
CONTINUOUS
 10
11.4766923427
 20
9.9689195021
 11
10.3986923427
 21
9.9689195021
  0
LINE
  5
247
100
AcDbEntity
  8
0
100
AcDbLine
 62
7
  6
CONTINUOUS
 10
10.4286923427
 20
9.9989195021
 11
11.4466923427
 21
9.9989195021
  0
LINE
  5
248
100
AcDbEntity
  8
0
100
AcDbLine
 62
7
  6
CONTINUOUS
 10
10.6251923427
 20
10.0299195021
 11
11.2501923427
 21
10.0299195021
  0
LINE
  5
249
100
AcDbEntity
  8
0
100
AcDbLine
 62
9
  6
CONTINUOUS
 10
11.7501923427
 20
7.8734195021
 11
11.7501923427
 21
8.0609195021
  0
LINE
  5
24A
100
AcDbEntity
  8
0
100
AcDbLine
 62
7
  6
CONTINUOUS
 10
11.8101923427
 20
8.0309195021
 11
11.8101923427
 21
7.8734195021
  0
LINE
  5
24B
100
AcDbEntity
  8
0
100
AcDbLine
 62
9
  6
CONTINUOUS
 10
12.0773424788
 20
7.7064741583
 11
12.072692406
 21
7.7329353991
  0
LINE
  5
24C
100
AcDbEntity
  8
0
100
AcDbLine
 62
9
  6
CONTINUOUS
 10
12.066558059
 20
7.7061557061
 11
12.064510919
 21
7.7318468804
  0
LINE
  5
24D
100
AcDbEntity
  8
0
100
AcDbLine
 62
9
  6
CONTINUOUS
 10
12.0226923427
 20
7.4534195021
 11
12.02269241
 21
7.7302648681
  0
LINE
  5
24E
100
AcDbEntity
  8
0
100
AcDbLine
 62
9
  6
CONTINUOUS
 10
11.2501923427
 20
10.3349195021
 11
10.6251923427
 21
10.3349195021
  0
LINE
  5
24F
100
AcDbEntity
  8
0
100
AcDbLine
 62
9
  6
CONTINUOUS
 10
12.0726923425
 20
7.7329353943
 11
12.0726923427
 21
7.8634195021
  0
LINE
  5
250
100
AcDbEntity
  8
0
100
AcDbLine
 62
7
  6
CONTINUOUS
 10
12.0826923427
 20
7.6327969247
 11
12.0826923427
 21
7.4534195021
  0
LINE
  5
251
100
AcDbEntity
  8
0
100
AcDbLine
 62
7
  6
CONTINUOUS
 10
12.1326923427
 20
7.7304138534
 11
12.1326923427
 21
7.8334195021
  0
LINE
  5
252
100
AcDbEntity
  8
0
100
AcDbLine
 62
7
  6
CONTINUOUS
 10
11.2511923427
 20
10.3949195021
 11
11.1388738528
 21
10.3949195021
  0
LINE
  5
253
100
AcDbEntity
  8
0
100
AcDbLine
 62
7
  6
CONTINUOUS
 10
10.7365108326
 20
10.3949195021
 11
10.6241923427
 21
10.3949195021
  0
LINE
  5
254
100
AcDbEntity
  8
0
100
AcDbLine
 62
9
  6
CONTINUOUS
 10
10.5941923427
 20
10.4249195021
 11
10.7365108327
 21
10.4249195021
  0
LINE
  5
255
100
AcDbEntity
  8
0
100
AcDbLine
 62
9
  6
CONTINUOUS
 10
11.1388738528
 20
10.4249195021
 11
11.2811923427
 21
10.4249195021
  0
LINE
  5
256
100
AcDbEntity
  8
0
100
AcDbLine
 62
9
  6
CONTINUOUS
 10
11.1576923431
 20
10.4284195021
 11
10.7176923425
 21
10.4284195021
  0
LINE
  5
257
100
AcDbEntity
  8
0
100
AcDbLine
 62
7
  6
CONTINUOUS
 10
12.3451923427
 20
10.4884195021
 11
11.3411923427
 21
10.4884195021
  0
LINE
  5
258
100
AcDbEntity
  8
0
100
AcDbLine
 62
7
  6
CONTINUOUS
 10
11.1576923427
 20
10.4884195021
 11
10.7176923427
 21
10.4884195021
  0
LINE
  5
259
100
AcDbEntity
  8
0
100
AcDbLine
 62
7
  6
CONTINUOUS
 10
10.5341923427
 20
10.4884195021
 11
9.5301923427
 21
10.4884195021
  0
LINE
  5
25A
100
AcDbEntity
  8
0
100
AcDbLine
 62
9
  6
CONTINUOUS
 10
9.5001923427
 20
10.5184195021
 11
10.5941923427
 21
10.5184195021
  0
LINE
  5
25B
100
AcDbEntity
  8
0
100
AcDbLine
 62
9
  6
CONTINUOUS
 10
10.6276923427
 20
10.5184195021
 11
11.2476923427
 21
10.5184195021
  0
LINE
  5
25C
100
AcDbEntity
  8
0
100
AcDbLine
 62
9
  6
CONTINUOUS
 10
11.2811923427
 20
10.5184195021
 11
12.3751923427
 21
10.5184195021
  0
LINE
  5
25D
100
AcDbEntity
  8
0
100
AcDbLine
 62
9
  6
CONTINUOUS
 10
12.3451923427
 20
10.4884195021
 11
12.3451923427
 21
10.9884195021
  0
LINE
  5
25E
100
AcDbEntity
  8
0
100
AcDbLine
 62
7
  6
CONTINUOUS
 10
12.3751923427
 20
10.9584195021
 11
12.3751923427
 21
10.5184195021
  0
LINE
  5
25F
100
AcDbEntity
  8
0
100
AcDbLine
 62
9
  6
CONTINUOUS
 10
12.3751923427
 20
10.9584195021
 11
11.2811923427
 21
10.9584195021
  0
LINE
  5
260
100
AcDbEntity
  8
0
100
AcDbLine
 62
9
  6
CONTINUOUS
 10
11.2476923427
 20
10.9584195021
 11
10.6276923427
 21
10.9584195021
  0
LINE
  5
261
100
AcDbEntity
  8
0
100
AcDbLine
 62
9
  6
CONTINUOUS
 10
10.5941923427
 20
10.9584195021
 11
9.5001923427
 21
10.9584195021
  0
LINE
  5
262
100
AcDbEntity
  8
0
100
AcDbLine
 62
7
  6
CONTINUOUS
 10
9.5301923427
 20
10.9884195021
 11
10.5341923427
 21
10.9884195021
  0
LINE
  5
263
100
AcDbEntity
  8
0
100
AcDbLine
 62
7
  6
CONTINUOUS
 10
10.7176923427
 20
10.9884195021
 11
11.1576923427
 21
10.9884195021
  0
LINE
  5
264
100
AcDbEntity
  8
0
100
AcDbLine
 62
7
  6
CONTINUOUS
 10
11.3411923427
 20
10.9884195021
 11
12.3451923427
 21
10.9884195021
  0
LINE
  5
265
100
AcDbEntity
  8
0
100
AcDbLine
 62
9
  6
CONTINUOUS
 10
10.7176923424
 20
11.0484195021
 11
11.1576923429
 21
11.0484195021
  0
LINE
  5
266
100
AcDbEntity
  8
0
100
AcDbLine
 62
9
  6
CONTINUOUS
 10
11.2811923427
 20
11.0519195021
 11
10.5941923427
 21
11.0519195021
  0
LINE
  5
267
100
AcDbEntity
  8
0
100
AcDbLine
 62
7
  6
CONTINUOUS
 10
10.6241923427
 20
11.0819195021
 11
11.2511923427
 21
11.0819195021
  0
ARC
  5
268
100
AcDbEntity
  8
0
100
AcDbCircle
 62
7
  6
CONTINUOUS
 10
9.7026923427
 20
7.6327969247
 40
0.09
100
AcDbArc
 50
0.0
 51
54.3146649845
  0
ARC
  5
269
100
AcDbEntity
  8
0
100
AcDbCircle
 62
7
  6
CONTINUOUS
 10
10.0951923427
 20
8.0309195021
 40
0.03
100
AcDbArc
 50
90.0
 51
180.0
  0
ARC
  5
26A
100
AcDbEntity
  8
0
100
AcDbCircle
 62
7
  6
CONTINUOUS
 10
10.1650806627
 20
8.0909195021
 40
0.03
100
AcDbArc
 50
270.0
 51
350.0000000013
  0
ARC
  5
26B
100
AcDbEntity
  8
0
100
AcDbCircle
 62
7
  6
CONTINUOUS
 10
9.7726923427
 20
7.7302648681
 40
0.03
100
AcDbArc
 50
180.0
 51
234.3146661959
  0
ARC
  5
26C
100
AcDbEntity
  8
0
100
AcDbCircle
 62
7
  6
CONTINUOUS
 10
9.7726923427
 20
7.8334195021
 40
0.03
100
AcDbArc
 50
90.0
 51
180.0
  0
ARC
  5
26D
100
AcDbEntity
  8
0
100
AcDbCircle
 62
9
  6
CONTINUOUS
 10
9.7709176521
 20
7.7329888528
 40
0.0282263952
100
AcDbArc
 50
182.2537586368
 51
185.4130925109
  0
ARC
  5
26E
100
AcDbEntity
  8
0
100
AcDbCircle
 62
9
  6
CONTINUOUS
 10
9.769761698
 20
7.7329384968
 40
0.0270693555
100
AcDbArc
 50
180.0065566705
 51
182.2434746197
  0
ARC
  5
26F
100
AcDbEntity
  8
0
100
AcDbCircle
 62
7
  6
CONTINUOUS
 10
10.3927300393
 20
9.7275095021
 40
0.09
100
AcDbArc
 50
350.0
 51
72.5612501748
  0
ARC
  5
270
100
AcDbEntity
  8
0
100
AcDbCircle
 62
9
  6
CONTINUOUS
 10
10.7176923427
 20
10.9584195021
 40
0.09
100
AcDbArc
 50
90.0000002049
 51
179.9999998778
  0
ARC
  5
271
100
AcDbEntity
  8
0
100
AcDbCircle
 62
9
  6
CONTINUOUS
 10
10.7176923427
 20
10.5184195021
 40
0.09
100
AcDbArc
 50
180.0000002049
 51
269.999999878
  0
ARC
  5
272
100
AcDbEntity
  8
0
100
AcDbCircle
 62
7
  6
CONTINUOUS
 10
10.5651923427
 20
10.3349195021
 40
0.06
100
AcDbArc
 50
0.0
 51
49.038242089
  0
ARC
  5
273
100
AcDbEntity
  8
0
100
AcDbCircle
 62
7
  6
CONTINUOUS
 10
10.5341923427
 20
11.0484195021
 40
0.06
100
AcDbArc
 50
270.0
 51
359.9999999897
  0
ARC
  5
274
100
AcDbEntity
  8
0
100
AcDbCircle
 62
7
  6
CONTINUOUS
 10
10.5341923427
 20
10.4284195021
 40
0.06
100
AcDbArc
 50
0.0000000103
 51
90.0
  0
ARC
  5
275
100
AcDbEntity
  8
0
100
AcDbCircle
 62
7
  6
CONTINUOUS
 10
10.4286923427
 20
9.8419940545
 40
0.03
100
AcDbArc
 50
180.0000353986
 51
252.5612637656
  0
ARC
  5
276
100
AcDbEntity
  8
0
100
AcDbCircle
 62
7
  6
CONTINUOUS
 10
10.4286923427
 20
9.9689195021
 40
0.03
100
AcDbArc
 50
90.0
 51
180.0000000002
  0
ARC
  5
277
100
AcDbEntity
  8
0
100
AcDbCircle
 62
7
  6
CONTINUOUS
 10
10.6241923427
 20
10.4249195021
 40
0.03
100
AcDbArc
 50
180.0
 51
270.0
  0
ARC
  5
278
100
AcDbEntity
  8
0
100
AcDbCircle
 62
7
  6
CONTINUOUS
 10
10.6241923427
 20
11.0519195021
 40
0.03
100
AcDbArc
 50
90.0
 51
180.0
  0
ARC
  5
279
100
AcDbEntity
  8
0
100
AcDbCircle
 62
7
  6
CONTINUOUS
 10
10.7176923427
 20
10.9584195021
 40
0.03
100
AcDbArc
 50
90.0
 51
179.9999999839
  0
ARC
  5
27A
100
AcDbEntity
  8
0
100
AcDbCircle
 62
7
  6
CONTINUOUS
 10
10.7176923427
 20
10.5184195021
 40
0.03
100
AcDbArc
 50
180.0
 51
269.9999999837
  0
ARC
  5
27B
100
AcDbEntity
  8
0
100
AcDbCircle
 62
7
  6
CONTINUOUS
 10
9.5301923427
 20
10.5184195021
 40
0.03
100
AcDbArc
 50
180.0
 51
270.0
  0
ARC
  5
27C
100
AcDbEntity
  8
0
100
AcDbCircle
 62
7
  6
CONTINUOUS
 10
9.5301923427
 20
10.9584195021
 40
0.03
100
AcDbArc
 50
90.0
 51
180.0
  0
ARC
  5
27D
100
AcDbEntity
  8
0
100
AcDbCircle
 62
9
  6
CONTINUOUS
 10
10.4286826182
 20
9.8471520296
 40
0.0299920204
100
AcDbArc
 50
180.0513924254
 51
266.3120291745
  0
ARC
  5
27E
100
AcDbEntity
  8
0
100
AcDbCircle
 62
7
  6
CONTINUOUS
 10
12.1726923427
 20
7.6327969247
 40
0.09
100
AcDbArc
 50
125.6853350155
 51
180.0
  0
ARC
  5
27F
100
AcDbEntity
  8
0
100
AcDbCircle
 62
7
  6
CONTINUOUS
 10
11.7801923427
 20
8.0309195021
 40
0.03
100
AcDbArc
 50
0.0
 51
90.0
  0
ARC
  5
280
100
AcDbEntity
  8
0
100
AcDbCircle
 62
7
  6
CONTINUOUS
 10
11.7103040228
 20
8.0909195021
 40
0.03
100
AcDbArc
 50
189.9999999987
 51
270.0
  0
ARC
  5
281
100
AcDbEntity
  8
0
100
AcDbCircle
 62
7
  6
CONTINUOUS
 10
12.1026923427
 20
7.7302648681
 40
0.03
100
AcDbArc
 50
305.6853338041
 51
360.0
  0
ARC
  5
282
100
AcDbEntity
  8
0
100
AcDbCircle
 62
7
  6
CONTINUOUS
 10
12.1026923427
 20
7.8334195021
 40
0.03
100
AcDbArc
 50
0.0
 51
90.0
  0
ARC
  5
283
100
AcDbEntity
  8
0
100
AcDbCircle
 62
9
  6
CONTINUOUS
 10
12.1044391256
 20
7.7329887263
 40
0.0282542994
100
AcDbArc
 50
354.5925901032
 51
357.74873511
  0
ARC
  5
284
100
AcDbEntity
  8
0
100
AcDbCircle
 62
9
  6
CONTINUOUS
 10
12.1055950748
 20
7.7329384562
 40
0.0270972681
100
AcDbArc
 50
357.7589341072
 51
359.9934586839
  0
ARC
  5
285
100
AcDbEntity
  8
0
100
AcDbCircle
 62
7
  6
CONTINUOUS
 10
11.4826546461
 20
9.7275095021
 40
0.09
100
AcDbArc
 50
107.4388507291
 51
190.0
  0
ARC
  5
286
100
AcDbEntity
  8
0
100
AcDbCircle
 62
7
  6
CONTINUOUS
 10
11.3101923427
 20
10.3349195021
 40
0.06
100
AcDbArc
 50
130.961788527
 51
180.0
  0
ARC
  5
287
100
AcDbEntity
  8
0
100
AcDbCircle
 62
7
  6
CONTINUOUS
 10
11.4466923427
 20
9.8419940545
 40
0.03
100
AcDbArc
 50
287.4387362344
 51
359.9994160169
  0
ARC
  5
288
100
AcDbEntity
  8
0
100
AcDbCircle
 62
7
  6
CONTINUOUS
 10
11.4466923427
 20
9.9689195021
 40
0.03
100
AcDbArc
 50
0.0
 51
90.0
  0
ARC
  5
289
100
AcDbEntity
  8
0
100
AcDbCircle
 62
9
  6
CONTINUOUS
 10
11.4467019065
 20
9.8471517254
 40
0.0299921364
100
AcDbArc
 50
273.6946802019
 51
359.9488941499
  0
ARC
  5
28A
100
AcDbEntity
  8
0
100
AcDbCircle
 62
9
  6
CONTINUOUS
 10
11.1576923427
 20
10.5184195021
 40
0.09
100
AcDbArc
 50
270.0000002049
 51
359.9999998778
  0
ARC
  5
28B
100
AcDbEntity
  8
0
100
AcDbCircle
 62
9
  6
CONTINUOUS
 10
11.1576923427
 20
10.9584195021
 40
0.09
100
AcDbArc
 50
0.0000002049
 51
89.999999878
  0
ARC
  5
28C
100
AcDbEntity
  8
0
100
AcDbCircle
 62
7
  6
CONTINUOUS
 10
11.3411923427
 20
11.0484195021
 40
0.06
100
AcDbArc
 50
180.0000000107
 51
270.0
  0
ARC
  5
28D
100
AcDbEntity
  8
0
100
AcDbCircle
 62
7
  6
CONTINUOUS
 10
11.3411923427
 20
10.4284195021
 40
0.06
100
AcDbArc
 50
90.0
 51
179.9999999893
  0
ARC
  5
28E
100
AcDbEntity
  8
0
100
AcDbCircle
 62
7
  6
CONTINUOUS
 10
11.2511394876
 20
10.4029118145
 40
0.0300540526
100
AcDbArc
 50
311.0015249904
 51
359.9455369999
  0
ARC
  5
28F
100
AcDbEntity
  8
0
100
AcDbCircle
 62
7
  6
CONTINUOUS
 10
11.2511923427
 20
11.0519195021
 40
0.03
100
AcDbArc
 50
0.0
 51
90.0
  0
ARC
  5
290
100
AcDbEntity
  8
0
100
AcDbCircle
 62
7
  6
CONTINUOUS
 10
11.2511923427
 20
10.4249195021
 40
0.03
100
AcDbArc
 50
269.9999999927
 51
360.0
  0
ARC
  5
291
100
AcDbEntity
  8
0
100
AcDbCircle
 62
7
  6
CONTINUOUS
 10
11.1576923427
 20
10.9584195021
 40
0.03
100
AcDbArc
 50
0.0
 51
89.9999999837
  0
ARC
  5
292
100
AcDbEntity
  8
0
100
AcDbCircle
 62
7
  6
CONTINUOUS
 10
11.1576923427
 20
10.5184195021
 40
0.03
100
AcDbArc
 50
270.0
 51
359.9999999839
  0
ARC
  5
293
100
AcDbEntity
  8
0
100
AcDbCircle
 62
7
  6
CONTINUOUS
 10
12.3451923427
 20
10.9584195021
 40
0.03
100
AcDbArc
 50
0.0
 51
90.0
  0
ARC
  5
294
100
AcDbEntity
  8
0
100
AcDbCircle
 62
7
  6
CONTINUOUS
 10
12.3451923427
 20
10.5184195021
 40
0.03
100
AcDbArc
 50
270.0
 51
360.0
  0
SPLINE
  5
295
100
AcDbEntity
  8
0
100
AcDbSpline
 62
9
  6
CONTINUOUS
 70
0
 71
3
 72
12
 73
8
 74
0
 42
0.0000001
 43
0.0000001
 44
0.0000000001
 40
0.0
 40
0.0
 40
0.0
 40
0.0
 40
0.2500029255
 40
0.3750145053
 40
0.5000049454
 40
0.7500160468
 40
1.0
 40
1.0
 40
1.0
 40
1.0
 10
11.3349314073
 20
9.8419937193
 30
0.0
 10
11.3417599673
 20
9.8419939229
 30
0.0
 10
11.3520046442
 20
9.8422955966
 30
0.0
 10
11.3656351258
 20
9.8431516047
 30
0.0
 10
11.3792496726
 20
9.8442394618
 30
0.0
 10
11.3962481463
 20
9.8458009339
 30
0.0
 10
11.4098718864
 20
9.8468020147
 30
0.0
 10
11.4166923427
 20
9.8471237754
 30
0.0
  0
SPLINE
  5
296
100
AcDbEntity
  8
0
100
AcDbSpline
 62
9
  6
CONTINUOUS
 70
0
 71
3
 72
14
 73
10
 74
0
 42
0.0000001
 43
0.0000001
 44
0.0000000001
 40
0.0
 40
0.0
 40
0.0
 40
0.0
 40
0.0597193084
 40
0.1285377115
 40
0.2147999268
 40
0.3227504591
 40
0.4544467906
 40
0.6109225877
 40
1.0
 40
1.0
 40
1.0
 40
1.0
 10
12.1326923427
 20
7.732935355
 30
0.0
 10
12.1326923305
 20
7.7330053659
 30
0.0
 10
12.1326532945
 20
7.7331576653
 30
0.0
 10
12.1324898518
 20
7.7333557729
 30
0.0
 10
12.132236396
 20
7.7335348244
 30
0.0
 10
12.1318912167
 20
7.7337012454
 30
0.0
 10
12.1314529913
 20
7.7338566823
 30
0.0
 10
12.1306863134
 20
7.7340649371
 30
0.0
 10
12.1300559652
 20
7.7341796003
 30
0.0
 10
12.1296052764
 20
7.7342498296
 30
0.0
  0
SPLINE
  5
297
100
AcDbEntity
  8
0
100
AcDbSpline
 62
9
  6
CONTINUOUS
 70
0
 71
3
 72
15
 73
11
 74
0
 42
0.0000001
 43
0.0000001
 44
0.0000000001
 40
0.0
 40
0.0
 40
0.0
 40
0.0
 40
0.0292488164
 40
0.0642992944
 40
0.1510799002
 40
0.2585344306
 40
0.383966028
 40
0.5243897065
 40
0.6764332301
 40
1.0
 40
1.0
 40
1.0
 40
1.0
 10
12.1296052764
 20
7.7342498296
 30
0.0
 10
12.1290562142
 20
7.7343353882
 30
0.0
 10
12.1278429528
 20
7.7344832577
 30
0.0
 10
12.1249819029
 20
7.7347182938
 30
0.0
 10
12.1206274577
 20
7.7348881419
 30
0.0
 10
12.114554137
 20
7.7349433583
 30
0.0
 10
12.1074618093
 20
7.7348540953
 30
0.0
 10
12.0995253672
 20
7.7346210827
 30
0.0
 10
12.0878332317
 20
7.7340923105
 30
0.0
 10
12.078816305
 20
7.7334709587
 30
0.0
 10
12.0726923426
 20
7.7329353943
 30
0.0
  0
SPLINE
  5
298
100
AcDbEntity
  8
0
100
AcDbSpline
 62
9
  6
CONTINUOUS
 70
0
 71
3
 72
28
 73
24
 74
0
 42
0.0000001
 43
0.0000001
 44
0.0000000001
 40
0.0
 40
0.0
 40
0.0
 40
0.0
 40
0.0819576558
 40
0.1638554218
 40
0.2464635157
 40
0.3296451168
 40
0.4951677976
 40
0.5756179314
 40
0.652876202
 40
0.7256561131
 40
0.7925755582
 40
0.8522440579
 40
0.9033896465
 40
0.9253672522
 40
0.9447309335
 40
0.96132503
 40
0.9750558057
 40
0.9858561345
 40
0.9936587074
 40
0.9964147286
 40
0.9983959457
 40
0.9995938703
 40
1.0
 40
1.0
 40
1.0
 40
1.0
 10
10.6241923427
 20
10.3949195021
 30
0.0
 10
10.6234983905
 20
10.3949194981
 30
0.0
 10
10.622108283
 20
10.3947839223
 30
0.0
 10
10.620087762
 20
10.3942328152
 30
0.0
 10
10.6181537031
 20
10.3934081179
 30
0.0
 10
10.6157038042
 20
10.3920332199
 30
0.0
 10
10.613465614
 20
10.3903515382
 30
0.0
 10
10.6114353869
 20
10.3885155911
 30
0.0
 10
10.6100555886
 20
10.3871341547
 30
0.0
 10
10.6088140702
 20
10.3857795829
 30
0.0
 10
10.6077188506
 20
10.3844945938
 30
0.0
 10
10.6067772848
 20
10.3833203887
 30
0.0
 10
10.6060963274
 20
10.3824255407
 30
0.0
 10
10.6056320754
 20
10.3817948774
 30
0.0
 10
10.6053446236
 20
10.3813973626
 30
0.0
 10
10.6051002178
 20
10.3810549144
 30
0.0
 10
10.6048993825
 20
10.3807704308
 30
0.0
 10
10.6047429941
 20
10.3805457621
 30
0.0
 10
10.6046398768
 20
10.3803970949
 30
0.0
 10
10.6045806134
 20
10.3803091145
 30
0.0
 10
10.6045513593
 20
10.3802680352
 30
0.0
 10
10.6045362139
 20
10.3802419795
 30
0.0
 10
10.6045267367
 20
10.3802316268
 30
0.0
 10
10.6045256448
 20
10.380228366
 30
0.0
  0
SPLINE
  5
299
100
AcDbEntity
  8
0
100
AcDbSpline
 62
9
  6
CONTINUOUS
 70
0
 71
3
 72
11
 73
7
 74
0
 42
0.0000001
 43
0.0000001
 44
0.0000000001
 40
0.0
 40
0.0
 40
0.0
 40
0.0
 40
0.2385823579
 40
0.4857843816
 40
0.740756046
 40
1.0
 40
1.0
 40
1.0
 40
1.0
 10
10.4572790844
 20
9.8172198959
 30
0.0
 10
10.4638967915
 20
9.8169663462
 30
0.0
 10
10.4773594366
 20
9.8161687791
 30
0.0
 10
10.4978721013
 20
9.8147530228
 30
0.0
 10
10.5189819601
 20
9.8136772589
 30
0.0
 10
10.5332560813
 20
9.8133732769
 30
0.0
 10
10.5404521678
 20
9.8133726544
 30
0.0
  0
SPLINE
  5
29A
100
AcDbEntity
  8
0
100
AcDbSpline
 62
9
  6
CONTINUOUS
 70
0
 71
3
 72
17
 73
13
 74
0
 42
0.0000001
 43
0.0000001
 44
0.0000000001
 40
0.0
 40
0.0
 40
0.0
 40
0.0
 40
0.1730928525
 40
0.3313542597
 40
0.4750110091
 40
0.6047249937
 40
0.7210381284
 40
0.8242800646
 40
0.8714090922
 40
0.9159359593
 40
0.9584762369
 40
1.0
 40
1.0
 40
1.0
 40
1.0
 10
12.0426920151
 20
7.6290815674
 30
0.0
 10
12.0447578912
 20
7.6284014483
 30
0.0
 10
12.0487786214
 20
7.6272908644
 30
0.0
 10
12.0546561726
 20
7.6262195451
 30
0.0
 10
12.0600528247
 20
7.6256349704
 30
0.0
 10
12.0649499168
 20
7.6254572299
 30
0.0
 10
12.0693401633
 20
7.6255971553
 30
0.0
 10
12.0726711422
 20
7.6260562883
 30
0.0
 10
12.0750401991
 20
7.62668966
 30
0.0
 10
12.076617807
 20
7.6272964727
 30
0.0
 10
12.078040271
 20
7.6280741945
 30
0.0
 10
12.0788791417
 20
7.6287260229
 30
0.0
 10
12.0792610011
 20
7.6290815674
 30
0.0
  0
LINE
  5
29B
100
AcDbEntity
  8
0
100
AcDbLine
 62
9
  6
CONTINUOUS
 10
9.8108739383
 20
7.7318468814
 11
9.8026923438
 21
7.7329353606
  0
SPLINE
  5
29C
100
AcDbEntity
  8
0
100
AcDbSpline
 62
9
  6
CONTINUOUS
 70
0
 71
3
 72
22
 73
18
 74
0
 42
0.0000001
 43
0.0000001
 44
0.0000000001
 40
0.0
 40
0.0
 40
0.0
 40
0.0
 40
0.0014707171
 40
0.0058454545
 40
0.0130326064
 40
0.0229406951
 40
0.0354783857
 40
0.0505544963
 40
0.0879579785
 40
0.1344252208
 40
0.1892334477
 40
0.2516635787
 40
0.3210008056
 40
0.4768648778
 40
0.647869257
 40
0.8249267468
 40
1.0
 40
1.0
 40
1.0
 40
1.0
 10
10.4197016914
 20
9.813372929
 30
0.0
 10
10.4196977485
 20
9.8133726077
 30
0.0
 10
10.419727503
 20
9.8133886313
 30
0.0
 10
10.4197392328
 20
9.8134032091
 30
0.0
 10
10.4197949641
 20
9.8134409687
 30
0.0
 10
10.419855379
 20
9.8134863993
 30
0.0
 10
10.4199386907
 20
9.8135461027
 30
0.0
 10
10.4200801757
 20
9.8136476652
 30
0.0
 10
10.4202981005
 20
9.813801269
 30
0.0
 10
10.4206047286
 20
9.8140133738
 30
0.0
 10
10.4209694866
 20
9.8142601963
 30
0.0
 10
10.4213881461
 20
9.8145369284
 30
0.0
 10
10.4220385283
 20
9.8149560051
 30
0.0
 10
10.4229459508
 20
9.8155152917
 30
0.0
 10
10.4241315732
 20
9.8161738512
 30
0.0
 10
10.4254056231
 20
9.8167740724
 30
0.0
 10
10.4262998651
 20
9.8170945268
 30
0.0
 10
10.4267534261
 20
9.817221218
 30
0.0
  0
SPLINE
  5
29D
100
AcDbEntity
  8
0
100
AcDbSpline
 62
9
  6
CONTINUOUS
 70
0
 71
3
 72
18
 73
14
 74
0
 42
0.0000001
 43
0.0000001
 44
0.0000000001
 40
0.0
 40
0.0
 40
0.0
 40
0.0
 40
0.0167185518
 40
0.0413072823
 40
0.0735228615
 40
0.1130517481
 40
0.1595577276
 40
0.2126954635
 40
0.3374669233
 40
0.4840614089
 40
0.647191201
 40
0.8210857074
 40
1.0
 40
1.0
 40
1.0
 40
1.0
 10
10.4267539333
 20
9.8172211819
 30
0.0
 10
10.4269178652
 20
9.8172669557
 30
0.0
 10
10.4273356392
 20
9.8173294834
 30
0.0
 10
10.4280810054
 20
9.8173918955
 30
0.0
 10
10.4290612151
 20
9.8174353723
 30
0.0
 10
10.4302646305
 20
9.8174643005
 30
0.0
 10
10.4316814403
 20
9.8174807193
 30
0.0
 10
10.4339660572
 20
9.8174909862
 30
0.0
 10
10.4372696718
 20
9.8174883719
 30
0.0
 10
10.4416930315
 20
9.8174900944
 30
0.0
 10
10.446616485
 20
9.8174664322
 30
0.0
 10
10.4518685412
 20
9.8173915804
 30
0.0
 10
10.4554590624
 20
9.8172895848
 30
0.0
 10
10.457279157
 20
9.8172198577
 30
0.0
  0
SPLINE
  5
29E
100
AcDbEntity
  8
0
100
AcDbSpline
 62
9
  6
CONTINUOUS
 70
0
 71
3
 72
9
 73
5
 74
0
 42
0.0000001
 43
0.0000001
 44
0.0000000001
 40
0.0
 40
0.0
 40
0.0
 40
0.0
 40
0.2508227134
 40
1.0
 40
1.0
 40
1.0
 40
1.0
 10
9.8526923985
 20
7.7302648637
 30
0.0
 10
9.8491930638
 20
7.7302646812
 30
0.0
 10
9.8352422366
 20
7.7303843182
 30
0.0
 10
9.8212930516
 20
7.7310172378
 30
0.0
 10
9.8108739375
 20
7.7318468714
 30
0.0
  0
SPLINE
  5
29F
100
AcDbEntity
  8
0
100
AcDbSpline
 62
9
  6
CONTINUOUS
 70
0
 71
3
 72
9
 73
5
 74
0
 42
0.0000001
 43
0.0000001
 44
0.0000000001
 40
0.0
 40
0.0
 40
0.0
 40
0.0
 40
0.2489663416
 40
1.0
 40
1.0
 40
1.0
 40
1.0
 10
12.0645108061
 20
7.7318468755
 30
0.0
 10
12.0610482706
 20
7.7315712756
 30
0.0
 10
12.0471281368
 20
7.7306227185
 30
0.0
 10
12.0331704256
 20
7.730264976
 30
0.0
 10
12.0226922817
 20
7.7302648631
 30
0.0
  0
LINE
  5
2A0
100
AcDbEntity
  8
0
100
AcDbLine
 62
9
  6
CONTINUOUS
 10
12.0726923441
 20
7.7329353853
 11
12.0645108064
 21
7.7318468714
  0
SPLINE
  5
2A1
100
AcDbEntity
  8
0
100
AcDbSpline
 62
9
  6
CONTINUOUS
 70
0
 71
3
 72
12
 73
8
 74
0
 42
0.0000001
 43
0.0000001
 44
0.0000000001
 40
0.0
 40
0.0
 40
0.0
 40
0.0
 40
0.2499836562
 40
0.5000010325
 40
0.624991671
 40
0.7499974792
 40
1.0
 40
1.0
 40
1.0
 40
1.0
 10
10.4586923428
 20
9.8471238288
 30
0.0
 10
10.4655122406
 20
9.846801568
 30
0.0
 10
10.4791350607
 20
9.8458004967
 30
0.0
 10
10.4961325868
 20
9.8442411752
 30
0.0
 10
10.5097460625
 20
9.8431531435
 30
0.0
 10
10.5233751438
 20
9.8422939071
 30
0.0
 10
10.5336189478
 20
9.8419945957
 30
0.0
 10
10.5404469704
 20
9.841993912
 30
0.0
  0
SPLINE
  5
2A2
100
AcDbEntity
  8
0
100
AcDbSpline
 62
9
  6
CONTINUOUS
 70
0
 71
3
 72
15
 73
11
 74
0
 42
0.0000001
 43
0.0000001
 44
0.0000000001
 40
0.0
 40
0.0
 40
0.0
 40
0.0
 40
0.0234871059
 40
0.0445872333
 40
0.0728940786
 40
0.1518638139
 40
0.2610691061
 40
0.4005841765
 40
0.5703363101
 40
1.0
 40
1.0
 40
1.0
 40
1.0
 10
10.3986923427
 20
9.8471251537
 30
0.0
 10
10.3986923601
 20
9.8471483958
 30
0.0
 10
10.3987382127
 20
9.8471802915
 30
0.0
 10
10.3988022682
 20
9.8472037739
 30
0.0
 10
10.3989269782
 20
9.8472373326
 30
0.0
 10
10.3991376564
 20
9.847270074
 30
0.0
 10
10.3994607264
 20
9.8473044782
 30
0.0
 10
10.399873612
 20
9.8473341309
 30
0.0
 10
10.4006039747
 20
9.8473720521
 30
0.0
 10
10.4011968842
 20
9.8473899769
 30
0.0
 10
10.4016219302
 20
9.8474006906
 30
0.0
  0
SPLINE
  5
2A3
100
AcDbEntity
  8
0
100
AcDbSpline
 62
9
  6
CONTINUOUS
 70
0
 71
3
 72
13
 73
9
 74
0
 42
0.0000001
 43
0.0000001
 44
0.0000000001
 40
0.0
 40
0.0
 40
0.0
 40
0.0
 40
0.0631191138
 40
0.1492895252
 40
0.256501208
 40
0.3819643748
 40
0.6750968008
 40
1.0
 40
1.0
 40
1.0
 40
1.0
 10
10.4016219302
 20
9.8474006906
 30
0.0
 10
10.4028223503
 20
9.8474309482
 30
0.0
 10
10.4056624958
 20
9.8474618885
 30
0.0
 10
10.4105421822
 20
9.8474797297
 30
0.0
 10
10.4166080379
 20
9.8474854048
 30
0.0
 10
10.4266111831
 20
9.847475857
 30
0.0
 10
10.4407556906
 20
9.847425244
 30
0.0
 10
10.4525129729
 20
9.847269167
 30
0.0
 10
10.4586923427
 20
9.8471238288
 30
0.0
  0
SPLINE
  5
2A4
100
AcDbEntity
  8
0
100
AcDbSpline
 62
9
  6
CONTINUOUS
 70
0
 71
3
 72
13
 73
9
 74
0
 42
0.0000001
 43
0.0000001
 44
0.0000000001
 40
0.0
 40
0.0
 40
0.0
 40
0.0
 40
0.2424311774
 40
0.3682079594
 40
0.4956625204
 40
0.6237575983
 40
0.7513722116
 40
1.0
 40
1.0
 40
1.0
 40
1.0
 10
12.1180471821
 20
7.7061556519
 30
0.0
 10
12.1118864161
 20
7.7022591364
 30
0.0
 10
12.103294932
 20
7.694992695
 30
0.0
 10
12.0940891517
 20
7.6832324577
 30
0.0
 10
12.0882707682
 20
7.6733088412
 30
0.0
 10
12.0838309028
 20
7.66263907
 30
0.0
 10
12.0798381217
 20
7.6479785281
 30
0.0
 10
12.0789516731
 20
7.6365521862
 30
0.0
 10
12.0792608854
 20
7.6290826872
 30
0.0
  0
SPLINE
  5
2A5
100
AcDbEntity
  8
0
100
AcDbSpline
 62
9
  6
CONTINUOUS
 70
0
 71
3
 72
9
 73
5
 74
0
 42
0.0000001
 43
0.0000001
 44
0.0000000001
 40
0.0
 40
0.0
 40
0.0
 40
0.0
 40
0.2285969366
 40
1.0
 40
1.0
 40
1.0
 40
1.0
 10
12.1180473116
 20
7.7061556668
 30
0.0
 10
12.1178927602
 20
7.706136706
 30
0.0
 10
12.1172088489
 20
7.7061151011
 30
0.0
 10
12.1165338258
 20
7.7062928819
 30
0.0
 10
12.1160406223
 20
7.7064741091
 30
0.0
  0
SPLINE
  5
2A6
100
AcDbEntity
  8
0
100
AcDbSpline
 62
9
  6
CONTINUOUS
 70
0
 71
3
 72
17
 73
13
 74
0
 42
0.0000001
 43
0.0000001
 44
0.0000000001
 40
0.0
 40
0.0
 40
0.0
 40
0.0
 40
0.1814327411
 40
0.3529146196
 40
0.5109557486
 40
0.6520771981
 40
0.7731444745
 40
0.8723454935
 40
0.9133107818
 40
0.9483085797
 40
0.9772203817
 40
1.0
 40
1.0
 40
1.0
 40
1.0
 10
12.0773426677
 20
7.7064749285
 30
0.0
 10
12.0796834952
 20
7.7066497253
 30
0.0
 10
12.0842392983
 20
7.7069568766
 30
0.0
 10
12.0908413017
 20
7.7073004197
 30
0.0
 10
12.0969270244
 20
7.7075129065
 30
0.0
 10
12.1023638722
 20
7.7075919466
 30
0.0
 10
12.107039628
 20
7.707533266
 30
0.0
 10
12.1104169269
 20
7.7073681023
 30
0.0
 10
12.1126733272
 20
7.7071532693
 30
0.0
 10
12.1140185138
 20
7.7069710749
 30
0.0
 10
12.1151202526
 20
7.7067588131
 30
0.0
 10
12.1157660124
 20
7.7065776803
 30
0.0
 10
12.1160421895
 20
7.7064747954
 30
0.0
  0
SPLINE
  5
2A7
100
AcDbEntity
  8
0
100
AcDbSpline
 62
9
  6
CONTINUOUS
 70
0
 71
3
 72
9
 73
5
 74
0
 42
0.0000001
 43
0.0000001
 44
0.0000000001
 40
0.0
 40
0.0
 40
0.0
 40
0.0
 40
0.2485843604
 40
1.0
 40
1.0
 40
1.0
 40
1.0
 10
12.0226923427
 20
7.6327969991
 30
0.0
 10
12.0243825103
 20
7.632797005
 30
0.0
 10
12.0311843665
 20
7.632398389
 30
0.0
 10
12.0378397011
 20
7.630680752
 30
0.0
 10
12.0426923632
 20
7.629082757
 30
0.0
  0
SPLINE
  5
2A8
100
AcDbEntity
  8
0
100
AcDbSpline
 62
9
  6
CONTINUOUS
 70
0
 71
3
 72
9
 73
5
 74
0
 42
0.0000001
 43
0.0000001
 44
0.0000000001
 40
0.0
 40
0.0
 40
0.0
 40
0.0
 40
0.2517963015
 40
1.0
 40
1.0
 40
1.0
 40
1.0
 10
9.8326923681
 20
7.6290826006
 30
0.0
 10
9.8343173086
 20
7.6296177003
 30
0.0
 10
9.8408089865
 20
7.6315964523
 30
0.0
 10
9.8476088255
 20
7.6327968235
 30
0.0
 10
9.8526923427
 20
7.6327968327
 30
0.0
  0
SPLINE
  5
2A9
100
AcDbEntity
  8
0
100
AcDbSpline
 62
9
  6
CONTINUOUS
 70
0
 71
3
 72
9
 73
5
 74
0
 42
0.0000001
 43
0.0000001
 44
0.0000000001
 40
0.0
 40
0.0
 40
0.0
 40
0.0
 40
0.2495137548
 40
1.0
 40
1.0
 40
1.0
 40
1.0
 10
12.0773424788
 20
7.7064741583
 30
0.0
 10
12.0764474079
 20
7.7064078527
 30
0.0
 10
12.0728579169
 20
7.706175323
 30
0.0
 10
12.0692570451
 20
7.7060997273
 30
0.0
 10
12.066558059
 20
7.7061557061
 30
0.0
  0
SPLINE
  5
2AA
100
AcDbEntity
  8
0
100
AcDbSpline
 62
9
  6
CONTINUOUS
 70
0
 71
3
 72
25
 73
21
 74
0
 42
0.0000001
 43
0.0000001
 44
0.0000000001
 40
0.0
 40
0.0
 40
0.0
 40
0.0
 40
0.003958547
 40
0.0086517091
 40
0.0149375284
 40
0.0231849105
 40
0.0335503351
 40
0.0461071461
 40
0.0608925613
 40
0.0779261376
 40
0.11869687
 40
0.168082727
 40
0.2256255556
 40
0.2908480506
 40
0.3632081286
 40
0.4419366021
 40
0.5262047654
 40
0.6151814315
 40
0.803739285
 40
1.0
 40
1.0
 40
1.0
 40
1.0
 10
11.6807597708
 20
8.0857101664
 30
0.0
 10
11.680773353
 20
8.0856326251
 30
0.0
 10
11.6807480647
 20
8.0854500676
 30
0.0
 10
11.6805465212
 20
8.0852188548
 30
0.0
 10
11.6802214738
 20
8.0850141862
 30
0.0
 10
11.6797631307
 20
8.0848224448
 30
0.0
 10
11.6791691158
 20
8.0846433932
 30
0.0
 10
11.6784374074
 20
8.0844772272
 30
0.0
 10
11.677567922
 20
8.0843248629
 30
0.0
 10
11.6761373797
 20
8.0841294778
 30
0.0
 10
11.6740135402
 20
8.0839367847
 30
0.0
 10
11.6710803462
 20
8.0837765919
 30
0.0
 10
11.6676578688
 20
8.0836802622
 30
0.0
 10
11.6637774138
 20
8.0836498133
 30
0.0
 10
11.6594757291
 20
8.0836872801
 30
0.0
 10
11.6547963285
 20
8.0837911924
 30
0.0
 10
11.6497881976
 20
8.0839602802
 30
0.0
 10
11.6426000534
 20
8.0842770661
 30
0.0
 10
11.6331934004
 20
8.0848261217
 30
0.0
 10
11.6255613021
 20
8.0853920662
 30
0.0
 10
11.6216713423
 20
8.0857102621
 30
0.0
  0
LINE
  5
2AB
100
AcDbEntity
  8
0
100
AcDbLine
 62
9
  6
CONTINUOUS
 10
12.0665580572
 20
7.7061557286
 11
12.0226925118
 21
7.7058978816
  0
SPLINE
  5
2AC
100
AcDbEntity
  8
0
100
AcDbSpline
 62
9
  6
CONTINUOUS
 70
0
 71
3
 72
22
 73
18
 74
0
 42
0.0000001
 43
0.0000001
 44
0.0000000001
 40
0.0
 40
0.0
 40
0.0
 40
0.0
 40
0.1960837467
 40
0.3819660537
 40
0.5506908673
 40
0.6266617638
 40
0.69604408
 40
0.7582023374
 40
0.8127987416
 40
0.8596411354
 40
0.898702922
 40
0.9303643296
 40
0.9559089092
 40
0.967161292
 40
0.9779298923
 40
0.9887116278
 40
1.0
 40
1.0
 40
1.0
 40
1.0
 10
11.3349337131
 20
9.7118820955
 30
0.0
 10
11.3389061695
 20
9.7109345297
 30
0.0
 10
11.3466830254
 20
9.7092453941
 30
0.0
 10
11.3579905804
 20
9.7073031389
 30
0.0
 10
11.3669022191
 20
9.7062477127
 30
0.0
 10
11.3734305815
 20
9.7058140562
 30
0.0
 10
11.3777524536
 20
9.7057005851
 30
0.0
 10
11.3816300521
 20
9.7057914948
 30
0.0
 10
11.3850277728
 20
9.7060817191
 30
0.0
 10
11.3879179456
 20
9.7065642632
 30
0.0
 10
11.3902809121
 20
9.707234853
 30
0.0
 10
11.392104814
 20
9.7080943337
 30
0.0
 10
11.3932211345
 20
9.7090254101
 30
0.0
 10
11.3937667094
 20
9.7098607015
 30
0.0
 10
11.3940097893
 20
9.7105054211
 30
0.0
 10
11.3941009742
 20
9.711188864
 30
0.0
 10
11.3940622758
 20
9.7116505791
 30
0.0
 10
11.3940215182
 20
9.7118821263
 30
0.0
  0
LINE
  5
2AD
100
AcDbEntity
  8
0
100
AcDbLine
 62
9
  6
CONTINUOUS
 10
9.8526923846
 20
7.7058978822
 11
9.8088277908
 21
7.7061556439
  0
SPLINE
  5
2AE
100
AcDbEntity
  8
0
100
AcDbSpline
 62
9
  6
CONTINUOUS
 70
0
 71
3
 72
9
 73
5
 74
0
 42
0.0000001
 43
0.0000001
 44
0.0000000001
 40
0.0
 40
0.0
 40
0.0
 40
0.0
 40
0.2506214749
 40
1.0
 40
1.0
 40
1.0
 40
1.0
 10
9.8088277926
 20
7.7061556668
 30
0.0
 10
9.8079263398
 20
7.7061371108
 30
0.0
 10
9.8043284457
 20
7.7061144209
 30
0.0
 10
9.8007306016
 20
7.7062749782
 30
0.0
 10
9.7980419776
 20
7.7064741091
 30
0.0
  0
SPLINE
  5
2AF
100
AcDbEntity
  8
0
100
AcDbSpline
 62
9
  6
CONTINUOUS
 70
0
 71
3
 72
14
 73
10
 74
0
 42
0.0000001
 43
0.0000001
 44
0.0000000001
 40
0.0
 40
0.0
 40
0.0
 40
0.0
 40
0.2443910357
 40
0.37053148
 40
0.4975573491
 40
0.6247085608
 40
0.7514677201
 40
0.8769544093
 40
1.0
 40
1.0
 40
1.0
 40
1.0
 10
9.7593439636
 20
7.7064741583
 30
0.0
 10
9.7571277398
 20
7.7075586424
 30
0.0
 10
9.753968948
 20
7.7096549162
 30
0.0
 10
9.7503372579
 20
7.7131362565
 30
0.0
 10
9.7479120449
 20
7.7161288187
 30
0.0
 10
9.7459182192
 20
7.7194316454
 30
0.0
 10
9.7443928422
 20
7.7229570949
 30
0.0
 10
9.7433326777
 20
7.7266041324
 30
0.0
 10
9.742934212
 20
7.7290893715
 30
0.0
 10
9.7428171344
 20
7.7303260931
 30
0.0
  0
SPLINE
  5
2B0
100
AcDbEntity
  8
0
100
AcDbSpline
 62
9
  6
CONTINUOUS
 70
0
 71
3
 72
25
 73
21
 74
0
 42
0.0000001
 43
0.0000001
 44
0.0000000001
 40
0.0
 40
0.0
 40
0.0
 40
0.0
 40
0.196268121
 40
0.3848385554
 40
0.4738225102
 40
0.5580971945
 40
0.6368299674
 40
0.7091906671
 40
0.7744092167
 40
0.8319449212
 40
0.8813224376
 40
0.9220855735
 40
0.9391161879
 40
0.9538992228
 40
0.9664541353
 40
0.9768180477
 40
0.9850642193
 40
0.9913490776
 40
0.9960415753
 40
1.0
 40
1.0
 40
1.0
 40
1.0
 10
10.2537146675
 20
8.0857103704
 30
0.0
 10
10.2498244677
 20
8.0853921495
 30
0.0
 10
10.2421917898
 20
8.0848261514
 30
0.0
 10
10.2327843685
 20
8.0842770501
 30
0.0
 10
10.2255955258
 20
8.0839602532
 30
0.0
 10
10.2205869138
 20
8.0837911671
 30
0.0
 10
10.2159071725
 20
8.0836872646
 30
0.0
 10
10.2116053646
 20
8.083649812
 30
0.0
 10
10.207725024
 20
8.083680278
 30
0.0
 10
10.2043028507
 20
8.0837766272
 30
0.0
 10
10.201370046
 20
8.0839368392
 30
0.0
 10
10.1992465337
 20
8.0841295483
 30
0.0
 10
10.1978162168
 20
8.0843249387
 30
0.0
 10
10.1969468564
 20
8.0844773053
 30
0.0
 10
10.1962152478
 20
8.0846434727
 30
0.0
 10
10.1956213135
 20
8.0848225249
 30
0.0
 10
10.1951630371
 20
8.0850142679
 30
0.0
 10
10.1948380461
 20
8.0852189382
 30
0.0
 10
10.1946365568
 20
8.0854501691
 30
0.0
 10
10.1946113276
 20
8.0856327251
 30
0.0
 10
10.1946249315
 20
8.0857102621
 30
0.0
  0
SPLINE
  5
2B1
100
AcDbEntity
  8
0
100
AcDbSpline
 62
9
  6
CONTINUOUS
 70
0
 71
3
 72
24
 73
20
 74
0
 42
0.0000001
 43
0.0000001
 44
0.0000000001
 40
0.0
 40
0.0
 40
0.0
 40
0.0
 40
0.1935461931
 40
0.3800367448
 40
0.5516100405
 40
0.6298270193
 40
0.7020152478
 40
0.7674825106
 40
0.8255439317
 40
0.8756400819
 40
0.9173897251
 40
0.9350307748
 40
0.950468055
 40
0.9636887513
 40
0.9747187955
 40
0.9836194222
 40
0.9905241767
 40
0.9957431452
 40
1.0
 40
1.0
 40
1.0
 40
1.0
 10
9.8026923427
 20
7.732935355
 30
0.0
 10
9.7988032063
 20
7.7332753782
 30
0.0
 10
9.7911585085
 20
7.7338516489
 30
0.0
 10
9.7800482757
 20
7.7344624379
 30
0.0
 10
9.7712530054
 20
7.7347742793
 30
0.0
 10
9.7647595263
 20
7.7348984129
 30
0.0
 10
9.7604052031
 20
7.7349297078
 30
0.0
 10
9.7564573951
 20
7.7349026333
 30
0.0
 10
9.7529560152
 20
7.7348182964
 30
0.0
 10
9.7499353459
 20
7.7346762945
 30
0.0
 10
9.7477330677
 20
7.7345016155
 30
0.0
 10
9.7462343019
 20
7.7343214232
 30
0.0
 10
9.7453112459
 20
7.7341781245
 30
0.0
 10
9.7445262641
 20
7.7340189692
 30
0.0
 10
9.7438802837
 20
7.7338441397
 30
0.0
 10
9.7433720253
 20
7.7336537683
 30
0.0
 10
9.7430001212
 20
7.7334462873
 30
0.0
 10
9.7427551515
 20
7.7332139356
 30
0.0
 10
9.7426923657
 20
7.7330212582
 30
0.0
 10
9.7426923427
 20
7.7329353943
 30
0.0
  0
SPLINE
  5
2B2
100
AcDbEntity
  8
0
100
AcDbSpline
 62
9
  6
CONTINUOUS
 70
0
 71
3
 72
22
 73
18
 74
0
 42
0.0000001
 43
0.0000001
 44
0.0000000001
 40
0.0
 40
0.0
 40
0.0
 40
0.0
 40
0.0112872377
 40
0.0220664732
 40
0.0328318234
 40
0.0440806781
 40
0.0696179363
 40
0.1012704272
 40
0.1403194809
 40
0.1871463548
 40
0.2417270134
 40
0.3038721695
 40
0.3732465577
 40
0.4492155034
 40
0.6179558362
 40
0.8038768718
 40
1.0
 40
1.0
 40
1.0
 40
1.0
 10
10.4813626777
 20
9.7118807194
 30
0.0
 10
10.481321819
 20
9.711649207
 30
0.0
 10
10.48128293
 20
9.7111875674
 30
0.0
 10
10.4813738909
 20
9.7105042134
 30
0.0
 10
10.4816168037
 20
9.7098596103
 30
0.0
 10
10.482162189
 20
9.7090245062
 30
0.0
 10
10.4832782447
 20
9.708093693
 30
0.0
 10
10.4851016071
 20
9.7072343875
 30
0.0
 10
10.4874638171
 20
9.7065637241
 30
0.0
 10
10.4903531158
 20
9.7060809855
 30
0.0
 10
10.4937499873
 20
9.7057904924
 30
0.0
 10
10.4976269284
 20
9.7056993001
 30
0.0
 10
10.5019484562
 20
9.7058125239
 30
0.0
 10
10.5084771469
 20
9.7062459232
 30
0.0
 10
10.5173901619
 20
9.7073012578
 30
0.0
 10
10.5287000185
 20
9.7092436313
 30
0.0
 10
10.5364787087
 20
9.7109331141
 30
0.0
 10
10.5404520611
 20
9.7118809758
 30
0.0
  0
SPLINE
  5
2B3
100
AcDbEntity
  8
0
100
AcDbSpline
 62
9
  6
CONTINUOUS
 70
0
 71
3
 72
17
 73
13
 74
0
 42
0.0000001
 43
0.0000001
 44
0.0000000001
 40
0.0
 40
0.0
 40
0.0
 40
0.0
 40
0.0415220585
 40
0.0840592624
 40
0.1285827844
 40
0.1757093097
 40
0.2789503786
 40
0.3952628791
 40
0.5249723425
 40
0.6686282077
 40
0.8268986446
 40
1.0
 40
1.0
 40
1.0
 40
1.0
 10
9.7961236844
 20
7.6290815674
 30
0.0
 10
9.7965055271
 20
7.6287260365
 30
0.0
 10
9.7973443404
 20
7.6280742339
 30
0.0
 10
9.7987667072
 20
7.6272965466
 30
0.0
 10
9.8003442098
 20
7.6266897727
 30
0.0
 10
9.8027131859
 20
7.6260564284
 30
0.0
 10
9.8060441066
 20
7.6255972696
 30
0.0
 10
9.8104342719
 20
7.6254572216
 30
0.0
 10
9.8153312931
 20
7.6256348523
 30
0.0
 10
9.8207279936
 20
7.6262194146
 30
0.0
 10
9.8266057452
 20
7.6272907946
 30
0.0
 10
9.8306266922
 20
7.6284014179
 30
0.0
 10
9.8326926704
 20
7.6290815674
 30
0.0
  0
SPLINE
  5
2B4
100
AcDbEntity
  8
0
100
AcDbSpline
 62
9
  6
CONTINUOUS
 70
0
 71
3
 72
15
 73
11
 74
0
 42
0.0000001
 43
0.0000001
 44
0.0000000001
 40
0.0
 40
0.0
 40
0.0
 40
0.0
 40
0.0909414657
 40
0.1957429549
 40
0.3133919267
 40
0.441668793
 40
0.5778526328
 40
0.7185878233
 40
0.8603874566
 40
1.0
 40
1.0
 40
1.0
 40
1.0
 10
12.066557147
 20
7.7061557271
 30
0.0
 10
12.0651557981
 20
7.7041268925
 30
0.0
 10
12.0623978841
 20
7.6995803493
 30
0.0
 10
12.058626785
 20
7.6919572804
 30
0.0
 10
12.0550363089
 20
7.683143849
 30
0.0
 10
12.0517097588
 20
7.6733262691
 30
0.0
 10
12.0487538459
 20
7.6627400782
 30
0.0
 10
12.0462231569
 20
7.6516685789
 30
0.0
 10
12.044179344
 20
7.640403038
 30
0.0
 10
12.0431322809
 20
7.6328425218
 30
0.0
 10
12.042692066
 20
7.6290828001
 30
0.0
  0
SPLINE
  5
2B5
100
AcDbEntity
  8
0
100
AcDbSpline
 62
9
  6
CONTINUOUS
 70
0
 71
3
 72
23
 73
19
 74
0
 42
0.0000001
 43
0.0000001
 44
0.0000000001
 40
0.0
 40
0.0
 40
0.0
 40
0.0
 40
0.0011194629
 40
0.0044584742
 40
0.0099880141
 40
0.0176792346
 40
0.0275034646
 40
0.0394322142
 40
0.0694901424
 40
0.10762899
 40
0.1536278821
 40
0.2072693456
 40
0.2683394939
 40
0.3366282212
 40
0.4119294074
 40
0.5827621995
 40
0.7792797718
 40
1.0
 40
1.0
 40
1.0
 40
1.0
 10
9.7926923427
 20
7.6327969991
 30
0.0
 10
9.7926938303
 20
7.6327981636
 30
0.0
 10
9.792697334
 20
7.6327855394
 30
0.0
 10
9.7927081881
 20
7.6327782314
 30
0.0
 10
9.7927243212
 20
7.6327522198
 30
0.0
 10
9.7927478441
 20
7.6327226439
 30
0.0
 10
9.7927777363
 20
7.6326824177
 30
0.0
 10
9.792830886
 20
7.632613245
 30
0.0
 10
9.7929139033
 20
7.6325063489
 30
0.0
 10
9.7930338972
 20
7.6323556206
 30
0.0
 10
9.7931806728
 20
7.6321752648
 30
0.0
 10
9.7933542831
 20
7.6319669096
 30
0.0
 10
9.7935547562
 20
7.6317319914
 30
0.0
 10
9.7937821288
 20
7.6314720112
 30
0.0
 10
9.7941364019
 20
7.6310769904
 30
0.0
 10
9.7946462291
 20
7.6305308966
 30
0.0
 10
9.7953428539
 20
7.6298239368
 30
0.0
 10
9.7958512478
 20
7.6293366243
 30
0.0
 10
9.7961238075
 20
7.629082757
 30
0.0
  0
SPLINE
  5
2B6
100
AcDbEntity
  8
0
100
AcDbSpline
 62
9
  6
CONTINUOUS
 70
0
 71
3
 72
15
 73
11
 74
0
 42
0.0000001
 43
0.0000001
 44
0.0000000001
 40
0.0
 40
0.0
 40
0.0
 40
0.0
 40
0.0921645006
 40
0.1981234613
 40
0.316675549
 40
0.4454338999
 40
0.5815363746
 40
0.7215923757
 40
0.8621275706
 40
1.0
 40
1.0
 40
1.0
 40
1.0
 10
9.8088270082
 20
7.7061556519
 30
0.0
 10
9.8102472164
 20
7.7040995403
 30
0.0
 10
9.8130351278
 20
7.6994952792
 30
0.0
 10
9.8168353128
 20
7.6917871367
 30
0.0
 10
9.8204374833
 20
7.6829039615
 30
0.0
 10
9.8237600443
 20
7.6730477466
 30
0.0
 10
9.8266994119
 20
7.6624648421
 30
0.0
 10
9.8292056684
 20
7.651444165
 30
0.0
 10
9.8312238236
 20
7.6402755737
 30
0.0
 10
9.8322576137
 20
7.6327955496
 30
0.0
 10
9.8326923432
 20
7.6290826872
 30
0.0
  0
SPLINE
  5
2B7
100
AcDbEntity
  8
0
100
AcDbSpline
 62
9
  6
CONTINUOUS
 70
0
 71
3
 72
17
 73
13
 74
0
 42
0.0000001
 43
0.0000001
 44
0.0000000001
 40
0.0
 40
0.0
 40
0.0
 40
0.0
 40
0.0227854108
 40
0.0517162893
 40
0.0867423969
 40
0.1277408907
 40
0.227005348
 40
0.3481025498
 40
0.4891965614
 40
0.6471756407
 40
0.8185953024
 40
1.0
 40
1.0
 40
1.0
 40
1.0
 10
9.7593425028
 20
7.7064749285
 30
0.0
 10
9.759618742
 20
7.7065778727
 30
0.0
 10
9.7602648439
 20
7.7067590388
 30
0.0
 10
9.7613672977
 20
7.7069712932
 30
0.0
 10
9.7627135581
 20
7.7071534711
 30
0.0
 10
9.7649716165
 20
7.7073682546
 30
0.0
 10
9.7683506023
 20
7.707533339
 30
0.0
 10
9.7730272744
 20
7.7075919423
 30
0.0
 10
9.7784634229
 20
7.7075128084
 30
0.0
 10
9.7845472596
 20
7.7073002225
 30
0.0
 10
9.7911473746
 20
7.7069566205
 30
0.0
 10
9.7957020712
 20
7.7066495252
 30
0.0
 10
9.7980425714
 20
7.7064747954
 30
0.0
  0
SPLINE
  5
2B8
100
AcDbEntity
  8
0
100
AcDbSpline
 62
9
  6
CONTINUOUS
 70
0
 71
3
 72
11
 73
7
 74
0
 42
0.0000001
 43
0.0000001
 44
0.0000000001
 40
0.0
 40
0.0
 40
0.0
 40
0.0
 40
0.2483623777
 40
0.5028760592
 40
0.7558074712
 40
1.0
 40
1.0
 40
1.0
 40
1.0
 10
9.7573374637
 20
7.7061557061
 30
0.0
 10
9.7551423078
 20
7.7074594097
 30
0.0
 10
9.7510426072
 20
7.7107114556
 30
0.0
 10
9.7462628953
 20
7.7169484728
 30
0.0
 10
9.74337667
 20
7.7242105384
 30
0.0
 10
9.7426923435
 20
7.729336639
 30
0.0
 10
9.7426923427
 20
7.7318468804
 30
0.0
  0
SPLINE
  5
2B9
100
AcDbEntity
  8
0
100
AcDbSpline
 62
9
  6
CONTINUOUS
 70
0
 71
3
 72
10
 73
6
 74
0
 42
0.0000001
 43
0.0000001
 44
0.0000000001
 40
0.0
 40
0.0
 40
0.0
 40
0.0
 40
0.272934674
 40
0.653207039
 40
1.0
 40
1.0
 40
1.0
 40
1.0
 10
9.7593439636
 20
7.7064741583
 30
0.0
 10
9.7591690933
 20
7.7064098747
 30
0.0
 10
9.7587453036
 20
7.7062694853
 30
0.0
 10
9.758073678
 20
7.706133739
 30
0.0
 10
9.7575724103
 20
7.7061267112
 30
0.0
 10
9.7573374637
 20
7.7061557061
 30
0.0
  0
LINE
  5
2BA
100
AcDbEntity
  8
0
100
AcDbLine
 62
9
  6
CONTINUOUS
 10
9.7573374256
 20
7.7061557286
 11
9.7551923436
 21
7.7058978816
  0
SPLINE
  5
2BB
100
AcDbEntity
  8
0
100
AcDbSpline
 62
9
  6
CONTINUOUS
 70
0
 71
3
 72
17
 73
13
 74
0
 42
0.0000001
 43
0.0000001
 44
0.0000000001
 40
0.0
 40
0.0
 40
0.0
 40
0.0
 40
0.1241009636
 40
0.1862545305
 40
0.248461222
 40
0.3730733041
 40
0.4979830485
 40
0.6231783154
 40
0.7486281668
 40
0.8114276304
 40
0.8742698166
 40
1.0
 40
1.0
 40
1.0
 40
1.0
 10
10.7365108327
 20
10.3949195021
 30
0.0
 10
10.7448391359
 20
10.3949194955
 30
0.0
 10
10.7573400525
 20
10.3945116627
 30
0.0
 10
10.773978193
 20
10.3934177014
 30
0.0
 10
10.7906305192
 20
10.3920406232
 30
0.0
 10
10.8114429846
 20
10.3899116818
 30
0.0
 10
10.8364324695
 20
10.3871039307
 30
0.0
 10
10.8614900293
 20
10.3843957141
 30
0.0
 10
10.8824423895
 20
10.3825081243
 30
0.0
 10
10.8992548484
 20
10.3813639841
 30
0.0
 10
10.9161033277
 20
10.3805147226
 30
0.0
 10
10.9287596343
 20
10.3802353047
 30
0.0
 10
10.9371972702
 20
10.3802285204
 30
0.0
  0
SPLINE
  5
2BC
100
AcDbEntity
  8
0
100
AcDbSpline
 62
9
  6
CONTINUOUS
 70
0
 71
3
 72
17
 73
13
 74
0
 42
0.0000001
 43
0.0000001
 44
0.0000000001
 40
0.0
 40
0.0
 40
0.0
 40
0.0
 40
0.1257225593
 40
0.2513920423
 40
0.3141441559
 40
0.3768075749
 40
0.4393924515
 40
0.5019199796
 40
0.6268659121
 40
0.7517073306
 40
0.8761719603
 40
1.0
 40
1.0
 40
1.0
 40
1.0
 10
10.9371972702
 20
10.3802285204
 30
0.0
 10
10.9456753465
 20
10.3803015217
 30
0.0
 10
10.962626587
 20
10.3807256094
 30
0.0
 10
10.9837819138
 20
10.3819046532
 30
0.0
 10
11.0006645936
 20
10.3832089219
 30
0.0
 10
11.0132905013
 20
10.3843637728
 30
0.0
 10
11.0258877969
 20
10.3856544714
 30
0.0
 10
11.0426512304
 20
10.3874873639
 30
0.0
 10
11.0635778977
 20
10.3898672039
 30
0.0
 10
11.0886832226
 20
10.3924706366
 30
0.0
 10
11.1137773665
 20
10.3943904329
 30
0.0
 10
11.1305232234
 20
10.3949195021
 30
0.0
 10
11.1388738527
 20
10.3949195021
 30
0.0
  0
SPLINE
  5
2BD
100
AcDbEntity
  8
0
100
AcDbSpline
 62
9
  6
CONTINUOUS
 70
0
 71
3
 72
31
 73
27
 74
0
 42
0.0000001
 43
0.0000001
 44
0.0000000001
 40
0.0
 40
0.0
 40
0.0
 40
0.0
 40
0.0004009608
 40
0.0015976768
 40
0.0035806546
 40
0.006340428
 40
0.0098675588
 40
0.014152637
 40
0.0249591262
 40
0.0386852258
 40
0.0552567569
 40
0.0745930092
 40
0.0965554232
 40
0.1209778567
 40
0.1476957541
 40
0.2073686999
 40
0.2742965494
 40
0.347106481
 40
0.424366595
 40
0.5047314725
 40
0.5869666794
 40
0.6700072584
 40
0.7530935624
 40
0.8358079001
 40
0.9179231792
 40
1.0
 40
1.0
 40
1.0
 40
1.0
 10
11.2708590094
 20
10.380228319
 30
0.0
 10
11.2708589032
 20
10.380224925
 30
0.0
 10
11.2708471901
 20
10.3802513526
 30
0.0
 10
11.2708345329
 20
10.3802620788
 30
0.0
 10
11.270804278
 20
10.3803121505
 30
0.0
 10
11.2707662135
 20
10.3803666551
 30
0.0
 10
11.270715608
 20
10.3804421708
 30
0.0
 10
11.2706269088
 20
10.3805717583
 30
0.0
 10
11.2704880875
 20
10.3807729958
 30
0.0
 10
11.2702882753
 20
10.3810578331
 30
0.0
 10
11.2700443928
 20
10.3814002794
 30
0.0
 10
11.2697571096
 20
10.3817973317
 30
0.0
 10
11.2694268017
 20
10.3822453331
 30
0.0
 10
11.2690541783
 20
10.3827397573
 30
0.0
 10
11.2684805748
 20
10.3834825535
 30
0.0
 10
11.2676663831
 20
10.3844942509
 30
0.0
 10
11.2665682089
 20
10.3857776264
 30
0.0
 10
11.265324463
 20
10.3871311669
 30
0.0
 10
11.2639445593
 20
10.3885121096
 30
0.0
 10
11.2624389376
 20
10.389877196
 30
0.0
 10
11.2608169611
 20
10.3911822309
 30
0.0
 10
11.259083305
 20
10.392377471
 30
0.0
 10
11.2572435459
 20
10.3934124354
 30
0.0
 10
11.2553060443
 20
10.3942352871
 30
0.0
 10
11.2532806245
 20
10.3947841565
 30
0.0
 10
11.2518874474
 20
10.394919496
 30
0.0
 10
11.2511923428
 20
10.3949195021
 30
0.0
  0
SPLINE
  5
2BE
100
AcDbEntity
  8
0
100
AcDbSpline
 62
9
  6
CONTINUOUS
 70
0
 71
3
 72
11
 73
7
 74
0
 42
0.0000001
 43
0.0000001
 44
0.0000000001
 40
0.0
 40
0.0
 40
0.0
 40
0.0
 40
0.2465063439
 40
0.5003247437
 40
0.7539613781
 40
1.0
 40
1.0
 40
1.0
 40
1.0
 10
12.118047273
 20
7.7061556439
 30
0.0
 10
12.1202260205
 20
7.7074496121
 30
0.0
 10
12.1243083698
 20
7.7106791671
 30
0.0
 10
12.129089208
 20
7.716891053
 30
0.0
 10
12.1319974834
 20
7.7241651646
 30
0.0
 10
12.1326923424
 20
7.7293176445
 30
0.0
 10
12.1326923427
 20
7.7318468637
 30
0.0
  0
LINE
  5
2BF
100
AcDbEntity
  8
0
100
AcDbLine
 62
9
  6
CONTINUOUS
 10
12.1201923427
 20
7.7058978822
 11
12.118047273
 21
7.7061556439
  0
SPLINE
  5
2C0
100
AcDbEntity
  8
0
100
AcDbSpline
 62
9
  6
CONTINUOUS
 70
0
 71
3
 72
14
 73
10
 74
0
 42
0.0000001
 43
0.0000001
 44
0.0000000001
 40
0.0
 40
0.0
 40
0.0
 40
0.0
 40
0.245291175
 40
0.371684802
 40
0.4988108684
 40
0.6258794778
 40
0.7523826692
 40
0.8774729131
 40
1.0
 40
1.0
 40
1.0
 40
1.0
 10
12.1160406223
 20
7.7064741091
 30
0.0
 10
12.1182650131
 20
7.7075625773
 30
0.0
 10
12.1214326231
 20
7.709667656
 30
0.0
 10
12.1250696361
 20
7.7131617214
 30
0.0
 10
12.127493311
 20
7.7161590487
 30
0.0
 10
12.1294825964
 20
7.719461782
 30
0.0
 10
12.1310015112
 20
7.7229819068
 30
0.0
 10
12.1320553019
 20
7.7266184147
 30
0.0
 10
12.1324512245
 20
7.7290946028
 30
0.0
 10
12.1325676873
 20
7.730326124
 30
0.0
  0
SPLINE
  5
2C1
100
AcDbEntity
  8
0
100
AcDbSpline
 62
9
  6
CONTINUOUS
 70
0
 71
3
 72
13
 73
9
 74
0
 42
0.0000001
 43
0.0000001
 44
0.0000000001
 40
0.0
 40
0.0
 40
0.0
 40
0.0
 40
0.2398135075
 40
0.364871583
 40
0.492057728
 40
0.6203739596
 40
0.7486829365
 40
1.0
 40
1.0
 40
1.0
 40
1.0
 10
9.757337307
 20
7.7061557271
 30
0.0
 10
9.7634315741
 20
7.7023012742
 30
0.0
 10
9.7719530666
 20
7.6951159657
 30
0.0
 10
9.7811302696
 20
7.6834715649
 30
0.0
 10
9.7869734784
 20
7.6735894926
 30
0.0
 10
9.7914595365
 20
7.6629176231
 30
0.0
 10
9.7955267459
 20
7.648164521
 30
0.0
 10
9.7964362527
 20
7.6366331186
 30
0.0
 10
9.7961237024
 20
7.6290828001
 30
0.0
  0
SPLINE
  5
2C2
100
AcDbEntity
  8
0
100
AcDbSpline
 62
9
  6
CONTINUOUS
 70
0
 71
3
 72
18
 73
14
 74
0
 42
0.0000001
 43
0.0000001
 44
0.0000000001
 40
0.0
 40
0.0
 40
0.0
 40
0.0
 40
0.1789439155
 40
0.3528977044
 40
0.5160844529
 40
0.6627019972
 40
0.7874422707
 40
0.8405509037
 40
0.8870246366
 40
0.9265224981
 40
0.9587125368
 40
0.9832851757
 40
1.0
 40
1.0
 40
1.0
 40
1.0
 10
11.4181027862
 20
9.8172198168
 30
0.0
 10
11.4199235564
 20
9.8172893694
 30
0.0
 10
11.4235157064
 20
9.8173912822
 30
0.0
 10
11.4287703001
 20
9.817466482
 30
0.0
 10
11.4336961616
 20
9.8174906079
 30
0.0
 10
11.4381209097
 20
9.817489113
 30
0.0
 10
11.441424811
 20
9.8174913699
 30
0.0
 10
11.4437089444
 20
9.8174806767
 30
0.0
 10
11.4451250948
 20
9.8174639655
 30
0.0
 10
11.4463278448
 20
9.8174348127
 30
0.0
 10
11.4473074996
 20
9.8173912228
 30
0.0
 10
11.4480525707
 20
9.8173288802
 30
0.0
 10
11.4484702251
 20
9.8172665492
 30
0.0
 10
11.4486342195
 20
9.8172210136
 30
0.0
  0
SPLINE
  5
2C3
100
AcDbEntity
  8
0
100
AcDbSpline
 62
9
  6
CONTINUOUS
 70
0
 71
3
 72
25
 73
21
 74
0
 42
0.0000001
 43
0.0000001
 44
0.0000000001
 40
0.0
 40
0.0
 40
0.0
 40
0.0
 40
0.1911527061
 40
0.367608301
 40
0.4516980752
 40
0.5332000069
 40
0.6114019142
 40
0.6852895366
 40
0.7538361679
 40
0.8160131605
 40
0.8707842162
 40
0.9169917178
 40
0.9365017313
 40
0.9534131892
 40
0.9675798804
 40
0.9788698128
 40
0.9871908417
 40
0.992592401
 40
0.9958537583
 40
1.0
 40
1.0
 40
1.0
 40
1.0
 10
11.4486346296
 20
9.8172213155
 30
0.0
 10
11.4491385639
 20
9.8170996457
 30
0.0
 10
11.4500893869
 20
9.8167827193
 30
0.0
 10
11.4511871241
 20
9.8162338277
 30
0.0
 10
11.4519897885
 20
9.8157687329
 30
0.0
 10
11.4525549224
 20
9.8154254595
 30
0.0
 10
11.4530919068
 20
9.8150893148
 30
0.0
 10
11.4535964577
 20
9.8147676234
 30
0.0
 10
11.4540638593
 20
9.8144685231
 30
0.0
 10
11.4544890623
 20
9.8141996382
 30
0.0
 10
11.4548673569
 20
9.8139700685
 30
0.0
 10
11.4551487479
 20
9.8138039196
 30
0.0
 10
11.4553410677
 20
9.8136889285
 30
0.0
 10
11.4554581361
 20
9.8136172944
 30
0.0
 10
11.4555545354
 20
9.8135549538
 30
0.0
 10
11.455630106
 20
9.8135025828
 30
0.0
 10
11.4556809086
 20
9.8134582607
 30
0.0
 10
11.455714228
 20
9.8134248686
 30
0.0
 10
11.4557168251
 20
9.8133845683
 30
0.0
 10
11.4556939814
 20
9.8133757344
 30
0.0
 10
11.4556832405
 20
9.8133724059
 30
0.0
  0
SPLINE
  5
2C4
100
AcDbEntity
  8
0
100
AcDbSpline
 62
9
  6
CONTINUOUS
 70
0
 71
3
 72
23
 73
19
 74
0
 42
0.0000001
 43
0.0000001
 44
0.0000000001
 40
0.0
 40
0.0
 40
0.0
 40
0.0
 40
0.0640361062
 40
0.1276034084
 40
0.1906767594
 40
0.2532966626
 40
0.3154826615
 40
0.3772641048
 40
0.43873526
 40
0.4999990541
 40
0.5612629087
 40
0.6227342167
 40
0.6845158809
 40
0.7467021943
 40
0.8093225015
 40
0.8723961995
 40
0.9359636807
 40
1.0
 40
1.0
 40
1.0
 40
1.0
 10
11.1388738528
 20
10.4249195021
 30
0.0
 10
11.1302238765
 20
10.424919476
 30
0.0
 10
11.1129833302
 20
10.42420133
 30
0.0
 10
11.0873566434
 20
10.4215233593
 30
0.0
 10
11.0620561705
 20
10.4178248686
 30
0.0
 10
11.0370261403
 20
10.413631997
 30
0.0
 10
11.0121685091
 20
10.4094666579
 30
0.0
 10
10.9873701361
 20
10.4058954083
 30
0.0
 10
10.9625504003
 20
10.403490897
 30
0.0
 10
10.9376927176
 20
10.4025791821
 30
0.0
 10
10.9128350117
 20
10.403490832
 30
0.0
 10
10.8880152122
 20
10.4058953032
 30
0.0
 10
10.8632167468
 20
10.4094665658
 30
0.0
 10
10.8383589921
 20
10.4136319349
 30
0.0
 10
10.8133288172
 20
10.4178248146
 30
0.0
 10
10.78802822
 20
10.4215233213
 30
0.0
 10
10.7624014385
 20
10.4242013426
 30
0.0
 10
10.7451608378
 20
10.424919491
 30
0.0
 10
10.7365108327
 20
10.4249195021
 30
0.0
  0
SPLINE
  5
2C5
100
AcDbEntity
  8
0
100
AcDbSpline
 62
9
  6
CONTINUOUS
 70
0
 71
3
 72
22
 73
18
 74
0
 42
0.0000001
 43
0.0000001
 44
0.0000000001
 40
0.0
 40
0.0
 40
0.0
 40
0.0
 40
0.2207018847
 40
0.4172111311
 40
0.5880432171
 40
0.7316348938
 40
0.7927085734
 40
0.8463540245
 40
0.892357081
 40
0.9304999936
 40
0.9605616144
 40
0.9724919867
 40
0.9823176457
 40
0.9900100684
 40
0.9955405509
 40
0.9988802123
 40
1.0
 40
1.0
 40
1.0
 40
1.0
 10
12.0792608942
 20
7.6290826006
 30
0.0
 10
12.0795334269
 20
7.6293364479
 30
0.0
 10
12.0800417794
 20
7.6298237302
 30
0.0
 10
12.0807383715
 20
7.6305306542
 30
0.0
 10
12.081326824
 20
7.6311609785
 30
0.0
 10
12.0817473535
 20
7.6316350823
 30
0.0
 10
12.0820303376
 20
7.6319666613
 30
0.0
 10
12.0822039551
 20
7.6321750377
 30
0.0
 10
12.0823507697
 20
7.6323553754
 30
0.0
 10
12.0824707126
 20
7.6325062003
 30
0.0
 10
12.0825538932
 20
7.6326129115
 30
0.0
 10
12.0826068138
 20
7.6326823948
 30
0.0
 10
12.0826372103
 20
7.6327219854
 30
0.0
 10
12.0826594318
 20
7.6327532371
 30
0.0
 10
12.0826785412
 20
7.632775442
 30
0.0
 10
12.0826841381
 20
7.6327894887
 30
0.0
 10
12.0826931121
 20
7.6327951067
 30
0.0
 10
12.0826923427
 20
7.6327968327
 30
0.0
  0
SPLINE
  5
2C6
100
AcDbEntity
  8
0
100
AcDbSpline
 62
9
  6
CONTINUOUS
 70
0
 71
3
 72
11
 73
7
 74
0
 42
0.0000001
 43
0.0000001
 44
0.0000000001
 40
0.0
 40
0.0
 40
0.0
 40
0.0
 40
0.2592942675
 40
0.5142593168
 40
0.7614294042
 40
1.0
 40
1.0
 40
1.0
 40
1.0
 10
11.3349336161
 20
9.8133722615
 30
0.0
 10
11.3421307699
 20
9.813372554
 30
0.0
 10
11.3564054676
 20
9.8136765297
 30
0.0
 10
11.3775146323
 20
9.8147533639
 30
0.0
 10
11.3980249001
 20
9.8161698338
 30
0.0
 10
11.4114857551
 20
9.8169669098
 30
0.0
 10
11.4181028554
 20
9.8172198532
 30
0.0
  0
SPLINE
  5
2C7
100
AcDbEntity
  8
0
100
AcDbSpline
 62
9
  6
CONTINUOUS
 70
0
 71
3
 72
27
 73
23
 74
0
 42
0.0000001
 43
0.0000001
 44
0.0000000001
 40
0.0
 40
0.0
 40
0.0
 40
0.0
 40
0.1947910726
 40
0.3824661466
 40
0.471115386
 40
0.5552113327
 40
0.6339589089
 40
0.7066233481
 40
0.7725179363
 40
0.8309584343
 40
0.8813541298
 40
0.9232770579
 40
0.9409331245
 40
0.956317784
 40
0.9693908077
 40
0.9801344882
 40
0.9885366799
 40
0.9945925601
 40
0.9967460709
 40
0.9983279727
 40
0.9993700916
 40
1.0
 40
1.0
 40
1.0
 40
1.0
 10
11.4166923427
 20
9.8471237754
 30
0.0
 10
11.420589937
 20
9.847215166
 30
0.0
 10
11.4282439481
 20
9.8473437999
 30
0.0
 10
11.4376728322
 20
9.8474246296
 30
0.0
 10
11.444886418
 20
9.8474600137
 30
0.0
 10
11.4499199264
 20
9.8474746817
 30
0.0
 10
11.4546335188
 20
9.847482377
 30
0.0
 10
11.4589828243
 20
9.8474848204
 30
0.0
 10
11.462925691
 20
9.8474818507
 30
0.0
 10
11.466422852
 20
9.8474740724
 30
0.0
 10
11.4694402068
 20
9.8474607109
 30
0.0
 10
11.4716412387
 20
9.8474406216
 30
0.0
 10
11.473141405
 20
9.847415642
 30
0.0
 10
11.4740641103
 20
9.847393856
 30
0.0
 10
11.4748482731
 20
9.8473674587
 30
0.0
 10
11.4754924181
 20
9.8473358829
 30
0.0
 10
11.4759954414
 20
9.8472986056
 30
0.0
 10
11.4763259865
 20
9.84725982
 30
0.0
 10
11.4765184332
 20
9.8472222954
 30
0.0
 10
11.4766102158
 20
9.8471941713
 30
0.0
 10
11.4766696865
 20
9.8471680754
 30
0.0
 10
11.4766923345
 20
9.8471375832
 30
0.0
 10
11.4766923427
 20
9.8471249759
 30
0.0
  0
ENDSEC
  0
SECTION
  2
OBJECTS
  0
DICTIONARY
  5
C
100
AcDbDictionary
280
0
281
1
  3
ACAD_GROUP
350
D
  3
ACAD_MLINESTYLE
350
17
  3
ACAD_LAYOUT
350
1A
  3
ACAD_PLOTSETTINGS
350
19
  3
ACAD_PLOTSTYLENAME
350
E
  0
DICTIONARY
  5
D
102
{ACAD_REACTORS
330
C
102
}
100
AcDbDictionary
280
0
281
1
  0
ACDBDICTIONARYWDFLT
  5
E
102
{ACAD_REACTORS
330
C
102
}
100
AcDbDictionary
281
1
  3
Normal
350
F
100
AcDbDictionaryWithDefault
340
F
  0
DICTIONARY
  5
17
102
{ACAD_REACTORS
330
C
102
}
100
AcDbDictionary
280
0
281
1
  3
Standard
350
18
  0
DICTIONARY
  5
19
102
{ACAD_REACTORS
330
C
102
}
100
AcDbDictionary
281
1
  0
DICTIONARY
  5
1A
102
{ACAD_REACTORS
330
C
102
}
100
AcDbDictionary
281
1
  3
Model
350
2C8
  3
Layout1
350
2C9
  0
ACDBPLACEHOLDER
  5
F
102
{ACAD_REACTORS
330
E
102
}
  0
MLINESTYLE
  5
18
102
{ACAD_REACTORS
330
17
102
}
100
AcDbMlineStyle
  2
STANDARD
 70
0
  3

 62
256
 51
90.0
 52
90.0
 71
2
 49
0.5
 62
256
  6
BYLAYER
 49
-0.5
 62
256
  6
BYLAYER
  0
LAYOUT
  5
2C8
102
{ACAD_REACTORS
330
1A
102
}
100
AcDbPlotSettings
  1

  2
none_device
  4
ANSI_C_(22.00_x_17.00_Inches)
  6

 40
0.0
 41
0.0
 42
0.0
 43
0.0
 44
558.8
 45
431.8
 46
0.0
 47
0.0
 48
0.0
 49
0.0
140
0.0
141
0.0
142
1.0
143
1.0
 70
1024
 72
0
 73
0
 74
0
  7

 75
0
147
1.0
148
0.0
149
0.0
100
AcDbLayout
  1
Model
 70
0
 71
0
 10
0.0
 20
0.0
 11
22.0
 21
17.0
 12
0.0
 22
0.0
 32
0.0
 14
0.0
 24
0.0
 34
0.0
 15
0.0
 25
0.0
 35
0.0
146
0.0
 13
0.0
 23
0.0
 33
0.0
 16
1.0
 26
0.0
 36
0.0
 17
0.0
 27
1.0
 37
0.0
 76
0
330
202
345
0
346
0
  0
LAYOUT
  5
2C9
102
{ACAD_REACTORS
330
1A
102
}
100
AcDbPlotSettings
  1

  2
none_device
  4
ANSI_C_(22.00_x_17.00_Inches)
  6

 40
0.0
 41
0.0
 42
0.0
 43
0.0
 44
558.8
 45
431.8
 46
0.0
 47
0.0
 48
0.0
 49
0.0
140
0.0
141
0.0
142
1.0
143
1.0
 70
0
 72
0
 73
0
 74
0
  7

 75
0
147
1.0
148
0.0
149
0.0
100
AcDbLayout
  1
Layout1
 70
0
 71
1
 10
0.0
 20
0.0
 11
22.0
 21
17.0
 12
0.0
 22
0.0
 32
0.0
 14
0.0
 24
0.0
 34
0.0
 15
0.0
 25
0.0
 35
0.0
146
0.0
 13
0.0
 23
0.0
 33
0.0
 16
1.0
 26
0.0
 36
0.0
 17
0.0
 27
1.0
 37
0.0
 76
0
330
203
345
0
346
0
  0
ENDSEC
  0
EOF
