999
DXF file: E:\BT Custom\CADOUTPUT\_TOP.dxf
999
Pro/ENGINEER 2018400 by Parametric Technology Corporation
  0
SECTION
  2
HEADER
  9
$ACADVER
  1
AC1018
  9
$DWGCODEPAGE
  3
ANSI_1252
  9
$EXTMAX
 10
22.0
 20
17.0
 30
0.0
  9
$EXTMIN
 10
0.0
 20
0.0
 30
0.0
  9
$LIMMIN
 10
0.0
 20
0.0
  9
$LIMMAX
 10
22.0
 20
17.0
  9
$VIEWCTR
 10
11.0
 20
8.5
  9
$VIEWSIZE
 40
17.0
  9
$CLAYER
  8
0
  9
$LTSCALE
 40
1.21
  9
$CELTYPE
  6
BYLAYER
  9
$DIMSCALE
 40
1.0
  9
$DIMASZ
 40
0.1
  9
$DIMEXO
 40
0.0625
  9
$DIMDLI
 40
0.836
  9
$DIMEXE
 40
0.125
  9
$DIMCEN
 40
0.198
  9
$DIMLFAC
 40
1.0
  9
$DIMBLK
  1
_FILLED
  9
$DIMALT
 70
1
  9
$DIMALTD
 70
2
  9
$DIMALTTD
 70
2
  9
$DIMALTF
 40
25.4
  9
$DIMTXT
 40
0.08
  9
$DIMTOL
 70
1
  9
$DIMLIM
 70
0
  9
$DIMTFAC
 40
1.0
  9
$DIMTP
 40
0.001
  9
$DIMTM
 40
0.001
  9
$DIMGAP
 40
0.09
  9
$DIMDSEP
 70
46
  9
$AUNITS
 70
0
  9
$PDMODE
 70
3
  9
$PDSIZE
 40
0.06
  9
$HANDSEED
  5
2CB
  9
$TILEMODE
 70
1
  9
$MEASUREMENT
 70
0
  9
$INSUNITS
 70
1
  0
ENDSEC
  0
SECTION
  2
CLASSES
  0
CLASS
  1
ACDBDICTIONARYWDFLT
  2
AcDbDictionaryWithDefault
  3
AutoCAD 2000
 90
0
 91
1
280
0
281
0
  0
CLASS
  1
ACDBPLACEHOLDER
  2
AcDbPlaceHolder
  3
AutoCAD 2000
 90
0
 91
1
280
0
281
0
  0
CLASS
  1
LAYOUT
  2
AcDbLayout
  3
AutoCAD 2000
 90
0
 91
0
280
0
281
0
  0
ENDSEC
  0
SECTION
  2
TABLES
  0
TABLE
  2
VPORT
  5
8
100
AcDbSymbolTable
 70
2
  0
VPORT
  5
1F4
100
AcDbSymbolTableRecord
100
AcDbViewportTableRecord
  2
*ACTIVE
 70
0
 10
0.0
 20
0.0
 11
1.0
 21
1.0
 12
11.0
 22
8.5
 13
0.0
 23
0.0
 14
1.0
 24
1.0
 15
0.0
 25
0.0
 16
0.0
 26
0.0
 36
1.0
 17
0.0
 27
0.0
 37
0.0
 40
17.0
 41
1.2941176471
 42
50.0
 43
0.0
 44
0.0
 50
0.0
 51
0.0
 71
0
 72
100
 73
1
 74
1
 75
0
 76
0
 77
0
 78
0
  0
ENDTAB
  0
TABLE
  2
LTYPE
  5
5
100
AcDbSymbolTable
 70
6
  0
LTYPE
  5
14
100
AcDbSymbolTableRecord
100
AcDbLinetypeTableRecord
  2
BYBLOCK
 70
0
  3

 72
65
 73
0
 40
0.0
  0
LTYPE
  5
15
100
AcDbSymbolTableRecord
100
AcDbLinetypeTableRecord
  2
BYLAYER
 70
0
  3

 72
65
 73
0
 40
0.0
  0
LTYPE
  5
16
100
AcDbSymbolTableRecord
100
AcDbLinetypeTableRecord
  2
CONTINUOUS
 70
64
  3
Solid line
 72
65
 73
0
 40
0.0
  0
LTYPE
  5
1F5
100
AcDbSymbolTableRecord
100
AcDbLinetypeTableRecord
  2
CENTER
 70
64
  3
____ _ ____ _ ____ _ ____ _ ____ _ ____ _ ____
 72
65
 73
4
 40
0.6
 49
0.375
 74
0
 49
-0.075
 74
0
 49
0.075
 74
0
 49
-0.075
 74
0
  0
LTYPE
  5
1F6
100
AcDbSymbolTableRecord
100
AcDbLinetypeTableRecord
  2
HIDDEN
 70
64
  3
- - - - - - - - - - - - - - - - - - - -
 72
65
 73
2
 40
0.2
 49
0.1
 74
0
 49
-0.1
 74
0
  0
LTYPE
  5
1F7
100
AcDbSymbolTableRecord
100
AcDbLinetypeTableRecord
  2
PHANTOM
 70
64
  3
_____ _ _ _____ _ _ _____ _ _ _____
 72
65
 73
6
 40
0.8
 49
0.45
 74
0
 49
-0.05
 74
0
 49
0.1
 74
0
 49
-0.05
 74
0
 49
0.1
 74
0
 49
-0.05
 74
0
  0
LTYPE
  5
1F8
100
AcDbSymbolTableRecord
100
AcDbLinetypeTableRecord
  2
DOT
 70
64
  3
. . . . . . . . . . . . . . . . . . . .
 72
65
 73
2
 40
0.2
 49
0.1
 74
0
 49
-0.1
 74
0
  0
LTYPE
  5
1F9
100
AcDbSymbolTableRecord
100
AcDbLinetypeTableRecord
  2
DASHED
 70
64
  3
- - - - - - - - - - - - - - - - - - - -
 72
65
 73
2
 40
0.2
 49
0.1
 74
0
 49
-0.1
 74
0
  0
ENDTAB
  0
TABLE
  2
LAYER
  5
2
100
AcDbSymbolTable
 70
36
  0
LAYER
  5
10
100
AcDbSymbolTableRecord
100
AcDbLayerTableRecord
  2
0
 70
0
 62
7
  6
CONTINUOUS
370
-3
390
F
  0
LAYER
  5
1FA
100
AcDbSymbolTableRecord
100
AcDbLayerTableRecord
  2
DEFAULT_1
 70
0
 62
7
  6
CENTER
370
-3
390
F
  0
LAYER
  5
1FB
100
AcDbSymbolTableRecord
100
AcDbLayerTableRecord
  2
DEFAULT_2
 70
0
 62
8
  6
HIDDEN
370
-3
390
F
  0
LAYER
  5
1FC
100
AcDbSymbolTableRecord
100
AcDbLayerTableRecord
  2
DEFAULT_3
 70
0
 62
7
  6
PHANTOM
370
-3
390
F
  0
LAYER
  5
1FD
100
AcDbSymbolTableRecord
100
AcDbLayerTableRecord
  2
ALL_FEATURES
 70
0
 62
7
  6
CONTINUOUS
370
-3
390
F
  0
LAYER
  5
1FE
100
AcDbSymbolTableRecord
100
AcDbLayerTableRecord
  2
AXES_FEATURES
 70
0
 62
7
  6
CONTINUOUS
370
-3
390
F
  0
LAYER
  5
1FF
100
AcDbSymbolTableRecord
100
AcDbLayerTableRecord
  2
DIMENSIONS
 70
0
 62
7
  6
CONTINUOUS
370
-3
390
F
  0
ENDTAB
  0
TABLE
  2
STYLE
  5
3
100
AcDbSymbolTable
 70
1
  0
STYLE
  5
11
100
AcDbSymbolTableRecord
100
AcDbTextStyleTableRecord
  2
STANDARD
 70
0
 40
0.0
 41
0.8
 50
0.0
 71
0
 42
0.2
  3
txt
  4

  0
STYLE
  5
200
100
AcDbSymbolTableRecord
100
AcDbTextStyleTableRecord
  2
TEXTSTYLE_1
 70
0
 40
0.0
 41
0.8
 50
0.0
 71
0
 42
0.2
  3
gdt
  4

  0
ENDTAB
  0
TABLE
  2
VIEW
  5
6
100
AcDbSymbolTable
 70
0
  0
ENDTAB
  0
TABLE
  2
UCS
  5
7
100
AcDbSymbolTable
 70
0
  0
ENDTAB
  0
TABLE
  2
APPID
  5
9
100
AcDbSymbolTable
 70
1
  0
APPID
  5
201
100
AcDbSymbolTableRecord
100
AcDbRegAppTableRecord
  2
ACAD
 70
0
  0
ENDTAB
  0
TABLE
  2
BLOCK_RECORD
  5
1
100
AcDbSymbolTable
 70
0
  0
BLOCK_RECORD
  5
202
100
AcDbSymbolTableRecord
100
AcDbBlockTableRecord
  2
*Model_Space
  0
BLOCK_RECORD
  5
203
100
AcDbSymbolTableRecord
100
AcDbBlockTableRecord
  2
*Paper_Space
  0
BLOCK_RECORD
  5
204
100
AcDbSymbolTableRecord
100
AcDbBlockTableRecord
  2
_FILLED
  0
ENDTAB
  0
TABLE
  2
DIMSTYLE
  5
A
100
AcDbSymbolTable
 70
1
100
AcDbDimStyleTable
 71
0
  0
DIMSTYLE
105
205
100
AcDbSymbolTableRecord
100
AcDbDimStyleTableRecord
  2
STANDARD
 70
0
  3

  4

 40
1.0
 41
0.1
 42
0.0625
 43
0.38
 44
0.125
 45
0.0
 46
0.0
 47
0.001
 48
0.001
140
0.08
141
0.09
142
0.0
143
25.4
144
1.0
145
0.0
146
1.0
147
0.09
 71
1.0
 72
0.0
 73
1
 74
1
 75
0
 76
0
 77
0
 78
4
 79
1
170
1
171
2
172
0
173
0
174
0
175
0
176
0
177
0
178
0
270
2
179
3
271
3
272
3
273
2
274
2
275
0
280
0
281
0
282
0
283
1
284
4
285
0
286
0
287
3
288
0
340
11
278
46
341
204
342
204
343
204
344
204
  0
ENDTAB
  0
ENDSEC
  0
SECTION
  2
BLOCKS
  0
BLOCK
  5
20
100
AcDbEntity
  8
0
100
AcDbBlockBegin
  2
*Model_Space
 70
0
 10
0.0
 20
0.0
 30
0.0
  3
*Model_Space
  1

  0
ENDBLK
  5
21
100
AcDbEntity
  8
0
100
AcDbBlockEnd
  0
BLOCK
  5
1C
100
AcDbEntity
  8
0
100
AcDbBlockBegin
  2
*Paper_Space
 70
0
 10
0.0
 20
0.0
 30
0.0
  3
*Paper_Space
  1

  0
ENDBLK
  5
1D
100
AcDbEntity
  8
0
100
AcDbBlockEnd
  0
BLOCK
  5
206
100
AcDbEntity
  8
0
100
AcDbBlockBegin
  2
_FILLED
 70
64
 10
0.0
 20
0.0
  3
_FILLED
  1

  0
SOLID
  5
207
100
AcDbEntity
  8
0
  6
BYBLOCK
 62
0
100
AcDbTrace
 10
0.0
 20
0.0
 11
-1.0
 21
0.2
 12
-1.0
 22
-0.2
 13
-1.0
 23
-0.2
  0
ENDBLK
  5
208
100
AcDbEntity
  8
0
  6
BYBLOCK
 62
0
100
AcDbBlockEnd
  0
ENDSEC
  0
SECTION
  2
ENTITIES
  0
LINE
  5
209
100
AcDbEntity
  8
0
100
AcDbLine
 62
7
  6
CONTINUOUS
 10
9.6098183383
 20
7.2623318604
 11
9.6098183383
 21
7.7023318604
  0
LINE
  5
20A
100
AcDbEntity
  8
0
100
AcDbLine
 62
9
  6
CONTINUOUS
 10
9.6398183383
 20
7.7323318604
 11
9.6398183383
 21
7.2323318604
  0
LINE
  5
20B
100
AcDbEntity
  8
0
100
AcDbLine
 62
7
  6
CONTINUOUS
 10
11.2673183383
 20
6.0448318604
 11
10.8273183383
 21
6.0448318604
  0
LINE
  5
20C
100
AcDbEntity
  8
0
100
AcDbLine
 62
9
  6
CONTINUOUS
 10
10.7973183383
 20
6.0748318604
 11
11.2973183383
 21
6.0748318604
  0
LINE
  5
20D
100
AcDbEntity
  8
0
100
AcDbLine
 62
7
  6
CONTINUOUS
 10
9.8523183383
 20
6.3473318604
 11
9.8523183383
 21
7.2323318604
  0
LINE
  5
20E
100
AcDbEntity
  8
0
100
AcDbLine
 62
7
  6
CONTINUOUS
 10
9.8523183383
 20
7.7323318604
 11
9.8523183383
 21
8.6173318604
  0
LINE
  5
20F
100
AcDbEntity
  8
0
100
AcDbLine
 62
9
  6
CONTINUOUS
 10
9.8823183383
 20
8.6173318604
 11
9.8823183383
 21
7.7323318604
  0
LINE
  5
210
100
AcDbEntity
  8
0
100
AcDbLine
 62
9
  6
CONTINUOUS
 10
9.8823183383
 20
7.2323318604
 11
9.8823183383
 21
6.3473318604
  0
LINE
  5
211
100
AcDbEntity
  8
0
100
AcDbLine
 62
9
  6
CONTINUOUS
 10
9.9123183383
 20
8.6773318604
 11
9.9123183383
 21
8.6473318604
  0
LINE
  5
212
100
AcDbEntity
  8
0
100
AcDbLine
 62
9
  6
CONTINUOUS
 10
9.9123183383
 20
6.3173318604
 11
9.9123183383
 21
6.2873318604
  0
LINE
  5
213
100
AcDbEntity
  8
0
100
AcDbLine
 62
7
  6
CONTINUOUS
 10
12.1823183383
 20
6.2873318604
 11
11.2973183383
 21
6.2873318604
  0
LINE
  5
214
100
AcDbEntity
  8
0
100
AcDbLine
 62
7
  6
CONTINUOUS
 10
10.7973183383
 20
6.2873318604
 11
9.9123183383
 21
6.2873318604
  0
LINE
  5
215
100
AcDbEntity
  8
0
100
AcDbLine
 62
9
  6
CONTINUOUS
 10
9.9123183383
 20
6.3173318604
 11
10.7973183383
 21
6.3173318604
  0
LINE
  5
216
100
AcDbEntity
  8
0
100
AcDbLine
 62
9
  6
CONTINUOUS
 10
11.2973183383
 20
6.3173318604
 11
12.1823183383
 21
6.3173318604
  0
LINE
  5
217
100
AcDbEntity
  8
0
100
AcDbLine
 62
9
  6
CONTINUOUS
 10
9.8523183383
 20
6.3473318604
 11
9.8823183383
 21
6.3473318604
  0
LINE
  5
218
100
AcDbEntity
  8
0
100
AcDbLine
 62
9
  6
CONTINUOUS
 10
12.2123183383
 20
6.3473318604
 11
12.2423183383
 21
6.3473318604
  0
LINE
  5
219
100
AcDbEntity
  8
0
100
AcDbLine
 62
7
  6
CONTINUOUS
 10
10.1748183383
 20
6.6698318604
 11
10.1748183383
 21
7.2323318604
  0
LINE
  5
21A
100
AcDbEntity
  8
0
100
AcDbLine
 62
7
  6
CONTINUOUS
 10
10.1748183383
 20
7.7323318604
 11
10.1748183383
 21
8.2948318604
  0
LINE
  5
21B
100
AcDbEntity
  8
0
100
AcDbLine
 62
9
  6
CONTINUOUS
 10
10.2048183383
 20
8.2948318604
 11
10.2048183383
 21
7.7323318604
  0
LINE
  5
21C
100
AcDbEntity
  8
0
100
AcDbLine
 62
9
  6
CONTINUOUS
 10
10.2048183383
 20
7.2323318604
 11
10.2048183383
 21
6.6698318604
  0
LINE
  5
21D
100
AcDbEntity
  8
0
100
AcDbLine
 62
9
  6
CONTINUOUS
 10
10.2348183383
 20
8.3548318604
 11
10.2348183383
 21
8.3248318604
  0
LINE
  5
21E
100
AcDbEntity
  8
0
100
AcDbLine
 62
9
  6
CONTINUOUS
 10
10.2348183383
 20
6.6398318604
 11
10.2348183383
 21
6.6098318604
  0
LINE
  5
21F
100
AcDbEntity
  8
0
100
AcDbLine
 62
7
  6
CONTINUOUS
 10
11.8598183382
 20
6.6098318604
 11
11.2973183383
 21
6.6098318604
  0
LINE
  5
220
100
AcDbEntity
  8
0
100
AcDbLine
 62
7
  6
CONTINUOUS
 10
10.7973183383
 20
6.6098318604
 11
10.2348183383
 21
6.6098318604
  0
LINE
  5
221
100
AcDbEntity
  8
0
100
AcDbLine
 62
9
  6
CONTINUOUS
 10
10.2348183383
 20
6.6398318604
 11
10.7973183383
 21
6.6398318604
  0
LINE
  5
222
100
AcDbEntity
  8
0
100
AcDbLine
 62
9
  6
CONTINUOUS
 10
11.2973183383
 20
6.6398318604
 11
11.8598183383
 21
6.6398318604
  0
LINE
  5
223
100
AcDbEntity
  8
0
100
AcDbLine
 62
9
  6
CONTINUOUS
 10
10.1748183383
 20
6.6698318604
 11
10.2048183383
 21
6.6698318604
  0
LINE
  5
224
100
AcDbEntity
  8
0
100
AcDbLine
 62
9
  6
CONTINUOUS
 10
11.8898183383
 20
6.6698318604
 11
11.9198183383
 21
6.6698318604
  0
LINE
  5
225
100
AcDbEntity
  8
0
100
AcDbLine
 62
9
  6
CONTINUOUS
 10
10.2747066582
 20
6.7983528782
 11
10.2747066582
 21
7.2323318604
  0
LINE
  5
226
100
AcDbEntity
  8
0
100
AcDbLine
 62
9
  6
CONTINUOUS
 10
10.2747066582
 20
7.7323318604
 11
10.2747066582
 21
8.1663108427
  0
LINE
  5
227
100
AcDbEntity
  8
0
100
AcDbLine
 62
9
  6
CONTINUOUS
 10
10.3042508908
 20
8.1663108427
 11
10.3042508908
 21
7.7323318604
  0
LINE
  5
228
100
AcDbEntity
  8
0
100
AcDbLine
 62
9
  6
CONTINUOUS
 10
10.3042508908
 20
7.2323318604
 11
10.3042508908
 21
6.7983528782
  0
LINE
  5
229
100
AcDbEntity
  8
0
100
AcDbLine
 62
9
  6
CONTINUOUS
 10
10.3633393512
 20
8.2549435405
 11
10.3633393512
 21
8.2253993079
  0
LINE
  5
22A
100
AcDbEntity
  8
0
100
AcDbLine
 62
9
  6
CONTINUOUS
 10
10.363339356
 20
6.7392644129
 11
10.363339356
 21
6.7097201804
  0
LINE
  5
22B
100
AcDbEntity
  8
0
100
AcDbLine
 62
9
  6
CONTINUOUS
 10
11.7312973205
 20
6.7097201804
 11
11.2973183383
 21
6.7097201804
  0
LINE
  5
22C
100
AcDbEntity
  8
0
100
AcDbLine
 62
9
  6
CONTINUOUS
 10
10.7973183383
 20
6.7097201804
 11
10.363339356
 21
6.7097201804
  0
LINE
  5
22D
100
AcDbEntity
  8
0
100
AcDbLine
 62
9
  6
CONTINUOUS
 10
10.363339356
 20
6.7392644129
 11
10.7973183383
 21
6.7392644129
  0
LINE
  5
22E
100
AcDbEntity
  8
0
100
AcDbLine
 62
9
  6
CONTINUOUS
 10
11.2973183383
 20
6.7392644129
 11
11.7312973205
 21
6.7392644129
  0
LINE
  5
22F
100
AcDbEntity
  8
0
100
AcDbLine
 62
9
  6
CONTINUOUS
 10
10.2747066582
 20
6.7983528734
 11
10.3042508908
 21
6.7983528734
  0
LINE
  5
230
100
AcDbEntity
  8
0
100
AcDbLine
 62
9
  6
CONTINUOUS
 10
11.7903857857
 20
6.7983528781
 11
11.8199300183
 21
6.7983528781
  0
LINE
  5
231
100
AcDbEntity
  8
0
100
AcDbLine
 62
7
  6
CONTINUOUS
 10
10.5083183383
 20
7.0033318604
 11
10.5083183383
 21
7.2323318604
  0
LINE
  5
232
100
AcDbEntity
  8
0
100
AcDbLine
 62
7
  6
CONTINUOUS
 10
10.5083183383
 20
7.7323318604
 11
10.5083183383
 21
7.9613318604
  0
LINE
  5
233
100
AcDbEntity
  8
0
100
AcDbLine
 62
7
  6
CONTINUOUS
 10
11.5263183382
 20
6.9433318604
 11
11.2973183383
 21
6.9433318604
  0
LINE
  5
234
100
AcDbEntity
  8
0
100
AcDbLine
 62
7
  6
CONTINUOUS
 10
10.7973183383
 20
6.9433318604
 11
10.5683183383
 21
6.9433318604
  0
LINE
  5
235
100
AcDbEntity
  8
0
100
AcDbLine
 62
9
  6
CONTINUOUS
 10
10.5383183383
 20
7.9613318604
 11
10.5383183383
 21
7.7323318604
  0
LINE
  5
236
100
AcDbEntity
  8
0
100
AcDbLine
 62
9
  6
CONTINUOUS
 10
10.5383183383
 20
7.2323318604
 11
10.5383183383
 21
7.0033318604
  0
LINE
  5
237
100
AcDbEntity
  8
0
100
AcDbLine
 62
9
  6
CONTINUOUS
 10
10.5683183383
 20
8.0213318604
 11
10.5683183383
 21
7.9913318604
  0
LINE
  5
238
100
AcDbEntity
  8
0
100
AcDbLine
 62
9
  6
CONTINUOUS
 10
10.5683183383
 20
6.9733318604
 11
10.5683183383
 21
6.9433318604
  0
LINE
  5
239
100
AcDbEntity
  8
0
100
AcDbLine
 62
9
  6
CONTINUOUS
 10
10.6438183383
 20
7.2323318604
 11
10.6438183383
 21
7.7323318604
  0
LINE
  5
23A
100
AcDbEntity
  8
0
100
AcDbLine
 62
9
  6
CONTINUOUS
 10
10.5683183383
 20
6.9733318604
 11
10.7973183383
 21
6.9733318604
  0
LINE
  5
23B
100
AcDbEntity
  8
0
100
AcDbLine
 62
9
  6
CONTINUOUS
 10
11.2973183383
 20
6.9733318604
 11
11.5263183383
 21
6.9733318604
  0
LINE
  5
23C
100
AcDbEntity
  8
0
100
AcDbLine
 62
9
  6
CONTINUOUS
 10
10.5083183383
 20
7.0033318604
 11
10.5383183383
 21
7.0033318604
  0
LINE
  5
23D
100
AcDbEntity
  8
0
100
AcDbLine
 62
9
  6
CONTINUOUS
 10
11.5563183383
 20
7.0033318604
 11
11.5863183383
 21
7.0033318604
  0
LINE
  5
23E
100
AcDbEntity
  8
0
100
AcDbLine
 62
9
  6
CONTINUOUS
 10
11.2973183383
 20
7.0788318604
 11
10.7973183383
 21
7.0788318604
  0
LINE
  5
23F
100
AcDbEntity
  8
0
100
AcDbLine
 62
7
  6
CONTINUOUS
 10
10.7038183383
 20
7.1688318604
 11
10.7038183383
 21
7.7958318604
  0
LINE
  5
240
100
AcDbEntity
  8
0
100
AcDbLine
 62
9
  6
CONTINUOUS
 10
10.7338183383
 20
7.8258318604
 11
10.7338183383
 21
7.1388318604
  0
LINE
  5
241
100
AcDbEntity
  8
0
100
AcDbLine
 62
7
  6
CONTINUOUS
 10
11.3608183383
 20
7.1388318604
 11
10.7338183383
 21
7.1388318604
  0
LINE
  5
242
100
AcDbEntity
  8
0
100
AcDbLine
 62
9
  6
CONTINUOUS
 10
10.7038183383
 20
7.1688318604
 11
11.3908183383
 21
7.1688318604
  0
LINE
  5
243
100
AcDbEntity
  8
0
100
AcDbLine
 62
7
  6
CONTINUOUS
 10
10.7973183383
 20
6.0748318604
 11
10.7973183383
 21
7.0788318604
  0
LINE
  5
244
100
AcDbEntity
  8
0
100
AcDbLine
 62
7
  6
CONTINUOUS
 10
10.7973183383
 20
7.8858318604
 11
10.7973183383
 21
8.8898318604
  0
LINE
  5
245
100
AcDbEntity
  8
0
100
AcDbLine
 62
9
  6
CONTINUOUS
 10
10.8273183383
 20
8.9198318604
 11
10.8273183383
 21
7.8258318604
  0
LINE
  5
246
100
AcDbEntity
  8
0
100
AcDbLine
 62
9
  6
CONTINUOUS
 10
10.8273183383
 20
7.1388318604
 11
10.8273183383
 21
6.0448318604
  0
LINE
  5
247
100
AcDbEntity
  8
0
100
AcDbLine
 62
7
  6
CONTINUOUS
 10
12.4548183383
 20
7.2323318604
 11
11.4508183383
 21
7.2323318604
  0
LINE
  5
248
100
AcDbEntity
  8
0
100
AcDbLine
 62
7
  6
CONTINUOUS
 10
10.6438183383
 20
7.2323318604
 11
9.6398183383
 21
7.2323318604
  0
LINE
  5
249
100
AcDbEntity
  8
0
100
AcDbLine
 62
9
  6
CONTINUOUS
 10
9.6098183383
 20
7.2623318604
 11
10.7038183383
 21
7.2623318604
  0
LINE
  5
24A
100
AcDbEntity
  8
0
100
AcDbLine
 62
9
  6
CONTINUOUS
 10
11.3908183383
 20
7.2623318604
 11
12.4848183383
 21
7.2623318604
  0
LINE
  5
24B
100
AcDbEntity
  8
0
100
AcDbLine
 62
9
  6
CONTINUOUS
 10
10.5084426865
 20
7.0025457929
 11
10.3042508908
 21
6.7983528782
  0
LINE
  5
24C
100
AcDbEntity
  8
0
100
AcDbLine
 62
9
  6
CONTINUOUS
 10
11.7312973206
 20
8.2253993079
 11
11.5271069982
 21
8.0212073645
  0
LINE
  5
24D
100
AcDbEntity
  8
0
100
AcDbLine
 62
9
  6
CONTINUOUS
 10
10.3042508908
 20
8.1663108427
 11
10.5084423776
 21
7.9621176282
  0
LINE
  5
24E
100
AcDbEntity
  8
0
100
AcDbLine
 62
9
  6
CONTINUOUS
 10
11.5271058411
 20
6.9434564268
 11
11.7312973205
 21
6.7392644129
  0
LINE
  5
24F
100
AcDbEntity
  8
0
100
AcDbLine
 62
9
  6
CONTINUOUS
 10
11.5861898403
 20
7.9621146266
 11
11.7903857857
 21
8.1663108427
  0
LINE
  5
250
100
AcDbEntity
  8
0
100
AcDbLine
 62
9
  6
CONTINUOUS
 10
10.363339356
 20
6.7392644129
 11
10.5675298498
 21
6.9434530268
  0
LINE
  5
251
100
AcDbEntity
  8
0
100
AcDbLine
 62
9
  6
CONTINUOUS
 10
11.7903857857
 20
6.7983528781
 11
11.5861967071
 21
7.0025402963
  0
LINE
  5
252
100
AcDbEntity
  8
0
100
AcDbLine
 62
9
  6
CONTINUOUS
 10
10.5675366477
 20
8.021203539
 11
10.363339356
 21
8.2253993079
  0
LINE
  5
253
100
AcDbEntity
  8
0
100
AcDbLine
 62
9
  6
CONTINUOUS
 10
11.2673183383
 20
6.0448318604
 11
11.2673183383
 21
7.1388318604
  0
LINE
  5
254
100
AcDbEntity
  8
0
100
AcDbLine
 62
9
  6
CONTINUOUS
 10
11.2673183383
 20
7.8258318604
 11
11.2673183383
 21
8.9198318604
  0
LINE
  5
255
100
AcDbEntity
  8
0
100
AcDbLine
 62
7
  6
CONTINUOUS
 10
11.2973183383
 20
8.8898318604
 11
11.2973183383
 21
7.8858318604
  0
LINE
  5
256
100
AcDbEntity
  8
0
100
AcDbLine
 62
7
  6
CONTINUOUS
 10
11.2973183383
 20
7.0788318604
 11
11.2973183383
 21
6.0748318604
  0
LINE
  5
257
100
AcDbEntity
  8
0
100
AcDbLine
 62
9
  6
CONTINUOUS
 10
12.4848183383
 20
7.7023318604
 11
11.3908183383
 21
7.7023318604
  0
LINE
  5
258
100
AcDbEntity
  8
0
100
AcDbLine
 62
9
  6
CONTINUOUS
 10
10.7038183383
 20
7.7023318604
 11
9.6098183383
 21
7.7023318604
  0
LINE
  5
259
100
AcDbEntity
  8
0
100
AcDbLine
 62
7
  6
CONTINUOUS
 10
9.6398183383
 20
7.7323318604
 11
10.6438183383
 21
7.7323318604
  0
LINE
  5
25A
100
AcDbEntity
  8
0
100
AcDbLine
 62
7
  6
CONTINUOUS
 10
11.4508183383
 20
7.7323318604
 11
12.4548183383
 21
7.7323318604
  0
LINE
  5
25B
100
AcDbEntity
  8
0
100
AcDbLine
 62
9
  6
CONTINUOUS
 10
11.3608183383
 20
7.1388318604
 11
11.3608183383
 21
7.8258318604
  0
LINE
  5
25C
100
AcDbEntity
  8
0
100
AcDbLine
 62
7
  6
CONTINUOUS
 10
11.3908183383
 20
7.7958318604
 11
11.3908183383
 21
7.1688318604
  0
LINE
  5
25D
100
AcDbEntity
  8
0
100
AcDbLine
 62
9
  6
CONTINUOUS
 10
11.4508183383
 20
7.7323318604
 11
11.4508183383
 21
7.2323318604
  0
LINE
  5
25E
100
AcDbEntity
  8
0
100
AcDbLine
 62
9
  6
CONTINUOUS
 10
11.3908183383
 20
7.7958318604
 11
10.7038183383
 21
7.7958318604
  0
LINE
  5
25F
100
AcDbEntity
  8
0
100
AcDbLine
 62
7
  6
CONTINUOUS
 10
10.7338183383
 20
7.8258318604
 11
11.3608183383
 21
7.8258318604
  0
LINE
  5
260
100
AcDbEntity
  8
0
100
AcDbLine
 62
9
  6
CONTINUOUS
 10
10.7973183383
 20
7.8858318604
 11
11.2973183383
 21
7.8858318604
  0
LINE
  5
261
100
AcDbEntity
  8
0
100
AcDbLine
 62
9
  6
CONTINUOUS
 10
11.5263183383
 20
6.9433318604
 11
11.5263183383
 21
6.9733318604
  0
LINE
  5
262
100
AcDbEntity
  8
0
100
AcDbLine
 62
9
  6
CONTINUOUS
 10
11.5263183383
 20
7.9913318604
 11
11.5263183383
 21
8.0213318604
  0
LINE
  5
263
100
AcDbEntity
  8
0
100
AcDbLine
 62
9
  6
CONTINUOUS
 10
11.5563183383
 20
7.0033318604
 11
11.5563183383
 21
7.2323318604
  0
LINE
  5
264
100
AcDbEntity
  8
0
100
AcDbLine
 62
9
  6
CONTINUOUS
 10
11.5563183383
 20
7.7323318604
 11
11.5563183383
 21
7.9613318604
  0
LINE
  5
265
100
AcDbEntity
  8
0
100
AcDbLine
 62
7
  6
CONTINUOUS
 10
11.5863183383
 20
7.9613318604
 11
11.5863183383
 21
7.7323318604
  0
LINE
  5
266
100
AcDbEntity
  8
0
100
AcDbLine
 62
7
  6
CONTINUOUS
 10
11.5863183383
 20
7.2323318604
 11
11.5863183383
 21
7.0033318605
  0
LINE
  5
267
100
AcDbEntity
  8
0
100
AcDbLine
 62
9
  6
CONTINUOUS
 10
11.5863183383
 20
7.9613318604
 11
11.5563183383
 21
7.9613318604
  0
LINE
  5
268
100
AcDbEntity
  8
0
100
AcDbLine
 62
9
  6
CONTINUOUS
 10
10.5383183383
 20
7.9613318604
 11
10.5083183383
 21
7.9613318604
  0
LINE
  5
269
100
AcDbEntity
  8
0
100
AcDbLine
 62
9
  6
CONTINUOUS
 10
11.5263183383
 20
7.9913318604
 11
11.2973183383
 21
7.9913318604
  0
LINE
  5
26A
100
AcDbEntity
  8
0
100
AcDbLine
 62
9
  6
CONTINUOUS
 10
10.7973183383
 20
7.9913318604
 11
10.5683183383
 21
7.9913318604
  0
LINE
  5
26B
100
AcDbEntity
  8
0
100
AcDbLine
 62
7
  6
CONTINUOUS
 10
10.5683183383
 20
8.0213318604
 11
10.7973183383
 21
8.0213318604
  0
LINE
  5
26C
100
AcDbEntity
  8
0
100
AcDbLine
 62
7
  6
CONTINUOUS
 10
11.2973183383
 20
8.0213318604
 11
11.5263183382
 21
8.0213318604
  0
LINE
  5
26D
100
AcDbEntity
  8
0
100
AcDbLine
 62
9
  6
CONTINUOUS
 10
11.7312973253
 20
6.7097201804
 11
11.7312973253
 21
6.7392644129
  0
LINE
  5
26E
100
AcDbEntity
  8
0
100
AcDbLine
 62
9
  6
CONTINUOUS
 10
11.7312973206
 20
8.2253993079
 11
11.7312973206
 21
8.2549435405
  0
LINE
  5
26F
100
AcDbEntity
  8
0
100
AcDbLine
 62
9
  6
CONTINUOUS
 10
11.8199300183
 20
8.1663108474
 11
11.7903857857
 21
8.1663108474
  0
LINE
  5
270
100
AcDbEntity
  8
0
100
AcDbLine
 62
9
  6
CONTINUOUS
 10
10.3042508908
 20
8.1663108427
 11
10.2747066582
 21
8.1663108427
  0
LINE
  5
271
100
AcDbEntity
  8
0
100
AcDbLine
 62
9
  6
CONTINUOUS
 10
11.7903857857
 20
6.7983528781
 11
11.7903857857
 21
7.2323318604
  0
LINE
  5
272
100
AcDbEntity
  8
0
100
AcDbLine
 62
9
  6
CONTINUOUS
 10
11.7903857857
 20
7.7323318604
 11
11.7903857857
 21
8.1663108427
  0
LINE
  5
273
100
AcDbEntity
  8
0
100
AcDbLine
 62
9
  6
CONTINUOUS
 10
11.8199300183
 20
8.1663108427
 11
11.8199300183
 21
7.7323318604
  0
LINE
  5
274
100
AcDbEntity
  8
0
100
AcDbLine
 62
9
  6
CONTINUOUS
 10
11.8199300183
 20
7.2323318604
 11
11.8199300183
 21
6.7983528781
  0
LINE
  5
275
100
AcDbEntity
  8
0
100
AcDbLine
 62
9
  6
CONTINUOUS
 10
11.8598183383
 20
6.6098318604
 11
11.8598183383
 21
6.6398318604
  0
LINE
  5
276
100
AcDbEntity
  8
0
100
AcDbLine
 62
9
  6
CONTINUOUS
 10
11.8598183383
 20
8.3248318604
 11
11.8598183383
 21
8.3548318604
  0
LINE
  5
277
100
AcDbEntity
  8
0
100
AcDbLine
 62
9
  6
CONTINUOUS
 10
11.7312973206
 20
8.2253993079
 11
11.2973183383
 21
8.2253993079
  0
LINE
  5
278
100
AcDbEntity
  8
0
100
AcDbLine
 62
9
  6
CONTINUOUS
 10
10.7973183383
 20
8.2253993079
 11
10.363339356
 21
8.2253993079
  0
LINE
  5
279
100
AcDbEntity
  8
0
100
AcDbLine
 62
9
  6
CONTINUOUS
 10
10.363339356
 20
8.2549435405
 11
10.7973183383
 21
8.2549435405
  0
LINE
  5
27A
100
AcDbEntity
  8
0
100
AcDbLine
 62
9
  6
CONTINUOUS
 10
11.2973183383
 20
8.2549435405
 11
11.7312973206
 21
8.2549435405
  0
LINE
  5
27B
100
AcDbEntity
  8
0
100
AcDbLine
 62
9
  6
CONTINUOUS
 10
11.9198183383
 20
8.2948318604
 11
11.8898183383
 21
8.2948318604
  0
LINE
  5
27C
100
AcDbEntity
  8
0
100
AcDbLine
 62
9
  6
CONTINUOUS
 10
10.2048183383
 20
8.2948318604
 11
10.1748183383
 21
8.2948318604
  0
LINE
  5
27D
100
AcDbEntity
  8
0
100
AcDbLine
 62
9
  6
CONTINUOUS
 10
11.8898183383
 20
6.6698318604
 11
11.8898183383
 21
7.2323318604
  0
LINE
  5
27E
100
AcDbEntity
  8
0
100
AcDbLine
 62
9
  6
CONTINUOUS
 10
11.8898183383
 20
7.7323318604
 11
11.8898183383
 21
8.2948318604
  0
LINE
  5
27F
100
AcDbEntity
  8
0
100
AcDbLine
 62
7
  6
CONTINUOUS
 10
11.9198183383
 20
8.2948318604
 11
11.9198183383
 21
7.7323318604
  0
LINE
  5
280
100
AcDbEntity
  8
0
100
AcDbLine
 62
7
  6
CONTINUOUS
 10
11.9198183383
 20
7.2323318604
 11
11.9198183383
 21
6.6698318605
  0
LINE
  5
281
100
AcDbEntity
  8
0
100
AcDbLine
 62
9
  6
CONTINUOUS
 10
11.8598183383
 20
8.3248318604
 11
11.2973183383
 21
8.3248318604
  0
LINE
  5
282
100
AcDbEntity
  8
0
100
AcDbLine
 62
9
  6
CONTINUOUS
 10
10.7973183383
 20
8.3248318604
 11
10.2348183383
 21
8.3248318604
  0
LINE
  5
283
100
AcDbEntity
  8
0
100
AcDbLine
 62
7
  6
CONTINUOUS
 10
10.2348183383
 20
8.3548318604
 11
10.7973183383
 21
8.3548318604
  0
LINE
  5
284
100
AcDbEntity
  8
0
100
AcDbLine
 62
7
  6
CONTINUOUS
 10
11.2973183383
 20
8.3548318604
 11
11.8598183382
 21
8.3548318604
  0
LINE
  5
285
100
AcDbEntity
  8
0
100
AcDbLine
 62
9
  6
CONTINUOUS
 10
12.1823183383
 20
6.2873318604
 11
12.1823183383
 21
6.3173318604
  0
LINE
  5
286
100
AcDbEntity
  8
0
100
AcDbLine
 62
9
  6
CONTINUOUS
 10
12.1823183383
 20
8.6473318604
 11
12.1823183383
 21
8.6773318604
  0
LINE
  5
287
100
AcDbEntity
  8
0
100
AcDbLine
 62
9
  6
CONTINUOUS
 10
12.2123183383
 20
6.3473318604
 11
12.2123183383
 21
7.2323318604
  0
LINE
  5
288
100
AcDbEntity
  8
0
100
AcDbLine
 62
9
  6
CONTINUOUS
 10
12.2123183383
 20
7.7323318604
 11
12.2123183383
 21
8.6173318604
  0
LINE
  5
289
100
AcDbEntity
  8
0
100
AcDbLine
 62
7
  6
CONTINUOUS
 10
12.2423183383
 20
8.6173318604
 11
12.2423183383
 21
7.7323318604
  0
LINE
  5
28A
100
AcDbEntity
  8
0
100
AcDbLine
 62
7
  6
CONTINUOUS
 10
12.2423183383
 20
7.2323318604
 11
12.2423183383
 21
6.3473318605
  0
LINE
  5
28B
100
AcDbEntity
  8
0
100
AcDbLine
 62
9
  6
CONTINUOUS
 10
12.2423183383
 20
8.6173318604
 11
12.2123183383
 21
8.6173318604
  0
LINE
  5
28C
100
AcDbEntity
  8
0
100
AcDbLine
 62
9
  6
CONTINUOUS
 10
9.8823183383
 20
8.6173318604
 11
9.8523183383
 21
8.6173318604
  0
LINE
  5
28D
100
AcDbEntity
  8
0
100
AcDbLine
 62
9
  6
CONTINUOUS
 10
12.1823183383
 20
8.6473318604
 11
11.2973183383
 21
8.6473318604
  0
LINE
  5
28E
100
AcDbEntity
  8
0
100
AcDbLine
 62
9
  6
CONTINUOUS
 10
10.7973183383
 20
8.6473318604
 11
9.9123183383
 21
8.6473318604
  0
LINE
  5
28F
100
AcDbEntity
  8
0
100
AcDbLine
 62
7
  6
CONTINUOUS
 10
9.9123183383
 20
8.6773318604
 11
10.7973183383
 21
8.6773318604
  0
LINE
  5
290
100
AcDbEntity
  8
0
100
AcDbLine
 62
7
  6
CONTINUOUS
 10
11.2973183383
 20
8.6773318604
 11
12.1823183382
 21
8.6773318604
  0
LINE
  5
291
100
AcDbEntity
  8
0
100
AcDbLine
 62
9
  6
CONTINUOUS
 10
12.4548183383
 20
7.2323318604
 11
12.4548183383
 21
7.7323318604
  0
LINE
  5
292
100
AcDbEntity
  8
0
100
AcDbLine
 62
7
  6
CONTINUOUS
 10
12.4848183383
 20
7.7023318604
 11
12.4848183383
 21
7.2623318604
  0
LINE
  5
293
100
AcDbEntity
  8
0
100
AcDbLine
 62
9
  6
CONTINUOUS
 10
11.2973183383
 20
8.8898318604
 11
10.7973183383
 21
8.8898318604
  0
LINE
  5
294
100
AcDbEntity
  8
0
100
AcDbLine
 62
7
  6
CONTINUOUS
 10
10.8273183383
 20
8.9198318604
 11
11.2673183383
 21
8.9198318604
  0
ARC
  5
295
100
AcDbEntity
  8
0
100
AcDbCircle
 62
7
  6
CONTINUOUS
 10
10.2348183383
 20
6.6698318604
 40
0.06
100
AcDbArc
 50
179.9999999799
 51
270.0
  0
ARC
  5
296
100
AcDbEntity
  8
0
100
AcDbCircle
 62
7
  6
CONTINUOUS
 10
10.5683183383
 20
7.0033318604
 40
0.06
100
AcDbArc
 50
179.9999999765
 51
270.0
  0
ARC
  5
297
100
AcDbEntity
  8
0
100
AcDbCircle
 62
7
  6
CONTINUOUS
 10
9.9123183383
 20
6.3473318604
 40
0.06
100
AcDbArc
 50
179.9999998864
 51
270.0
  0
ARC
  5
298
100
AcDbEntity
  8
0
100
AcDbCircle
 62
7
  6
CONTINUOUS
 10
10.6438183383
 20
7.1723318604
 40
0.06
100
AcDbArc
 50
0.0000000107
 51
90.0
  0
ARC
  5
299
100
AcDbEntity
  8
0
100
AcDbCircle
 62
7
  6
CONTINUOUS
 10
10.7373183383
 20
7.0788318604
 40
0.06
100
AcDbArc
 50
0.0
 51
90.0
  0
ARC
  5
29A
100
AcDbEntity
  8
0
100
AcDbCircle
 62
7
  6
CONTINUOUS
 10
10.7338183383
 20
7.1688318604
 40
0.03
100
AcDbArc
 50
180.0
 51
270.0
  0
ARC
  5
29B
100
AcDbEntity
  8
0
100
AcDbCircle
 62
7
  6
CONTINUOUS
 10
10.8273183383
 20
6.0748318604
 40
0.03
100
AcDbArc
 50
180.0
 51
270.0
  0
ARC
  5
29C
100
AcDbEntity
  8
0
100
AcDbCircle
 62
7
  6
CONTINUOUS
 10
9.6398183383
 20
7.2623318604
 40
0.03
100
AcDbArc
 50
180.0
 51
270.0
  0
ARC
  5
29D
100
AcDbEntity
  8
0
100
AcDbCircle
 62
9
  6
CONTINUOUS
 10
9.9123183383
 20
6.3473318604
 40
0.03
100
AcDbArc
 50
180.0
 51
270.0
  0
ARC
  5
29E
100
AcDbEntity
  8
0
100
AcDbCircle
 62
9
  6
CONTINUOUS
 10
10.5683183383
 20
7.0033318604
 40
0.03
100
AcDbArc
 50
180.0
 51
270.0
  0
ARC
  5
29F
100
AcDbEntity
  8
0
100
AcDbCircle
 62
9
  6
CONTINUOUS
 10
10.2348183383
 20
6.6698318604
 40
0.03
100
AcDbArc
 50
180.0
 51
270.0
  0
ARC
  5
2A0
100
AcDbEntity
  8
0
100
AcDbCircle
 62
7
  6
CONTINUOUS
 10
10.2348183383
 20
8.2948318604
 40
0.06
100
AcDbArc
 50
89.9999999799
 51
180.0
  0
ARC
  5
2A1
100
AcDbEntity
  8
0
100
AcDbCircle
 62
7
  6
CONTINUOUS
 10
10.5683183383
 20
7.9613318604
 40
0.06
100
AcDbArc
 50
89.99999998
 51
180.0
  0
ARC
  5
2A2
100
AcDbEntity
  8
0
100
AcDbCircle
 62
7
  6
CONTINUOUS
 10
9.9123183383
 20
8.6173318604
 40
0.06
100
AcDbArc
 50
89.9999998864
 51
180.0
  0
ARC
  5
2A3
100
AcDbEntity
  8
0
100
AcDbCircle
 62
7
  6
CONTINUOUS
 10
10.7373183383
 20
7.8858318604
 40
0.06
100
AcDbArc
 50
270.0
 51
360.0
  0
ARC
  5
2A4
100
AcDbEntity
  8
0
100
AcDbCircle
 62
7
  6
CONTINUOUS
 10
10.6438183383
 20
7.7923318604
 40
0.06
100
AcDbArc
 50
270.0
 51
359.9999999893
  0
ARC
  5
2A5
100
AcDbEntity
  8
0
100
AcDbCircle
 62
7
  6
CONTINUOUS
 10
10.7338183383
 20
7.7958318604
 40
0.03
100
AcDbArc
 50
90.0
 51
180.0
  0
ARC
  5
2A6
100
AcDbEntity
  8
0
100
AcDbCircle
 62
7
  6
CONTINUOUS
 10
10.8273183383
 20
8.8898318604
 40
0.03
100
AcDbArc
 50
90.0
 51
180.0
  0
ARC
  5
2A7
100
AcDbEntity
  8
0
100
AcDbCircle
 62
7
  6
CONTINUOUS
 10
9.6398183383
 20
7.7023318604
 40
0.03
100
AcDbArc
 50
90.0
 51
180.0
  0
ARC
  5
2A8
100
AcDbEntity
  8
0
100
AcDbCircle
 62
9
  6
CONTINUOUS
 10
10.5683183383
 20
7.9613318604
 40
0.03
100
AcDbArc
 50
90.0
 51
180.0
  0
ARC
  5
2A9
100
AcDbEntity
  8
0
100
AcDbCircle
 62
9
  6
CONTINUOUS
 10
9.9123183383
 20
8.6173318604
 40
0.03
100
AcDbArc
 50
90.0
 51
180.0
  0
ARC
  5
2AA
100
AcDbEntity
  8
0
100
AcDbCircle
 62
9
  6
CONTINUOUS
 10
10.2348183383
 20
8.2948318604
 40
0.03
100
AcDbArc
 50
90.0
 51
180.0
  0
ARC
  5
2AB
100
AcDbEntity
  8
0
100
AcDbCircle
 62
7
  6
CONTINUOUS
 10
11.8598183383
 20
6.6698318604
 40
0.06
100
AcDbArc
 50
269.9999999799
 51
360.0
  0
ARC
  5
2AC
100
AcDbEntity
  8
0
100
AcDbCircle
 62
7
  6
CONTINUOUS
 10
11.5263183383
 20
7.0033318604
 40
0.06
100
AcDbArc
 50
269.9999999772
 51
360.0
  0
ARC
  5
2AD
100
AcDbEntity
  8
0
100
AcDbCircle
 62
7
  6
CONTINUOUS
 10
12.1823183383
 20
6.3473318604
 40
0.06
100
AcDbArc
 50
269.9999998864
 51
360.0
  0
ARC
  5
2AE
100
AcDbEntity
  8
0
100
AcDbCircle
 62
7
  6
CONTINUOUS
 10
11.4508183383
 20
7.1723318604
 40
0.06
100
AcDbArc
 50
90.0
 51
179.9999999892
  0
ARC
  5
2AF
100
AcDbEntity
  8
0
100
AcDbCircle
 62
7
  6
CONTINUOUS
 10
11.3573183383
 20
7.0788318604
 40
0.06
100
AcDbArc
 50
90.0
 51
180.0
  0
ARC
  5
2B0
100
AcDbEntity
  8
0
100
AcDbCircle
 62
7
  6
CONTINUOUS
 10
12.4548183383
 20
7.2623318604
 40
0.03
100
AcDbArc
 50
270.0
 51
360.0
  0
ARC
  5
2B1
100
AcDbEntity
  8
0
100
AcDbCircle
 62
7
  6
CONTINUOUS
 10
11.3608183383
 20
7.1688318604
 40
0.03
100
AcDbArc
 50
270.0
 51
360.0
  0
ARC
  5
2B2
100
AcDbEntity
  8
0
100
AcDbCircle
 62
7
  6
CONTINUOUS
 10
11.2673183383
 20
6.0748318604
 40
0.03
100
AcDbArc
 50
270.0
 51
360.0
  0
ARC
  5
2B3
100
AcDbEntity
  8
0
100
AcDbCircle
 62
9
  6
CONTINUOUS
 10
11.5263183383
 20
7.0033318604
 40
0.03
100
AcDbArc
 50
270.0
 51
360.0
  0
ARC
  5
2B4
100
AcDbEntity
  8
0
100
AcDbCircle
 62
9
  6
CONTINUOUS
 10
12.1823183383
 20
6.3473318604
 40
0.03
100
AcDbArc
 50
270.0
 51
360.0
  0
ARC
  5
2B5
100
AcDbEntity
  8
0
100
AcDbCircle
 62
9
  6
CONTINUOUS
 10
11.8598183383
 20
6.6698318604
 40
0.03
100
AcDbArc
 50
270.0
 51
360.0
  0
ARC
  5
2B6
100
AcDbEntity
  8
0
100
AcDbCircle
 62
7
  6
CONTINUOUS
 10
11.8598183383
 20
8.2948318604
 40
0.06
100
AcDbArc
 50
0.0
 51
90.0
  0
ARC
  5
2B7
100
AcDbEntity
  8
0
100
AcDbCircle
 62
7
  6
CONTINUOUS
 10
11.5263183383
 20
7.9613318604
 40
0.06
100
AcDbArc
 50
0.0
 51
90.0
  0
ARC
  5
2B8
100
AcDbEntity
  8
0
100
AcDbCircle
 62
7
  6
CONTINUOUS
 10
12.1823183383
 20
8.6173318604
 40
0.06
100
AcDbArc
 50
359.9999998864
 51
90.0
  0
ARC
  5
2B9
100
AcDbEntity
  8
0
100
AcDbCircle
 62
7
  6
CONTINUOUS
 10
11.4508183383
 20
7.7923318604
 40
0.06
100
AcDbArc
 50
180.0000000108
 51
270.0
  0
ARC
  5
2BA
100
AcDbEntity
  8
0
100
AcDbCircle
 62
7
  6
CONTINUOUS
 10
11.3573183383
 20
7.8858318604
 40
0.06
100
AcDbArc
 50
180.0
 51
270.0
  0
ARC
  5
2BB
100
AcDbEntity
  8
0
100
AcDbCircle
 62
7
  6
CONTINUOUS
 10
11.3608183383
 20
7.7958318604
 40
0.03
100
AcDbArc
 50
0.0
 51
90.0
  0
ARC
  5
2BC
100
AcDbEntity
  8
0
100
AcDbCircle
 62
7
  6
CONTINUOUS
 10
12.4548183383
 20
7.7023318604
 40
0.03
100
AcDbArc
 50
0.0
 51
90.0
  0
ARC
  5
2BD
100
AcDbEntity
  8
0
100
AcDbCircle
 62
7
  6
CONTINUOUS
 10
11.2673183383
 20
8.8898318604
 40
0.03
100
AcDbArc
 50
0.0
 51
90.0
  0
ARC
  5
2BE
100
AcDbEntity
  8
0
100
AcDbCircle
 62
9
  6
CONTINUOUS
 10
11.5263183383
 20
7.9613318604
 40
0.03
100
AcDbArc
 50
0.0
 51
90.0
  0
ARC
  5
2BF
100
AcDbEntity
  8
0
100
AcDbCircle
 62
9
  6
CONTINUOUS
 10
12.1823183383
 20
8.6173318604
 40
0.03
100
AcDbArc
 50
0.0
 51
90.0
  0
ARC
  5
2C0
100
AcDbEntity
  8
0
100
AcDbCircle
 62
9
  6
CONTINUOUS
 10
11.8598183383
 20
8.2948318604
 40
0.03
100
AcDbArc
 50
0.0
 51
90.0
  0
SPLINE
  5
2C1
100
AcDbEntity
  8
0
100
AcDbSpline
 62
9
  6
CONTINUOUS
 70
0
 71
3
 72
19
 73
15
 74
0
 42
0.0000001
 43
0.0000001
 44
0.0000000001
 40
0.0
 40
0.0
 40
0.0
 40
0.0
 40
0.1248821343
 40
0.187466047
 40
0.2500150186
 40
0.3125420486
 40
0.3750741966
 40
0.5000126058
 40
0.6249413076
 40
0.6874677259
 40
0.7499884584
 40
0.8125311244
 40
0.8751128254
 40
1.0
 40
1.0
 40
1.0
 40
1.0
 10
10.2747066582
 20
8.1663108427
 30
0.0
 10
10.2747070748
 20
8.1721082788
 30
0.0
 10
10.27554916
 20
8.1808413874
 30
0.0
 10
10.2783200818
 20
8.1921252232
 30
0.0
 10
10.2812205722
 20
8.200355849
 30
0.0
 10
10.2849118639
 20
8.2082603327
 30
0.0
 10
10.2908506544
 20
8.2182500339
 30
0.0
 10
10.3000924071
 20
8.2295599538
 30
0.0
 10
10.3114039452
 20
8.2387989182
 30
0.0
 10
10.3213923672
 20
8.2447376992
 30
0.0
 10
10.3292949875
 20
8.248430882
 30
0.0
 10
10.3375243417
 20
8.2513330816
 30
0.0
 10
10.3488083021
 20
8.2541033549
 30
0.0
 10
10.3575416859
 20
8.2549431509
 30
0.0
 10
10.363339356
 20
8.2549435405
 30
0.0
  0
SPLINE
  5
2C2
100
AcDbEntity
  8
0
100
AcDbSpline
 62
9
  6
CONTINUOUS
 70
0
 71
3
 72
15
 73
11
 74
0
 42
0.0000001
 43
0.0000001
 44
0.0000000001
 40
0.0
 40
0.0
 40
0.0
 40
0.0
 40
0.1256015401
 40
0.2507762965
 40
0.375531504
 40
0.5000153021
 40
0.6244925566
 40
0.7492361723
 40
0.8744027395
 40
1.0
 40
1.0
 40
1.0
 40
1.0
 10
10.3042509445
 20
8.166309643
 30
0.0
 10
10.3041948377
 20
8.1702149015
 30
0.0
 10
10.3048345345
 20
8.1780433208
 30
0.0
 10
10.3080306909
 20
8.1893520331
 30
0.0
 10
10.3134337789
 20
8.1997564795
 30
0.0
 10
10.3208036985
 20
8.2088474126
 30
0.0
 10
10.3298943906
 20
8.2162170797
 30
0.0
 10
10.3402982455
 20
8.221619507
 30
0.0
 10
10.351606193
 20
8.2248155067
 30
0.0
 10
10.3594342124
 20
8.2254553168
 30
0.0
 10
10.3633393387
 20
8.2253992717
 30
0.0
  0
SPLINE
  5
2C3
100
AcDbEntity
  8
0
100
AcDbSpline
 62
9
  6
CONTINUOUS
 70
0
 71
3
 72
15
 73
11
 74
0
 42
0.0000001
 43
0.0000001
 44
0.0000000001
 40
0.0
 40
0.0
 40
0.0
 40
0.0
 40
0.1256015036
 40
0.2507761961
 40
0.3755313768
 40
0.5000151709
 40
0.6244924595
 40
0.7492361136
 40
0.8744027177
 40
1.0
 40
1.0
 40
1.0
 40
1.0
 10
11.7312984798
 20
8.225399288
 30
0.0
 10
11.7352036411
 20
8.225455242
 30
0.0
 10
11.7430318347
 20
8.2248152802
 30
0.0
 10
11.7543401517
 20
8.2216188373
 30
0.0
 10
11.7647441784
 20
8.2162155963
 30
0.0
 10
11.7738347086
 20
8.2088456535
 30
0.0
 10
11.7812040244
 20
8.1997550584
 30
0.0
 10
11.7866061833
 20
8.1893513975
 30
0.0
 10
11.7898020176
 20
8.1780437115
 30
0.0
 10
11.7904417932
 20
8.1702158887
 30
0.0
 10
11.7903857495
 20
8.16631086
 30
0.0
  0
SPLINE
  5
2C4
100
AcDbEntity
  8
0
100
AcDbSpline
 62
9
  6
CONTINUOUS
 70
0
 71
3
 72
15
 73
11
 74
0
 42
0.0000001
 43
0.0000001
 44
0.0000000001
 40
0.0
 40
0.0
 40
0.0
 40
0.0
 40
0.1256015032
 40
0.2507761949
 40
0.3755313753
 40
0.5000151694
 40
0.6244924584
 40
0.7492361129
 40
0.8744027175
 40
1.0
 40
1.0
 40
1.0
 40
1.0
 10
11.7903857663
 20
6.7983516911
 30
0.0
 10
11.7904417185
 20
6.794446531
 30
0.0
 10
11.7898017536
 20
6.78661834
 30
0.0
 10
11.7866053073
 20
6.7753100276
 30
0.0
 10
11.7812020645
 20
6.7649060059
 30
0.0
 10
11.7738321214
 20
6.7558154805
 30
0.0
 10
11.7647415275
 20
6.7484461688
 30
0.0
 10
11.7543378688
 20
6.743044013
 30
0.0
 10
11.7430301859
 20
6.7398481807
 30
0.0
 10
11.7352023655
 20
6.7392084055
 30
0.0
 10
11.7312973379
 20
6.7392644491
 30
0.0
  0
SPLINE
  5
2C5
100
AcDbEntity
  8
0
100
AcDbSpline
 62
9
  6
CONTINUOUS
 70
0
 71
3
 72
15
 73
11
 74
0
 42
0.0000001
 43
0.0000001
 44
0.0000000001
 40
0.0
 40
0.0
 40
0.0
 40
0.0
 40
0.1256015418
 40
0.2507763011
 40
0.3755315097
 40
0.5000153081
 40
0.6244925611
 40
0.7492361749
 40
0.8744027405
 40
1.0
 40
1.0
 40
1.0
 40
1.0
 10
10.363340663
 20
6.7392644682
 30
0.0
 10
10.3594354001
 20
6.7392083544
 30
0.0
 10
10.3516069705
 20
6.7398480392
 30
0.0
 10
10.3402982403
 20
6.7430441826
 30
0.0
 10
10.3298937748
 20
6.7484472636
 30
0.0
 10
10.3208028233
 20
6.7558171821
 30
0.0
 10
10.3134331402
 20
6.7649078786
 30
0.0
 10
10.3080307007
 20
6.7753117424
 30
0.0
 10
10.3048346935
 20
6.7866197018
 30
0.0
 10
10.3041948819
 20
6.79444773
 30
0.0
 10
10.304250927
 20
6.7983528608
 30
0.0
  0
SPLINE
  5
2C6
100
AcDbEntity
  8
0
100
AcDbSpline
 62
9
  6
CONTINUOUS
 70
0
 71
3
 72
19
 73
15
 74
0
 42
0.0000001
 43
0.0000001
 44
0.0000000001
 40
0.0
 40
0.0
 40
0.0
 40
0.0
 40
0.1248821343
 40
0.187466047
 40
0.2500150186
 40
0.3125420486
 40
0.3750741966
 40
0.5000126058
 40
0.6249413076
 40
0.6874677259
 40
0.7499884584
 40
0.8125311244
 40
0.8751128254
 40
1.0
 40
1.0
 40
1.0
 40
1.0
 10
11.7312973206
 20
8.2549435405
 30
0.0
 10
11.7370947567
 20
8.2549431239
 30
0.0
 10
11.7458278653
 20
8.2541010387
 30
0.0
 10
11.757111701
 20
8.2513301169
 30
0.0
 10
11.7653423269
 20
8.2484296265
 30
0.0
 10
11.7732468106
 20
8.2447383348
 30
0.0
 10
11.7832365118
 20
8.2387995443
 30
0.0
 10
11.7945464317
 20
8.2295577916
 30
0.0
 10
11.8037853961
 20
8.2182462535
 30
0.0
 10
11.8097241771
 20
8.2082578315
 30
0.0
 10
11.8134173599
 20
8.2003552112
 30
0.0
 10
11.8163195595
 20
8.1921258569
 30
0.0
 10
11.8190898327
 20
8.1808418966
 30
0.0
 10
11.8199296287
 20
8.1721085128
 30
0.0
 10
11.8199300183
 20
8.1663108427
 30
0.0
  0
SPLINE
  5
2C7
100
AcDbEntity
  8
0
100
AcDbSpline
 62
9
  6
CONTINUOUS
 70
0
 71
3
 72
19
 73
15
 74
0
 42
0.0000001
 43
0.0000001
 44
0.0000000001
 40
0.0
 40
0.0
 40
0.0
 40
0.0
 40
0.1248821343
 40
0.187466047
 40
0.2500150186
 40
0.3125420486
 40
0.3750741966
 40
0.5000126058
 40
0.6249413076
 40
0.6874677259
 40
0.7499884584
 40
0.8125311244
 40
0.8751128254
 40
1.0
 40
1.0
 40
1.0
 40
1.0
 10
11.8199300183
 20
6.7983528781
 30
0.0
 10
11.8199296018
 20
6.792555442
 30
0.0
 10
11.8190875166
 20
6.7838223334
 30
0.0
 10
11.8163165948
 20
6.7725384976
 30
0.0
 10
11.8134161043
 20
6.7643078718
 30
0.0
 10
11.8097248127
 20
6.7564033881
 30
0.0
 10
11.8037860221
 20
6.7464136869
 30
0.0
 10
11.7945442695
 20
6.735103767
 30
0.0
 10
11.7832327314
 20
6.7258648026
 30
0.0
 10
11.7732443094
 20
6.7199260216
 30
0.0
 10
11.7653416891
 20
6.7162328388
 30
0.0
 10
11.7571123348
 20
6.7133306392
 30
0.0
 10
11.7458283745
 20
6.710560366
 30
0.0
 10
11.7370949907
 20
6.70972057
 30
0.0
 10
11.7312973205
 20
6.7097201804
 30
0.0
  0
SPLINE
  5
2C8
100
AcDbEntity
  8
0
100
AcDbSpline
 62
9
  6
CONTINUOUS
 70
0
 71
3
 72
19
 73
15
 74
0
 42
0.0000001
 43
0.0000001
 44
0.0000000001
 40
0.0
 40
0.0
 40
0.0
 40
0.0
 40
0.1248821343
 40
0.187466047
 40
0.2500150186
 40
0.3125420486
 40
0.3750741966
 40
0.5000126058
 40
0.6249413076
 40
0.6874677259
 40
0.7499884584
 40
0.8125311244
 40
0.8751128254
 40
1.0
 40
1.0
 40
1.0
 40
1.0
 10
10.363339356
 20
6.7097201804
 30
0.0
 10
10.3575419199
 20
6.7097205969
 30
0.0
 10
10.3488088112
 20
6.7105626821
 30
0.0
 10
10.3375249755
 20
6.7133336039
 30
0.0
 10
10.3292943497
 20
6.7162340943
 30
0.0
 10
10.3213898659
 20
6.719925386
 30
0.0
 10
10.3114001648
 20
6.7258641766
 30
0.0
 10
10.3000902448
 20
6.7351059292
 30
0.0
 10
10.2908512805
 20
6.7464174673
 30
0.0
 10
10.2849124995
 20
6.7564058893
 30
0.0
 10
10.2812193167
 20
6.7643085096
 30
0.0
 10
10.2783171171
 20
6.7725378639
 30
0.0
 10
10.2755468438
 20
6.7838218242
 30
0.0
 10
10.2747070478
 20
6.792555208
 30
0.0
 10
10.2747066582
 20
6.7983528782
 30
0.0
  0
ENDSEC
  0
SECTION
  2
OBJECTS
  0
DICTIONARY
  5
C
100
AcDbDictionary
280
0
281
1
  3
ACAD_GROUP
350
D
  3
ACAD_MLINESTYLE
350
17
  3
ACAD_LAYOUT
350
1A
  3
ACAD_PLOTSETTINGS
350
19
  3
ACAD_PLOTSTYLENAME
350
E
  0
DICTIONARY
  5
D
102
{ACAD_REACTORS
330
C
102
}
100
AcDbDictionary
280
0
281
1
  0
ACDBDICTIONARYWDFLT
  5
E
102
{ACAD_REACTORS
330
C
102
}
100
AcDbDictionary
281
1
  3
Normal
350
F
100
AcDbDictionaryWithDefault
340
F
  0
DICTIONARY
  5
17
102
{ACAD_REACTORS
330
C
102
}
100
AcDbDictionary
280
0
281
1
  3
Standard
350
18
  0
DICTIONARY
  5
19
102
{ACAD_REACTORS
330
C
102
}
100
AcDbDictionary
281
1
  0
DICTIONARY
  5
1A
102
{ACAD_REACTORS
330
C
102
}
100
AcDbDictionary
281
1
  3
Model
350
2C9
  3
Layout1
350
2CA
  0
ACDBPLACEHOLDER
  5
F
102
{ACAD_REACTORS
330
E
102
}
  0
MLINESTYLE
  5
18
102
{ACAD_REACTORS
330
17
102
}
100
AcDbMlineStyle
  2
STANDARD
 70
0
  3

 62
256
 51
90.0
 52
90.0
 71
2
 49
0.5
 62
256
  6
BYLAYER
 49
-0.5
 62
256
  6
BYLAYER
  0
LAYOUT
  5
2C9
102
{ACAD_REACTORS
330
1A
102
}
100
AcDbPlotSettings
  1

  2
none_device
  4
ANSI_C_(22.00_x_17.00_Inches)
  6

 40
0.0
 41
0.0
 42
0.0
 43
0.0
 44
558.8
 45
431.8
 46
0.0
 47
0.0
 48
0.0
 49
0.0
140
0.0
141
0.0
142
1.0
143
1.0
 70
1024
 72
0
 73
0
 74
0
  7

 75
0
147
1.0
148
0.0
149
0.0
100
AcDbLayout
  1
Model
 70
0
 71
0
 10
0.0
 20
0.0
 11
22.0
 21
17.0
 12
0.0
 22
0.0
 32
0.0
 14
0.0
 24
0.0
 34
0.0
 15
0.0
 25
0.0
 35
0.0
146
0.0
 13
0.0
 23
0.0
 33
0.0
 16
1.0
 26
0.0
 36
0.0
 17
0.0
 27
1.0
 37
0.0
 76
0
330
202
345
0
346
0
  0
LAYOUT
  5
2CA
102
{ACAD_REACTORS
330
1A
102
}
100
AcDbPlotSettings
  1

  2
none_device
  4
ANSI_C_(22.00_x_17.00_Inches)
  6

 40
0.0
 41
0.0
 42
0.0
 43
0.0
 44
558.8
 45
431.8
 46
0.0
 47
0.0
 48
0.0
 49
0.0
140
0.0
141
0.0
142
1.0
143
1.0
 70
0
 72
0
 73
0
 74
0
  7

 75
0
147
1.0
148
0.0
149
0.0
100
AcDbLayout
  1
Layout1
 70
0
 71
1
 10
0.0
 20
0.0
 11
22.0
 21
17.0
 12
0.0
 22
0.0
 32
0.0
 14
0.0
 24
0.0
 34
0.0
 15
0.0
 25
0.0
 35
0.0
146
0.0
 13
0.0
 23
0.0
 33
0.0
 16
1.0
 26
0.0
 36
0.0
 17
0.0
 27
1.0
 37
0.0
 76
0
330
203
345
0
346
0
  0
ENDSEC
  0
EOF
