999
DXF file: 3-583_top.dxf
999
Pro/ENGINEER 2018400 by Parametric Technology Corporation
  0
SECTION
  2
HEADER
  9
$ACADVER
  1
AC1027
  9
$DWGCODEPAGE
  3
ANSI_1252
  9
$EXTMAX
 10
11.0
 20
8.5
 30
0.0
  9
$EXTMIN
 10
0.0
 20
0.0
 30
0.0
  9
$LIMMIN
 10
0.0
 20
0.0
  9
$LIMMAX
 10
11.0
 20
8.5
  9
$VIEWCTR
 10
5.5
 20
4.25
  9
$VIEWSIZE
 40
8.5
  9
$CLAYER
  8
0
  9
$LTSCALE
 40
0.605
  9
$CELTYPE
  6
BYLAYER
  9
$DIMSCALE
 40
1.0
  9
$DIMASZ
 40
0.1
  9
$DIMEXO
 40
0.0625
  9
$DIMDLI
 40
0.418
  9
$DIMEXE
 40
0.125
  9
$DIMCEN
 40
0.099
  9
$DIMLFAC
 40
1.0
  9
$DIMBLK
  1
_FILLED
  9
$DIMALT
 70
1
  9
$DIMALTD
 70
2
  9
$DIMALTTD
 70
2
  9
$DIMALTF
 40
25.4
  9
$DIMTXT
 40
0.08
  9
$DIMTOL
 70
1
  9
$DIMLIM
 70
0
  9
$DIMTFAC
 40
1.0
  9
$DIMTP
 40
0.001
  9
$DIMTM
 40
0.001
  9
$DIMGAP
 40
0.09
  9
$DIMDSEP
 70
46
  9
$AUNITS
 70
0
  9
$PDMODE
 70
3
  9
$PDSIZE
 40
0.3125
  9
$HANDSEED
  5
2DA
  9
$TILEMODE
 70
1
  9
$MEASUREMENT
 70
0
  9
$INSUNITS
 70
1
  0
ENDSEC
  0
SECTION
  2
CLASSES
  0
CLASS
  1
ACDBDICTIONARYWDFLT
  2
AcDbDictionaryWithDefault
  3
AutoCAD 2000
 90
0
 91
1
280
0
281
0
  0
CLASS
  1
ACDBPLACEHOLDER
  2
AcDbPlaceHolder
  3
AutoCAD 2000
 90
0
 91
1
280
0
281
0
  0
CLASS
  1
LAYOUT
  2
AcDbLayout
  3
AutoCAD 2000
 90
0
 91
0
280
0
281
0
  0
ENDSEC
  0
SECTION
  2
TABLES
  0
TABLE
  2
VPORT
  5
8
100
AcDbSymbolTable
 70
2
  0
VPORT
  5
1F4
100
AcDbSymbolTableRecord
100
AcDbViewportTableRecord
  2
*ACTIVE
 70
0
 10
0.0
 20
0.0
 11
1.0
 21
1.0
 12
5.5
 22
4.25
 13
0.0
 23
0.0
 14
1.0
 24
1.0
 15
0.0
 25
0.0
 16
0.0
 26
0.0
 36
1.0
 17
0.0
 27
0.0
 37
0.0
 40
8.5
 41
1.2941176471
 42
50.0
 43
0.0
 44
0.0
 50
0.0
 51
0.0
 71
0
 72
100
 73
1
 74
1
 75
0
 76
0
 77
0
 78
0
  0
ENDTAB
  0
TABLE
  2
LTYPE
  5
5
100
AcDbSymbolTable
 70
6
  0
LTYPE
  5
14
100
AcDbSymbolTableRecord
100
AcDbLinetypeTableRecord
  2
BYBLOCK
 70
0
  3

 72
65
 73
0
 40
0.0
  0
LTYPE
  5
15
100
AcDbSymbolTableRecord
100
AcDbLinetypeTableRecord
  2
BYLAYER
 70
0
  3

 72
65
 73
0
 40
0.0
  0
LTYPE
  5
16
100
AcDbSymbolTableRecord
100
AcDbLinetypeTableRecord
  2
CONTINUOUS
 70
64
  3
Solid line
 72
65
 73
0
 40
0.0
  0
LTYPE
  5
1F5
100
AcDbSymbolTableRecord
100
AcDbLinetypeTableRecord
  2
CENTER
 70
64
  3
____ _ ____ _ ____ _ ____ _ ____ _ ____ _ ____
 72
65
 73
4
 40
0.6
 49
0.375
 74
0
 49
-0.075
 74
0
 49
0.075
 74
0
 49
-0.075
 74
0
  0
LTYPE
  5
1F6
100
AcDbSymbolTableRecord
100
AcDbLinetypeTableRecord
  2
HIDDEN
 70
64
  3
- - - - - - - - - - - - - - - - - - - -
 72
65
 73
2
 40
0.2
 49
0.1
 74
0
 49
-0.1
 74
0
  0
LTYPE
  5
1F7
100
AcDbSymbolTableRecord
100
AcDbLinetypeTableRecord
  2
PHANTOM
 70
64
  3
_____ _ _ _____ _ _ _____ _ _ _____
 72
65
 73
6
 40
0.8
 49
0.45
 74
0
 49
-0.05
 74
0
 49
0.1
 74
0
 49
-0.05
 74
0
 49
0.1
 74
0
 49
-0.05
 74
0
  0
LTYPE
  5
1F8
100
AcDbSymbolTableRecord
100
AcDbLinetypeTableRecord
  2
DOT
 70
64
  3
. . . . . . . . . . . . . . . . . . . .
 72
65
 73
2
 40
0.2
 49
0.1
 74
0
 49
-0.1
 74
0
  0
LTYPE
  5
1F9
100
AcDbSymbolTableRecord
100
AcDbLinetypeTableRecord
  2
DASHED
 70
64
  3
- - - - - - - - - - - - - - - - - - - -
 72
65
 73
2
 40
0.2
 49
0.1
 74
0
 49
-0.1
 74
0
  0
ENDTAB
  0
TABLE
  2
LAYER
  5
2
100
AcDbSymbolTable
 70
36
  0
LAYER
  5
10
100
AcDbSymbolTableRecord
100
AcDbLayerTableRecord
  2
0
 70
0
 62
7
  6
CONTINUOUS
370
-3
390
F
  0
LAYER
  5
1FA
100
AcDbSymbolTableRecord
100
AcDbLayerTableRecord
  2
DEFAULT_1
 70
0
 62
7
  6
CENTER
370
-3
390
F
  0
LAYER
  5
1FB
100
AcDbSymbolTableRecord
100
AcDbLayerTableRecord
  2
DEFAULT_2
 70
0
 62
8
  6
HIDDEN
370
-3
390
F
  0
LAYER
  5
1FC
100
AcDbSymbolTableRecord
100
AcDbLayerTableRecord
  2
DEFAULT_3
 70
0
 62
7
  6
PHANTOM
370
-3
390
F
  0
LAYER
  5
1FD
100
AcDbSymbolTableRecord
100
AcDbLayerTableRecord
  2
CURVE
 70
0
 62
7
  6
CONTINUOUS
370
-3
390
F
  0
LAYER
  5
1FE
100
AcDbSymbolTableRecord
100
AcDbLayerTableRecord
  2
DEFAULT_COORDINATE_SYSTEM
 70
0
 62
7
  6
CONTINUOUS
370
-3
390
F
  0
LAYER
  5
1FF
100
AcDbSymbolTableRecord
100
AcDbLayerTableRecord
  2
DEFAULT_DATUM_AXES
 70
0
 62
7
  6
CONTINUOUS
370
-3
390
F
  0
LAYER
  5
200
100
AcDbSymbolTableRecord
100
AcDbLayerTableRecord
  2
DEFAULT_DATUM_CURVES
 70
0
 62
7
  6
CONTINUOUS
370
-3
390
F
  0
LAYER
  5
201
100
AcDbSymbolTableRecord
100
AcDbLayerTableRecord
  2
DEFAULT_DATUM_PLANES
 70
0
 62
7
  6
CONTINUOUS
370
-3
390
F
  0
LAYER
  5
202
100
AcDbSymbolTableRecord
100
AcDbLayerTableRecord
  2
DEFAULT_SURFACES
 70
0
 62
7
  6
CONTINUOUS
370
-3
390
F
  0
LAYER
  5
203
100
AcDbSymbolTableRecord
100
AcDbLayerTableRecord
  2
DIMENSIONS
 70
0
 62
7
  6
CONTINUOUS
370
-3
390
F
  0
ENDTAB
  0
TABLE
  2
STYLE
  5
3
100
AcDbSymbolTable
 70
1
  0
STYLE
  5
11
100
AcDbSymbolTableRecord
100
AcDbTextStyleTableRecord
  2
STANDARD
 70
0
 40
0.0
 41
0.8
 50
0.0
 71
0
 42
0.2
  3
txt
  4

  0
STYLE
  5
204
100
AcDbSymbolTableRecord
100
AcDbTextStyleTableRecord
  2
TEXTSTYLE_1
 70
0
 40
0.0
 41
0.8
 50
0.0
 71
0
 42
0.2
  3
gdt
  4

  0
ENDTAB
  0
TABLE
  2
VIEW
  5
6
100
AcDbSymbolTable
 70
0
  0
ENDTAB
  0
TABLE
  2
UCS
  5
7
100
AcDbSymbolTable
 70
0
  0
ENDTAB
  0
TABLE
  2
APPID
  5
9
100
AcDbSymbolTable
 70
1
  0
APPID
  5
205
100
AcDbSymbolTableRecord
100
AcDbRegAppTableRecord
  2
ACAD
 70
0
  0
ENDTAB
  0
TABLE
  2
BLOCK_RECORD
  5
1
100
AcDbSymbolTable
 70
0
  0
BLOCK_RECORD
  5
206
100
AcDbSymbolTableRecord
100
AcDbBlockTableRecord
  2
*Model_Space
  0
BLOCK_RECORD
  5
207
100
AcDbSymbolTableRecord
100
AcDbBlockTableRecord
  2
*Paper_Space
  0
BLOCK_RECORD
  5
208
100
AcDbSymbolTableRecord
100
AcDbBlockTableRecord
  2
_FILLED
  0
ENDTAB
  0
TABLE
  2
DIMSTYLE
  5
A
100
AcDbSymbolTable
 70
1
100
AcDbDimStyleTable
 71
0
  0
DIMSTYLE
105
209
100
AcDbSymbolTableRecord
100
AcDbDimStyleTableRecord
  2
STANDARD
 70
0
  3

  4

 40
1.0
 41
0.1
 42
0.0625
 43
0.38
 44
0.125
 45
0.0
 46
0.0
 47
0.001
 48
0.001
140
0.08
141
0.09
142
0.0
143
25.4
144
1.0
145
0.0
146
1.0
147
0.09
 71
1.0
 72
0.0
 73
1
 74
1
 75
0
 76
0
 77
0
 78
4
 79
1
170
1
171
2
172
0
173
0
174
0
175
0
176
0
177
0
178
0
270
2
179
3
271
3
272
3
273
2
274
2
275
0
280
0
281
0
282
0
283
1
284
4
285
0
286
0
287
3
288
0
340
11
278
46
341
208
342
208
343
208
344
208
  0
ENDTAB
  0
ENDSEC
  0
SECTION
  2
BLOCKS
  0
BLOCK
  5
20
100
AcDbEntity
  8
0
100
AcDbBlockBegin
  2
*Model_Space
 70
0
 10
0.0
 20
0.0
 30
0.0
  3
*Model_Space
  1

  0
ENDBLK
  5
21
100
AcDbEntity
  8
0
100
AcDbBlockEnd
  0
BLOCK
  5
1C
100
AcDbEntity
  8
0
100
AcDbBlockBegin
  2
*Paper_Space
 70
0
 10
0.0
 20
0.0
 30
0.0
  3
*Paper_Space
  1

  0
ENDBLK
  5
1D
100
AcDbEntity
  8
0
100
AcDbBlockEnd
  0
BLOCK
  5
20A
100
AcDbEntity
  8
0
100
AcDbBlockBegin
  2
_FILLED
 70
64
 10
0.0
 20
0.0
  3
_FILLED
  1

  0
SOLID
  5
20B
100
AcDbEntity
  8
0
  6
BYBLOCK
 62
0
100
AcDbTrace
 10
0.0
 20
0.0
 11
-1.0
 21
0.2
 12
-1.0
 22
-0.2
 13
-1.0
 23
-0.2
  0
ENDBLK
  5
20C
100
AcDbEntity
  8
0
  6
BYBLOCK
 62
0
100
AcDbBlockEnd
  0
ENDSEC
  0
SECTION
  2
ENTITIES
  0
MTEXT
  5
20D
100
AcDbEntity
  8
0
100
AcDbMText
 62
2
  6
CONTINUOUS
  7
STANDARD
 71
3
 72
1
 10
5.2463509317
 20
1.1630434783
 30
0.0
 11
1.0
 21
0.0
 31
0.0
 73
2
 44
0.9
  1
SCALE  .500
 40
0.08
 41
0.704
  0
LINE
  5
20E
100
AcDbEntity
  8
0
100
AcDbLine
 62
7
  6
CONTINUOUS
 10
0.0
 20
0.0
 11
0.0
 21
8.5
  0
LINE
  5
20F
100
AcDbEntity
  8
0
100
AcDbLine
 62
7
  6
CONTINUOUS
 10
0.0
 20
0.0
 11
11.0
 21
0.0
  0
LINE
  5
210
100
AcDbEntity
  8
0
100
AcDbLine
 62
7
  6
CONTINUOUS
 10
0.0
 20
8.5
 11
11.0
 21
8.5
  0
LINE
  5
211
100
AcDbEntity
  8
0
100
AcDbLine
 62
7
  6
CONTINUOUS
 10
11.0
 20
0.0
 11
11.0
 21
8.5
  0
LINE
  5
212
100
AcDbEntity
  8
0
100
AcDbLine
 62
7
  6
CONTINUOUS
 10
5.1118202793
 20
2.6414889043
 11
5.1113220177
 21
2.6414449416
  0
LINE
  5
213
100
AcDbEntity
  8
0
100
AcDbLine
 62
7
  6
CONTINUOUS
 10
5.0818467553
 20
2.6127479494
 11
4.4884948596
 21
2.6127479494
  0
LINE
  5
214
100
AcDbEntity
  8
0
100
AcDbLine
 62
7
  6
CONTINUOUS
 10
5.0818467553
 20
2.6132037168
 11
4.4884948596
 21
2.6132037168
  0
LINE
  5
215
100
AcDbEntity
  8
0
100
AcDbLine
 62
7
  6
CONTINUOUS
 10
4.4585213357
 20
2.6414889038
 11
4.4590195972
 21
2.6414449416
  0
LINE
  5
216
100
AcDbEntity
  8
0
100
AcDbLine
 62
7
  6
CONTINUOUS
 10
4.9927724128
 20
2.702209645
 11
4.5775692021
 21
2.702209645
  0
LINE
  5
217
100
AcDbEntity
  8
0
100
AcDbLine
 62
7
  6
CONTINUOUS
 10
4.9927724128
 20
2.7289385318
 11
4.5775692021
 21
2.7289385318
  0
LINE
  5
218
100
AcDbEntity
  8
0
100
AcDbLine
 62
7
  6
CONTINUOUS
 10
4.2871260299
 20
6.2421698219
 11
4.2869657503
 21
6.2420062322
  0
LINE
  5
219
100
AcDbEntity
  8
0
100
AcDbLine
 62
7
  6
CONTINUOUS
 10
4.2869657503
 20
6.2420062322
 11
4.2868054661
 21
6.2418451411
  0
LINE
  5
21A
100
AcDbEntity
  8
0
100
AcDbLine
 62
7
  6
CONTINUOUS
 10
4.2868054661
 20
6.2418451411
 11
4.2866452241
 21
6.2416864858
  0
LINE
  5
21B
100
AcDbEntity
  8
0
100
AcDbLine
 62
7
  6
CONTINUOUS
 10
4.2866452241
 20
6.2416864858
 11
4.286485065
 21
6.2415302789
  0
LINE
  5
21C
100
AcDbEntity
  8
0
100
AcDbLine
 62
7
  6
CONTINUOUS
 10
4.2872061555
 20
6.2422525347
 11
4.2871260299
 21
6.2421698219
  0
LINE
  5
21D
100
AcDbEntity
  8
0
100
AcDbLine
 62
7
  6
CONTINUOUS
 10
5.1384649738
 20
3.2323013058
 11
5.1381895114
 21
3.2323800327
  0
LINE
  5
21E
100
AcDbEntity
  8
0
100
AcDbLine
 62
7
  6
CONTINUOUS
 10
5.1113220177
 20
2.6414449416
 11
5.0221134389
 21
2.7290721226
  0
LWPOLYLINE
  5
21F
100
AcDbEntity
  8
0
100
AcDbPolyline
 62
7
  6
CONTINUOUS
 90
3
 70
0
 10
4.1476984343
 20
6.4357326264
 10
4.1476775295
 20
6.435271675
 10
4.1476708075
 20
6.4348226554
  0
LINE
  5
220
100
AcDbEntity
  8
0
100
AcDbLine
 62
7
  6
CONTINUOUS
 10
4.1477315425
 20
6.436171126
 11
4.1476984343
 21
6.4357326264
  0
LINE
  5
221
100
AcDbEntity
  8
0
100
AcDbLine
 62
7
  6
CONTINUOUS
 10
4.1476708075
 20
6.4348226731
 11
4.1476708075
 21
6.3832453416
  0
LINE
  5
222
100
AcDbEntity
  8
0
100
AcDbLine
 62
7
  6
CONTINUOUS
 10
4.1726708075
 20
6.5732453416
 11
4.1726708075
 21
6.4835566304
  0
LINE
  5
223
100
AcDbEntity
  8
0
100
AcDbLine
 62
7
  6
CONTINUOUS
 10
4.1776708075
 20
6.3682453416
 11
4.1776708075
 21
6.433487342
  0
LINE
  5
224
100
AcDbEntity
  8
0
100
AcDbLine
 62
7
  6
CONTINUOUS
 10
4.2026708066
 20
6.4348226586
 11
4.2026708075
 21
6.5732453416
  0
LINE
  5
225
100
AcDbEntity
  8
0
100
AcDbLine
 62
7
  6
CONTINUOUS
 10
4.2351708075
 20
6.2994953416
 11
4.2351708075
 21
6.3632453416
  0
LINE
  5
226
100
AcDbEntity
  8
0
100
AcDbLine
 62
7
  6
CONTINUOUS
 10
4.1817605681
 20
6.4340315722
 11
4.1807380045
 21
6.4468771379
  0
LWPOLYLINE
  5
227
100
AcDbEntity
  8
0
100
AcDbPolyline
 62
7
  6
CONTINUOUS
 90
31
 70
0
 10
4.4295105916
 20
3.6414580073
 10
4.4485671051
 20
3.3639248968
 10
4.4489477634
 20
3.3579276743
 10
4.4492892111
 20
3.3519584359
 10
4.449590628
 20
3.3460341226
 10
4.449851751
 20
3.3401715813
 10
4.4500727275
 20
3.3343860067
 10
4.4502533598
 20
3.3286904865
 10
4.4503935492
 20
3.3230981054
 10
4.4504935849
 20
3.3176201455
 10
4.4505540621
 20
3.3122678928
 10
4.4505756176
 20
3.3070538766
 10
4.4505587535
 20
3.3019867837
 10
4.4505042733
 20
3.2970772445
 10
4.4504134649
 20
3.292339869
 10
4.450287909
 20
3.2877832001
 10
4.4501290039
 20
3.2834135411
 10
4.4499384121
 20
3.2792413732
 10
4.4497179693
 20
3.2752719263
 10
4.4494698003
 20
3.271510233
 10
4.4491965854
 20
3.2679661393
 10
4.44890053
 20
3.2646415619
 10
4.4485842886
 20
3.2615403717
 10
4.4482520081
 20
3.2586752855
 10
4.4479068282
 20
3.2560446952
 10
4.4475528965
 20
3.2536532894
 10
4.4471981498
 20
3.2515240644
 10
4.4468464747
 20
3.2496473407
 10
4.4465057512
 20
3.2480319483
 10
4.4461958819
 20
3.2467275502
 10
4.4459105775
 20
3.2456660857
  0
LINE
  5
228
100
AcDbEntity
  8
0
100
AcDbLine
 62
7
  6
CONTINUOUS
 10
4.3874572302
 20
4.3129478328
 11
4.3787683345
 21
4.4611172322
  0
LINE
  5
229
100
AcDbEntity
  8
0
100
AcDbLine
 62
7
  6
CONTINUOUS
 10
4.3874560858
 20
4.3129471021
 11
4.3779361006
 21
4.4754928838
  0
LINE
  5
22A
100
AcDbEntity
  8
0
100
AcDbLine
 62
7
  6
CONTINUOUS
 10
4.3779361006
 20
4.4754928838
 11
4.370592568
 21
4.6036930049
  0
LINE
  5
22B
100
AcDbEntity
  8
0
100
AcDbLine
 62
7
  6
CONTINUOUS
 10
4.3787683345
 20
4.4611172322
 11
4.3705985834
 21
4.6036933413
  0
LINE
  5
22C
100
AcDbEntity
  8
0
100
AcDbLine
 62
7
  6
CONTINUOUS
 10
4.3590958869
 20
4.8092793103
 11
4.3534896205
 21
4.9116880988
  0
LINE
  5
22D
100
AcDbEntity
  8
0
100
AcDbLine
 62
7
  6
CONTINUOUS
 10
4.3591137241
 20
4.8092805003
 11
4.353501087
 21
4.9116881948
  0
LINE
  5
22E
100
AcDbEntity
  8
0
100
AcDbLine
 62
7
  6
CONTINUOUS
 10
4.3405171263
 20
5.1540258496
 11
4.3362102355
 21
5.2361222926
  0
LWPOLYLINE
  5
22F
100
AcDbEntity
  8
0
100
AcDbPolyline
 62
7
  6
CONTINUOUS
 90
3
 70
0
 10
4.3405373429
 20
5.1540271769
 10
4.3340855948
 20
5.2769292126
 10
4.3248238614
 20
5.4570734576
  0
LINE
  5
230
100
AcDbEntity
  8
0
100
AcDbLine
 62
7
  6
CONTINUOUS
 10
4.3362102355
 20
5.2361222926
 11
4.3222707666
 21
5.5073861058
  0
LINE
  5
231
100
AcDbEntity
  8
0
100
AcDbLine
 62
7
  6
CONTINUOUS
 10
4.3248238614
 20
5.4570734576
 11
4.318900148
 21
5.5746803281
  0
LINE
  5
232
100
AcDbEntity
  8
0
100
AcDbLine
 62
7
  6
CONTINUOUS
 10
4.3222707666
 20
5.5073861058
 11
4.3188781109
 21
5.5746793322
  0
LINE
  5
233
100
AcDbEntity
  8
0
100
AcDbLine
 62
7
  6
CONTINUOUS
 10
4.3042424511
 20
5.8705650377
 11
4.3015888674
 21
5.9251745471
  0
LWPOLYLINE
  5
234
100
AcDbEntity
  8
0
100
AcDbPolyline
 62
7
  6
CONTINUOUS
 90
3
 70
0
 10
4.3042562222
 20
5.8705680581
 10
4.2962538525
 20
6.0358615432
 10
4.286485065
 20
6.2415302789
  0
LWPOLYLINE
  5
235
100
AcDbEntity
  8
0
100
AcDbPolyline
 62
7
  6
CONTINUOUS
 90
9
 70
0
 10
4.2864849164
 20
6.2415324136
 10
4.3032952337
 20
5.889985303
 10
4.3206851365
 20
5.538613758
 10
4.338223161
 20
5.1972875564
 10
4.3559446934
 20
4.8660084073
 10
4.3738896864
 20
4.544780256
 10
4.3921003678
 20
4.2336092385
 10
4.4106234594
 20
3.9325004787
 10
4.4295105916
 20
3.6414580073
  0
LINE
  5
236
100
AcDbEntity
  8
0
100
AcDbLine
 62
7
  6
CONTINUOUS
 10
4.3015888674
 20
5.9251745471
 11
4.286485065
 21
6.2415302789
  0
LWPOLYLINE
  5
237
100
AcDbEntity
  8
0
100
AcDbPolyline
 62
7
  6
CONTINUOUS
 90
10
 70
0
 10
4.4318734933
 20
3.232367245
 10
4.4348694368
 20
3.1669788783
 10
4.4381111307
 20
3.0959609881
 10
4.4412828215
 20
3.0261960647
 10
4.4443847229
 20
2.9576841191
 10
4.4474170502
 20
2.8904251637
 10
4.45038005
 20
2.8244192131
 10
4.4532739839
 20
2.7596662814
 10
4.4560991154
 20
2.6961663816
 10
4.4585241304
 20
2.6414230385
  0
LINE
  5
238
100
AcDbEntity
  8
0
100
AcDbLine
 62
7
  6
CONTINUOUS
 10
4.2651708075
 20
6.2694953416
 11
4.2651708075
 21
6.3632453416
  0
LINE
  5
239
100
AcDbEntity
  8
0
100
AcDbLine
 62
7
  6
CONTINUOUS
 10
4.317041348
 20
6.2697211462
 11
4.3170413481
 21
6.2427622954
  0
LINE
  5
23A
100
AcDbEntity
  8
0
100
AcDbLine
 62
7
  6
CONTINUOUS
 10
4.4051708075
 20
6.3632453416
 11
4.4051708075
 21
6.3682453416
  0
LINE
  5
23B
100
AcDbEntity
  8
0
100
AcDbLine
 62
7
  6
CONTINUOUS
 10
4.4884948596
 20
2.6132037168
 11
4.4884948596
 21
2.6127479494
  0
LINE
  5
23C
100
AcDbEntity
  8
0
100
AcDbLine
 62
7
  6
CONTINUOUS
 10
4.1776708075
 20
6.433487342
 11
4.1753478138
 21
6.4467177556
  0
LINE
  5
23D
100
AcDbEntity
  8
0
100
AcDbLine
 62
7
  6
CONTINUOUS
 10
4.5639208075
 20
6.3632453416
 11
4.5639208075
 21
6.3682453416
  0
LINE
  5
23E
100
AcDbEntity
  8
0
100
AcDbLine
 62
7
  6
CONTINUOUS
 10
4.5775692021
 20
2.7289385318
 11
4.5775692021
 21
2.702209645
  0
LWPOLYLINE
  5
23F
100
AcDbEntity
  8
0
100
AcDbPolyline
 62
7
  6
CONTINUOUS
 90
34
 70
0
 10
5.124754063
 20
3.2446502127
 10
5.1247458723
 20
3.2446747702
 10
5.1246225935
 20
3.2450356329
 10
5.1244020857
 20
3.2457673239
 10
5.124127833
 20
3.2467984791
 10
5.1238154342
 20
3.2481233421
 10
5.1234729882
 20
3.2497592868
 10
5.1231200761
 20
3.2516569906
 10
5.122764615
 20
3.2538071092
 10
5.1224105071
 20
3.2562191774
 10
5.1220656297
 20
3.2588704843
 10
5.1217339504
 20
3.2617568541
 10
5.1214184758
 20
3.2648799962
 10
5.1211234535
 20
3.2682267315
 10
5.1208516613
 20
3.2717926759
 10
5.1206053581
 20
3.275575769
 10
5.1203869351
 20
3.2795669183
 10
5.1201984745
 20
3.2837610545
 10
5.1200419578
 20
3.2881526011
 10
5.1199191785
 20
3.2927311388
 10
5.1198314196
 20
3.2974905815
 10
5.1197799906
 20
3.3024226546
 10
5.1197663011
 20
3.3075125567
 10
5.1197913217
 20
3.3127493632
 10
5.1198556686
 20
3.3181241535
 10
5.1199597207
 20
3.3236244271
 10
5.1201040419
 20
3.3292388669
 10
5.1202889996
 20
3.3349561128
 10
5.1205145888
 20
3.3407630813
 10
5.1207805834
 20
3.3466468733
 10
5.1210870329
 20
3.3525924445
 10
5.1214336952
 20
3.3585827911
 10
5.121819759
 20
3.3646007448
 10
5.1408722142
 20
3.6420743354
  0
LINE
  5
240
100
AcDbEntity
  8
0
100
AcDbLine
 62
7
  6
CONTINUOUS
 10
4.9927724128
 20
2.702209645
 11
4.9927724128
 21
2.7289385318
  0
LINE
  5
241
100
AcDbEntity
  8
0
100
AcDbLine
 62
7
  6
CONTINUOUS
 10
5.0064208075
 20
6.3632453416
 11
5.0064208075
 21
6.3682453416
  0
LINE
  5
242
100
AcDbEntity
  8
0
100
AcDbLine
 62
7
  6
CONTINUOUS
 10
5.3926708075
 20
6.433487342
 11
5.3949938021
 21
6.4467177566
  0
LINE
  5
243
100
AcDbEntity
  8
0
100
AcDbLine
 62
7
  6
CONTINUOUS
 10
5.0818467553
 20
2.6127479494
 11
5.0818467553
 21
2.6132037168
  0
LINE
  5
244
100
AcDbEntity
  8
0
100
AcDbLine
 62
7
  6
CONTINUOUS
 10
5.1651708075
 20
6.3632453416
 11
5.1651708075
 21
6.3682453416
  0
LWPOLYLINE
  5
245
100
AcDbEntity
  8
0
100
AcDbPolyline
 62
7
  6
CONTINUOUS
 90
10
 70
0
 10
5.1118174846
 20
2.6414230386
 10
5.1142698083
 20
2.6967815856
 10
5.1170948841
 20
2.7602774095
 10
5.1199888176
 20
2.8250276227
 10
5.1229518739
 20
2.891032212
 10
5.1259843191
 20
2.9582911635
 10
5.1290863968
 20
3.0268044625
 10
5.1322583225
 20
3.0965720965
 10
5.1355003141
 20
3.1675940545
 10
5.1384681216
 20
3.232367245
  0
LWPOLYLINE
  5
246
100
AcDbEntity
  8
0
100
AcDbPolyline
 62
7
  6
CONTINUOUS
 90
3
 70
0
 10
5.2838565511
 20
6.2415303042
 10
5.2761138464
 20
6.0781971111
 10
5.2684469366
 20
5.9188755798
  0
LINE
  5
247
100
AcDbEntity
  8
0
100
AcDbLine
 62
7
  6
CONTINUOUS
 10
5.2838565511
 20
6.2415303042
 11
5.267577004
 21
5.9009474211
  0
LINE
  5
248
100
AcDbEntity
  8
0
100
AcDbLine
 62
7
  6
CONTINUOUS
 10
5.267577004
 20
5.9009474211
 11
5.2662266698
 21
5.8731875369
  0
LINE
  5
249
100
AcDbEntity
  8
0
100
AcDbLine
 62
7
  6
CONTINUOUS
 10
5.2684469366
 20
5.9188755798
 11
5.266214447
 21
5.873188923
  0
LINE
  5
24A
100
AcDbEntity
  8
0
100
AcDbLine
 62
7
  6
CONTINUOUS
 10
5.2508920116
 20
5.5635723381
 11
5.2484361103
 21
5.5148760736
  0
LINE
  5
24B
100
AcDbEntity
  8
0
100
AcDbLine
 62
7
  6
CONTINUOUS
 10
5.2509052503
 20
5.5635716399
 11
5.2484496118
 21
5.5148751683
  0
LINE
  5
24C
100
AcDbEntity
  8
0
100
AcDbLine
 62
7
  6
CONTINUOUS
 10
5.2339241434
 20
5.2324192613
 11
5.2313137022
 21
5.1823176055
  0
LINE
  5
24D
100
AcDbEntity
  8
0
100
AcDbLine
 62
7
  6
CONTINUOUS
 10
5.2339379085
 20
5.2324188725
 11
5.2309616118
 21
5.1756214521
  0
LWPOLYLINE
  5
24E
100
AcDbEntity
  8
0
100
AcDbPolyline
 62
7
  6
CONTINUOUS
 90
4
 70
0
 10
5.2164525556
 20
4.9044277577
 10
5.2099285272
 20
4.7854115627
 10
5.2029066024
 20
4.6595413561
 10
5.2003155058
 20
4.6139342669
  0
LINE
  5
24F
100
AcDbEntity
  8
0
100
AcDbLine
 62
7
  6
CONTINUOUS
 10
5.2164567787
 20
4.9044276318
 11
5.2117559322
 21
4.8185445323
  0
LINE
  5
250
100
AcDbEntity
  8
0
100
AcDbLine
 62
7
  6
CONTINUOUS
 10
5.2117559322
 20
4.8185445323
 11
5.2003298077
 21
4.613934791
  0
LWPOLYLINE
  5
251
100
AcDbEntity
  8
0
100
AcDbPolyline
 62
7
  6
CONTINUOUS
 90
3
 70
0
 10
5.1916888165
 20
4.4633993236
 10
5.1885326644
 20
4.4088563613
 10
5.1840839736
 20
4.3334408872
  0
LINE
  5
252
100
AcDbEntity
  8
0
100
AcDbLine
 62
7
  6
CONTINUOUS
 10
5.1917052493
 20
4.4633990986
 11
5.1840992621
 21
4.3334430217
  0
LWPOLYLINE
  5
253
100
AcDbEntity
  8
0
100
AcDbPolyline
 62
7
  6
CONTINUOUS
 90
9
 70
0
 10
5.1408722142
 20
3.6420743354
 10
5.159757085
 20
3.9331160606
 10
5.1782780505
 20
4.2342240194
 10
5.1964869477
 20
4.545394129
 10
5.2144302588
 20
4.8666213298
 10
5.2321505979
 20
5.1978994752
 10
5.249687084
 20
5.5392246708
 10
5.2670758539
 20
5.8905951543
 10
5.283856832
 20
6.2415326578
  0
LINE
  5
254
100
AcDbEntity
  8
0
100
AcDbLine
 62
7
  6
CONTINUOUS
 10
5.253300096
 20
6.2697211505
 11
5.2533000956
 21
6.2427623067
  0
LINE
  5
255
100
AcDbEntity
  8
0
100
AcDbLine
 62
7
  6
CONTINUOUS
 10
5.3051708075
 20
6.2694953416
 11
5.3051708075
 21
6.3632453416
  0
LINE
  5
256
100
AcDbEntity
  8
0
100
AcDbLine
 62
7
  6
CONTINUOUS
 10
5.3351708075
 20
6.2994953416
 11
5.3351708075
 21
6.3632453416
  0
LINE
  5
257
100
AcDbEntity
  8
0
100
AcDbLine
 62
7
  6
CONTINUOUS
 10
5.3885810159
 20
6.4340315747
 11
5.3896034813
 21
6.4468771107
  0
LWPOLYLINE
  5
258
100
AcDbEntity
  8
0
100
AcDbPolyline
 62
7
  6
CONTINUOUS
 90
4
 70
0
 10
5.4226708075
 20
6.4348226554
 10
5.4226640854
 20
6.435271675
 10
5.4226431806
 20
6.4357326264
 10
5.4226100724
 20
6.436171126
  0
LINE
  5
259
100
AcDbEntity
  8
0
100
AcDbLine
 62
7
  6
CONTINUOUS
 10
5.3676708079
 20
6.4348226586
 11
5.3676708075
 21
6.5732453416
  0
LINE
  5
25A
100
AcDbEntity
  8
0
100
AcDbLine
 62
7
  6
CONTINUOUS
 10
5.3926708075
 20
6.3682453416
 11
5.3926708075
 21
6.433487342
  0
LINE
  5
25B
100
AcDbEntity
  8
0
100
AcDbLine
 62
7
  6
CONTINUOUS
 10
5.3976708075
 20
6.5732453416
 11
5.3976708075
 21
6.4835566304
  0
LINE
  5
25C
100
AcDbEntity
  8
0
100
AcDbLine
 62
7
  6
CONTINUOUS
 10
5.4226708075
 20
6.4348226731
 11
5.4226708075
 21
6.3832453416
  0
LINE
  5
25D
100
AcDbEntity
  8
0
100
AcDbLine
 62
7
  6
CONTINUOUS
 10
4.548228176
 20
2.7290721226
 11
4.4590195972
 21
2.6414449416
  0
LINE
  5
25E
100
AcDbEntity
  8
0
100
AcDbLine
 62
7
  6
CONTINUOUS
 10
4.4318766411
 20
3.2323013051
 11
4.4321521036
 21
3.2323800327
  0
LINE
  5
25F
100
AcDbEntity
  8
0
100
AcDbLine
 62
7
  6
CONTINUOUS
 10
5.2838565511
 20
6.2415303042
 11
5.2836963887
 21
6.2416864937
  0
LINE
  5
260
100
AcDbEntity
  8
0
100
AcDbLine
 62
7
  6
CONTINUOUS
 10
5.2836963887
 20
6.2416864937
 11
5.2835361453
 21
6.2418451428
  0
LINE
  5
261
100
AcDbEntity
  8
0
100
AcDbLine
 62
7
  6
CONTINUOUS
 10
5.2835361453
 20
6.2418451428
 11
5.2833758615
 21
6.2420062353
  0
LWPOLYLINE
  5
262
100
AcDbEntity
  8
0
100
AcDbPolyline
 62
7
  6
CONTINUOUS
 90
3
 70
0
 10
5.2833758615
 20
6.2420062353
 10
5.2832155836
 20
6.2421698221
 10
5.2831354592
 20
6.2422525325
  0
LINE
  5
263
100
AcDbEntity
  8
0
100
AcDbLine
 62
7
  6
CONTINUOUS
 10
5.2533000956
 20
6.2427623067
 11
4.3170413481
 21
6.2427622954
  0
LINE
  5
264
100
AcDbEntity
  8
0
100
AcDbLine
 62
7
  6
CONTINUOUS
 10
5.3051708075
 20
6.2694953416
 11
5.2819278728
 21
6.2694953416
  0
LINE
  5
265
100
AcDbEntity
  8
0
100
AcDbLine
 62
7
  6
CONTINUOUS
 10
4.2884138589
 20
6.2694953416
 11
4.2651708075
 21
6.2694953416
  0
LINE
  5
266
100
AcDbEntity
  8
0
100
AcDbLine
 62
7
  6
CONTINUOUS
 10
5.253300096
 20
6.2697211505
 11
4.317041348
 21
6.2697211462
  0
LWPOLYLINE
  5
267
100
AcDbEntity
  8
0
100
AcDbPolyline
 62
7
  6
CONTINUOUS
 90
3
 70
0
 10
4.2618371808
 20
6.2696812035
 10
4.2616110633
 20
6.2697061197
 10
4.2615707959
 20
6.2697087204
  0
LINE
  5
268
100
AcDbEntity
  8
0
100
AcDbLine
 62
7
  6
CONTINUOUS
 10
4.2612302596
 20
6.2697552645
 11
4.26169777
 21
6.2696895724
  0
LINE
  5
269
100
AcDbEntity
  8
0
100
AcDbLine
 62
7
  6
CONTINUOUS
 10
4.2615707959
 20
6.2697087204
 11
4.2616977705
 21
6.2696895758
  0
LINE
  5
26A
100
AcDbEntity
  8
0
100
AcDbLine
 62
7
  6
CONTINUOUS
 10
5.3351708075
 20
6.2994953416
 11
4.2351708075
 21
6.2994953416
  0
LINE
  5
26B
100
AcDbEntity
  8
0
100
AcDbLine
 62
7
  6
CONTINUOUS
 10
4.2351708075
 20
6.3632453416
 11
5.3351708075
 21
6.3632453416
  0
LINE
  5
26C
100
AcDbEntity
  8
0
100
AcDbLine
 62
7
  6
CONTINUOUS
 10
5.4076708075
 20
6.3682453416
 11
4.1626708075
 21
6.3682453416
  0
LINE
  5
26D
100
AcDbEntity
  8
0
100
AcDbLine
 62
7
  6
CONTINUOUS
 10
5.4226708075
 20
6.3832453416
 11
4.1476708075
 21
6.3832453416
  0
LINE
  5
26E
100
AcDbEntity
  8
0
100
AcDbLine
 62
7
  6
CONTINUOUS
 10
5.3676708079
 20
6.4348226586
 11
4.2026708066
 21
6.4348226586
  0
LINE
  5
26F
100
AcDbEntity
  8
0
100
AcDbLine
 62
7
  6
CONTINUOUS
 10
5.3676708074
 20
6.4470061516
 11
4.2026708075
 21
6.4470061516
  0
LINE
  5
270
100
AcDbEntity
  8
0
100
AcDbLine
 62
7
  6
CONTINUOUS
 10
4.2026708075
 20
6.4835566304
 11
5.3676708075
 21
6.4835566304
  0
LINE
  5
271
100
AcDbEntity
  8
0
100
AcDbLine
 62
7
  6
CONTINUOUS
 10
4.1726708075
 20
6.5732453416
 11
5.3976708075
 21
6.5732453416
  0
ARC
  5
272
100
AcDbEntity
  8
0
100
AcDbCircle
 62
7
  6
CONTINUOUS
 10
3.9038502186
 20
4.2409614454
 40
1.593998104
100
AcDbArc
 50
320.5576747425
 51
320.7476643421
  0
ARC
  5
273
100
AcDbEntity
  8
0
100
AcDbCircle
 62
7
  6
CONTINUOUS
 10
3.450625458
 20
3.2975354151
 40
1.0004028075
100
AcDbArc
 50
3.5464766432
 51
4.0583103622
  0
ARC
  5
274
100
AcDbEntity
  8
0
100
AcDbCircle
 62
7
  6
CONTINUOUS
 10
4.4627517329
 20
3.2326600819
 40
0.0306589035
100
AcDbArc
 50
118.0042911074
 51
132.4753249119
  0
ARC
  5
275
100
AcDbEntity
  8
0
100
AcDbCircle
 62
7
  6
CONTINUOUS
 10
4.4884948596
 20
2.6427479494
 40
0.03
100
AcDbArc
 50
182.5312166893
 51
269.9999999769
  0
ARC
  5
276
100
AcDbEntity
  8
0
100
AcDbCircle
 62
7
  6
CONTINUOUS
 10
4.4618419439
 20
3.2337427338
 40
0.03
100
AcDbArc
 50
116.4645460601
 51
182.6279114814
  0
ARC
  5
277
100
AcDbEntity
  8
0
100
AcDbCircle
 62
7
  6
CONTINUOUS
 10
4.1276708075
 20
6.4835566304
 40
0.045
100
AcDbArc
 50
305.6853347127
 51
360.0
  0
ARC
  5
278
100
AcDbEntity
  8
0
100
AcDbCircle
 62
7
  6
CONTINUOUS
 10
4.2651708075
 20
6.2994953416
 40
0.03
100
AcDbArc
 50
180.0
 51
270.0
  0
ARC
  5
279
100
AcDbEntity
  8
0
100
AcDbCircle
 62
7
  6
CONTINUOUS
 10
4.2572897123
 20
6.2400151908
 40
0.0299999983
100
AcDbArc
 50
4.2769846465
 51
81.5455210798
  0
ARC
  5
27A
100
AcDbEntity
  8
0
100
AcDbCircle
 62
7
  6
CONTINUOUS
 10
4.2565181026
 20
6.2401225305
 40
0.0299999809
100
AcDbArc
 50
2.689454568
 51
81.7083637665
  0
ARC
  5
27B
100
AcDbEntity
  8
0
100
AcDbCircle
 62
7
  6
CONTINUOUS
 10
4.1626708075
 20
6.4348226586
 40
0.015
100
AcDbArc
 50
125.6853347127
 51
180.0
  0
ARC
  5
27C
100
AcDbEntity
  8
0
100
AcDbCircle
 62
7
  6
CONTINUOUS
 10
4.1626708075
 20
6.3832453416
 40
0.015
100
AcDbArc
 50
180.0
 51
270.0
  0
ARC
  5
27D
100
AcDbEntity
  8
0
100
AcDbCircle
 62
7
  6
CONTINUOUS
 10
4.1626134371
 20
6.4340219436
 40
0.0149432943
100
AcDbArc
 50
120.6586921368
 51
179.9630709904
  0
ARC
  5
27E
100
AcDbEntity
  8
0
100
AcDbCircle
 62
7
  6
CONTINUOUS
 10
5.666524321
 20
4.2409884393
 40
1.5940406799
100
AcDbArc
 50
219.252338194
 51
219.4423226593
  0
ARC
  5
27F
100
AcDbEntity
  8
0
100
AcDbCircle
 62
7
  6
CONTINUOUS
 10
6.1192331175
 20
3.2975649269
 40
0.9999188907
100
AcDbArc
 50
175.9414175824
 51
176.4206772481
  0
ARC
  5
280
100
AcDbEntity
  8
0
100
AcDbCircle
 62
7
  6
CONTINUOUS
 10
5.1075451412
 20
3.2325923952
 40
0.0307396734
100
AcDbArc
 50
41.4569110865
 51
61.9823425417
  0
ARC
  5
281
100
AcDbEntity
  8
0
100
AcDbCircle
 62
7
  6
CONTINUOUS
 10
5.108499671
 20
3.2337427338
 40
0.03
100
AcDbArc
 50
357.3720885535
 51
63.5342989938
  0
ARC
  5
282
100
AcDbEntity
  8
0
100
AcDbCircle
 62
7
  6
CONTINUOUS
 10
5.0818467553
 20
2.6427479494
 40
0.03
100
AcDbArc
 50
270.0000000231
 51
357.4687834345
  0
ARC
  5
283
100
AcDbEntity
  8
0
100
AcDbCircle
 62
7
  6
CONTINUOUS
 10
5.4426708075
 20
6.4835566304
 40
0.045
100
AcDbArc
 50
180.0
 51
234.3146652873
  0
ARC
  5
284
100
AcDbEntity
  8
0
100
AcDbCircle
 62
7
  6
CONTINUOUS
 10
5.3138235732
 20
6.2401225394
 40
0.03000008
100
AcDbArc
 50
98.2916947013
 51
177.3103859242
  0
ARC
  5
285
100
AcDbEntity
  8
0
100
AcDbCircle
 62
7
  6
CONTINUOUS
 10
5.3130518853
 20
6.2400151885
 40
0.0300000188
100
AcDbArc
 50
97.5476855499
 51
175.7229405156
  0
ARC
  5
286
100
AcDbEntity
  8
0
100
AcDbCircle
 62
7
  6
CONTINUOUS
 10
5.3051708075
 20
6.2994953416
 40
0.03
100
AcDbArc
 50
270.0
 51
360.0
  0
ARC
  5
287
100
AcDbEntity
  8
0
100
AcDbCircle
 62
7
  6
CONTINUOUS
 10
5.2816973838
 20
6.2700916988
 40
0.0273795
100
AcDbArc
 50
264.8858874934
 51
266.3334731217
  0
ARC
  5
288
100
AcDbEntity
  8
0
100
AcDbCircle
 62
7
  6
CONTINUOUS
 10
5.4076708075
 20
6.4348226586
 40
0.015
100
AcDbArc
 50
0.0
 51
54.3146652873
  0
ARC
  5
289
100
AcDbEntity
  8
0
100
AcDbCircle
 62
7
  6
CONTINUOUS
 10
5.4076708075
 20
6.3832453416
 40
0.015
100
AcDbArc
 50
270.0
 51
360.0
  0
ARC
  5
28A
100
AcDbEntity
  8
0
100
AcDbCircle
 62
7
  6
CONTINUOUS
 10
5.407728183
 20
6.434021936
 40
0.014943289
100
AcDbArc
 50
0.0369489622
 51
59.3415998004
  0
SPLINE
  5
28B
100
AcDbEntity
  8
0
100
AcDbSpline
 62
7
  6
CONTINUOUS
 70
0
 71
3
 72
15
 73
11
 74
0
 42
0.0000001
 43
0.0000001
 44
0.0000000001
 40
0.0
 40
0.0
 40
0.0
 40
0.0
 40
0.1244001436
 40
0.2488691859
 40
0.3734798171
 40
0.4982857853
 40
0.6233281201
 40
0.7486296223
 40
0.8741907044
 40
1.0
 40
1.0
 40
1.0
 40
1.0
 10
4.1476708075
 20
6.433487342
 30
0.0
 10
4.1476708075
 20
6.434169905
 30
0.0
 10
4.147767215
 20
6.435537358
 30
0.0
 10
4.1481982308
 20
6.4375473312
 30
0.0
 10
4.148907309
 20
6.4394796124
 30
0.0
 10
4.1498808171
 20
6.4412965338
 30
0.0
 10
4.1510999211
 20
6.4429633245
 30
0.0
 10
4.1525412819
 20
6.4444479882
 30
0.0
 10
4.1541766964
 20
6.4457218809
 30
0.0
 10
4.1553754812
 20
6.4464142894
 30
0.0
 10
4.1559954929
 20
6.4467177566
 30
0.0
  0
LINE
  5
28C
100
AcDbEntity
  8
0
100
AcDbLine
 62
7
  6
CONTINUOUS
 10
4.1817605681
 20
6.4340315722
 11
4.1776708075
 21
6.433487342
  0
SPLINE
  5
28D
100
AcDbEntity
  8
0
100
AcDbSpline
 62
7
  6
CONTINUOUS
 70
0
 71
3
 72
11
 73
7
 74
0
 42
0.0000001
 43
0.0000001
 44
0.0000000001
 40
0.0
 40
0.0
 40
0.0
 40
0.0
 40
0.2499995733
 40
0.4999992391
 40
0.7499991561
 40
1.0
 40
1.0
 40
1.0
 40
1.0
 10
4.2026708066
 20
6.4348226586
 30
0.0
 10
4.2009266247
 20
6.4348226562
 30
0.0
 10
4.1974381784
 20
6.4347911666
 30
0.0
 10
4.1922072908
 20
6.4346480763
 30
0.0
 10
4.186980073
 20
6.4344047871
 30
0.0
 10
4.1834992604
 20
6.4341699567
 30
0.0
 10
4.1817605681
 20
6.4340315722
 30
0.0
  0
SPLINE
  5
28E
100
AcDbEntity
  8
0
100
AcDbSpline
 62
7
  6
CONTINUOUS
 70
0
 71
3
 72
11
 73
7
 74
0
 42
0.0000001
 43
0.0000001
 44
0.0000000001
 40
0.0
 40
0.0
 40
0.0
 40
0.0
 40
0.2500005385
 40
0.5000002497
 40
0.7500001062
 40
1.0
 40
1.0
 40
1.0
 40
1.0
 10
5.3885810159
 20
6.4340315747
 30
0.0
 10
5.3868423284
 20
6.4341699595
 30
0.0
 10
5.3833615242
 20
6.4344047872
 30
0.0
 10
5.3781343164
 20
6.4346480787
 30
0.0
 10
5.3729034342
 20
6.4347911649
 30
0.0
 10
5.3694149894
 20
6.4348226582
 30
0.0
 10
5.3676708079
 20
6.4348226586
 30
0.0
  0
LINE
  5
28F
100
AcDbEntity
  8
0
100
AcDbLine
 62
7
  6
CONTINUOUS
 10
5.3926708075
 20
6.433487342
 11
5.3885810159
 21
6.4340315747
  0
SPLINE
  5
290
100
AcDbEntity
  8
0
100
AcDbSpline
 62
7
  6
CONTINUOUS
 70
0
 71
3
 72
14
 73
10
 74
0
 42
0.0000001
 43
0.0000001
 44
0.0000000001
 40
0.0
 40
0.0
 40
0.0
 40
0.0
 40
0.1272661049
 40
0.2542955061
 40
0.3808638719
 40
0.5067606319
 40
0.6317956388
 40
0.7557939144
 40
1.0
 40
1.0
 40
1.0
 40
1.0
 10
5.3676708075
 20
6.4835566304
 30
0.0
 10
5.3681041796
 20
6.4835566306
 30
0.0
 10
5.3689702957
 20
6.4835799737
 30
0.0
 10
5.3702636369
 20
6.4836836619
 30
0.0
 10
5.3715454191
 20
6.4838520467
 30
0.0
 10
5.3728111304
 20
6.4840790188
 30
0.0
 10
5.3740575779
 20
6.4843569621
 30
0.0
 10
5.3756828339
 20
6.484781883
 30
0.0
 10
5.376880966
 20
6.4851535994
 30
0.0
 10
5.3776708075
 20
6.4854137491
 30
0.0
  0
LINE
  5
291
100
AcDbEntity
  8
0
100
AcDbLine
 62
7
  6
CONTINUOUS
 10
5.3959550787
 20
6.4854137491
 11
5.3976708075
 21
6.4835566304
  0
SPLINE
  5
292
100
AcDbEntity
  8
0
100
AcDbSpline
 62
7
  6
CONTINUOUS
 70
0
 71
3
 72
24
 73
20
 74
0
 42
0.0000001
 43
0.0000001
 44
0.0000000001
 40
0.0
 40
0.0
 40
0.0
 40
0.0
 40
0.0842197051
 40
0.1665170987
 40
0.2465979415
 40
0.3241833471
 40
0.3990152284
 40
0.4708555742
 40
0.5394860162
 40
0.604709448
 40
0.6663560079
 40
0.7242958921
 40
0.7784616852
 40
0.8288831028
 40
0.875735408
 40
0.9193978823
 40
0.9605047509
 40
0.9803925817
 40
1.0
 40
1.0
 40
1.0
 40
1.0
 10
5.3776708075
 20
6.4854137491
 30
0.0
 10
5.3781735197
 20
6.4855791748
 30
0.0
 10
5.3791752831
 20
6.4858830537
 30
0.0
 10
5.3806778347
 20
6.4862640193
 30
0.0
 10
5.3821545653
 20
6.4865712986
 30
0.0
 10
5.3835962032
 20
6.4868106734
 30
0.0
 10
5.3849944642
 20
6.486988617
 30
0.0
 10
5.38634214
 20
6.487111073
 30
0.0
 10
5.3876329755
 20
6.4871829117
 30
0.0
 10
5.3888615204
 20
6.4872073412
 30
0.0
 10
5.3900229736
 20
6.487185531
 30
0.0
 10
5.3911130601
 20
6.4871164468
 30
0.0
 10
5.3921279668
 20
6.486996937
 30
0.0
 10
5.3930642982
 20
6.4868220242
 30
0.0
 10
5.3939191274
 20
6.4865852653
 30
0.0
 10
5.3946895985
 20
6.4862793763
 30
0.0
 10
5.3952657189
 20
6.4859569475
 30
0.0
 10
5.3956761175
 20
6.4856593361
 30
0.0
 10
5.3958648875
 20
6.4854976935
 30
0.0
 10
5.3959550787
 20
6.4854137491
 30
0.0
  0
SPLINE
  5
293
100
AcDbEntity
  8
0
100
AcDbSpline
 62
7
  6
CONTINUOUS
 70
0
 71
3
 72
15
 73
11
 74
0
 42
0.0000001
 43
0.0000001
 44
0.0000000001
 40
0.0
 40
0.0
 40
0.0
 40
0.0
 40
0.1244001421
 40
0.2488691832
 40
0.3734798137
 40
0.4982857819
 40
0.623328117
 40
0.7486296201
 40
0.8741907033
 40
1.0
 40
1.0
 40
1.0
 40
1.0
 10
5.4226708075
 20
6.433487342
 30
0.0
 10
5.4226708075
 20
6.4341699049
 30
0.0
 10
5.4225743999
 20
6.4355373576
 30
0.0
 10
5.4221433843
 20
6.4375473305
 30
0.0
 10
5.4214343062
 20
6.4394796115
 30
0.0
 10
5.4204607985
 20
6.4412965326
 30
0.0
 10
5.4192416948
 20
6.4429633232
 30
0.0
 10
5.4178003345
 20
6.4444479869
 30
0.0
 10
5.4161649204
 20
6.4457218797
 30
0.0
 10
5.414966136
 20
6.4464142883
 30
0.0
 10
5.4143461244
 20
6.4467177556
 30
0.0
  0
LINE
  5
294
100
AcDbEntity
  8
0
100
AcDbLine
 62
7
  6
CONTINUOUS
 10
4.1726708075
 20
6.4835566304
 11
4.1743865362
 21
6.4854137491
  0
SPLINE
  5
295
100
AcDbEntity
  8
0
100
AcDbSpline
 62
7
  6
CONTINUOUS
 70
0
 71
3
 72
14
 73
10
 74
0
 42
0.0000001
 43
0.0000001
 44
0.0000000001
 40
0.0
 40
0.0
 40
0.0
 40
0.0
 40
0.2442061213
 40
0.3682044209
 40
0.4932394538
 40
0.619136231
 40
0.7457046591
 40
0.8727341705
 40
1.0
 40
1.0
 40
1.0
 40
1.0
 10
4.1926708075
 20
6.4854137491
 30
0.0
 10
4.193460649
 20
6.4851535992
 30
0.0
 10
4.1946587814
 20
6.484781883
 30
0.0
 10
4.1962840376
 20
6.4843569619
 30
0.0
 10
4.1975304853
 20
6.4840790187
 30
0.0
 10
4.198796197
 20
6.4838520464
 30
0.0
 10
4.2000779799
 20
6.4836836618
 30
0.0
 10
4.2013713207
 20
6.4835799737
 30
0.0
 10
4.2022374363
 20
6.4835566306
 30
0.0
 10
4.2026708075
 20
6.4835566304
 30
0.0
  0
SPLINE
  5
296
100
AcDbEntity
  8
0
100
AcDbSpline
 62
7
  6
CONTINUOUS
 70
0
 71
3
 72
24
 73
20
 74
0
 42
0.0000001
 43
0.0000001
 44
0.0000000001
 40
0.0
 40
0.0
 40
0.0
 40
0.0
 40
0.0196074173
 40
0.0394952492
 40
0.0806021475
 40
0.124264702
 40
0.1711170767
 40
0.2215385434
 40
0.2757043772
 40
0.3336442954
 40
0.3952908767
 40
0.460514319
 40
0.5291447632
 40
0.6009850974
 40
0.675816934
 40
0.7534022392
 40
0.8334829624
 40
0.9157802917
 40
1.0
 40
1.0
 40
1.0
 40
1.0
 10
4.1743865362
 20
6.4854137491
 30
0.0
 10
4.1744767274
 20
6.4854976935
 30
0.0
 10
4.1746654974
 20
6.4856593362
 30
0.0
 10
4.1750758962
 20
6.4859569477
 30
0.0
 10
4.1756520173
 20
6.4862793764
 30
0.0
 10
4.1764224892
 20
6.4865852664
 30
0.0
 10
4.1772773199
 20
6.4868220248
 30
0.0
 10
4.1782136523
 20
6.4869969377
 30
0.0
 10
4.1792285598
 20
6.4871164472
 30
0.0
 10
4.1803186469
 20
6.4871855315
 30
0.0
 10
4.1814801006
 20
6.4872073411
 30
0.0
 10
4.1827086456
 20
6.4871829112
 30
0.0
 10
4.1839994812
 20
6.4871110726
 30
0.0
 10
4.1853471566
 20
6.4869886164
 30
0.0
 10
4.1867454166
 20
6.4868106727
 30
0.0
 10
4.1881870528
 20
6.4865712975
 30
0.0
 10
4.1896637818
 20
6.4862640194
 30
0.0
 10
4.1911663321
 20
6.4858830534
 30
0.0
 10
4.1921680952
 20
6.4855791747
 30
0.0
 10
4.1926708075
 20
6.4854137491
 30
0.0
  0
SPLINE
  5
297
100
AcDbEntity
  8
0
100
AcDbSpline
 62
7
  6
CONTINUOUS
 70
0
 71
3
 72
36
 73
32
 74
0
 42
0.0000001
 43
0.0000001
 44
0.0000000001
 40
0.0
 40
0.0
 40
0.0
 40
0.0
 40
0.0021124984
 40
0.004317222
 40
0.0067621259
 40
0.0095571284
 40
0.0127759587
 40
0.0164662012
 40
0.02065874
 40
0.0253735822
 40
0.0306232828
 40
0.0364159983
 40
0.0427568711
 40
0.0496482654
 40
0.0650835319
 40
0.082714445
 40
0.1025168641
 40
0.1244555421
 40
0.1484867448
 40
0.1745584779
 40
0.2026127354
 40
0.2325849922
 40
0.2979979885
 40
0.3701781272
 40
0.4484328825
 40
0.5320068113
 40
0.6200906886
 40
0.7118307916
 40
0.8063399198
 40
0.9027040963
 40
1.0
 40
1.0
 40
1.0
 40
1.0
 10
5.4226708075
 20
6.433487342
 30
0.0
 10
5.4226708073
 20
6.4334660342
 30
0.0
 10
5.4226645509
 20
6.4334222244
 30
0.0
 10
5.4226359718
 20
6.4333594535
 30
0.0
 10
5.4225892007
 20
6.433299993
 30
0.0
 10
5.4225248076
 20
6.4332434878
 30
0.0
 10
5.4224428877
 20
6.4331895033
 30
0.0
 10
5.4223433945
 20
6.4331377995
 30
0.0
 10
5.4222262745
 20
6.433088256
 30
0.0
 10
5.4220915149
 20
6.4330408134
 30
0.0
 10
5.4219391394
 20
6.4329954405
 30
0.0
 10
5.4217691986
 20
6.4329521214
 30
0.0
 10
5.4215817657
 20
6.4329108396
 30
0.0
 10
5.4212977451
 20
6.4328564272
 30
0.0
 10
5.4208993333
 20
6.4327947512
 30
0.0
 10
5.4203698342
 20
6.4327309521
 30
0.0
 10
5.4197735528
 20
6.4326748505
 30
0.0
 10
5.4191118735
 20
6.4326263756
 30
0.0
 10
5.4183863451
 20
6.4325854829
 30
0.0
 10
5.4175986932
 20
6.4325521259
 30
0.0
 10
5.4167508092
 20
6.4325262587
 30
0.0
 10
5.4155059688
 20
6.4325009999
 30
0.0
 10
5.4138157685
 20
6.4324897493
 30
0.0
 10
5.4116386122
 20
6.4325058264
 30
0.0
 10
5.4092786602
 20
6.4325514458
 30
0.0
 10
5.4067589924
 20
6.4326269706
 30
0.0
 10
5.4041042894
 20
6.4327329902
 30
0.0
 10
5.4013405782
 20
6.432870276
 30
0.0
 10
5.3984949836
 20
6.433039873
 30
0.0
 10
5.3955953991
 20
6.4332429438
 30
0.0
 10
5.3936484306
 20
6.4334015505
 30
0.0
 10
5.3926708075
 20
6.433487342
 30
0.0
  0
SPLINE
  5
298
100
AcDbEntity
  8
0
100
AcDbSpline
 62
7
  6
CONTINUOUS
 70
0
 71
3
 72
23
 73
19
 74
0
 42
0.0000001
 43
0.0000001
 44
0.0000000001
 40
0.0
 40
0.0
 40
0.0
 40
0.0
 40
0.0608502167
 40
0.1218405133
 40
0.1829976657
 40
0.244350651
 40
0.3059217925
 40
0.3677307592
 40
0.4297925802
 40
0.4921179704
 40
0.554713051
 40
0.6175793307
 40
0.6807137738
 40
0.7441087509
 40
0.8077527945
 40
0.8716290466
 40
0.935720212
 40
1.0
 40
1.0
 40
1.0
 40
1.0
 10
5.4153484585
 20
6.4468771204
 30
0.0
 10
5.4145740589
 20
6.4473668994
 30
0.0
 10
5.4130569293
 20
6.4484016465
 30
0.0
 10
5.4108911295
 20
6.4501086751
 30
0.0
 10
5.408841675
 20
6.4519652403
 30
0.0
 10
5.4069173828
 20
6.4539633221
 30
0.0
 10
5.4051263542
 20
6.4560945018
 30
0.0
 10
5.4034761686
 20
6.4583497152
 30
0.0
 10
5.4019737978
 20
6.4607194089
 30
0.0
 10
5.4006255852
 20
6.4631935364
 30
0.0
 10
5.3994372209
 20
6.4657616165
 30
0.0
 10
5.3984137133
 20
6.468412772
 30
0.0
 10
5.3975593766
 20
6.4711357775
 30
0.0
 10
5.3968777995
 20
6.4739191139
 30
0.0
 10
5.3963718627
 20
6.4767509864
 30
0.0
 10
5.3960436638
 20
6.4796194768
 30
0.0
 10
5.3958946095
 20
6.482512285
 30
0.0
 10
5.395915044
 20
6.4844466499
 30
0.0
 10
5.3959550787
 20
6.4854137491
 30
0.0
  0
LINE
  5
299
100
AcDbEntity
  8
0
100
AcDbLine
 62
7
  6
CONTINUOUS
 10
5.4164208075
 20
6.4470061516
 11
5.4153484585
 21
6.4468771204
  0
SPLINE
  5
29A
100
AcDbEntity
  8
0
100
AcDbSpline
 62
7
  6
CONTINUOUS
 70
0
 71
3
 72
36
 73
32
 74
0
 42
0.0000001
 43
0.0000001
 44
0.0000000001
 40
0.0
 40
0.0
 40
0.0
 40
0.0
 40
0.0972950105
 40
0.1936580387
 40
0.2881668733
 40
0.3799070306
 40
0.4679909516
 40
0.5515649499
 40
0.6298198448
 40
0.7020001769
 40
0.7674133699
 40
0.7973856995
 40
0.8254400994
 40
0.8515119389
 40
0.8755432547
 40
0.8974820808
 40
0.9172845928
 40
0.9349156648
 40
0.9503510271
 40
0.957242504
 40
0.9635834174
 40
0.9693762044
 40
0.974626011
 40
0.9793409323
 40
0.9835335224
 40
0.9872238542
 40
0.9904427757
 40
0.9932378396
 40
0.9956827772
 40
0.9978875099
 40
1.0
 40
1.0
 40
1.0
 40
1.0
 10
4.1776708075
 20
6.433487342
 30
0.0
 10
4.1766931934
 20
6.4334015509
 30
0.0
 10
4.1747462453
 20
6.4332429463
 30
0.0
 10
4.1718466844
 20
6.4330398763
 30
0.0
 10
4.1690011038
 20
6.4328702798
 30
0.0
 10
4.1662373947
 20
6.4327329932
 30
0.0
 10
4.16358269
 20
6.4326269731
 30
0.0
 10
4.1610630197
 20
6.4325514472
 30
0.0
 10
4.1587030637
 20
6.4325058273
 30
0.0
 10
4.1565259021
 20
6.4324897493
 30
0.0
 10
4.1548356971
 20
6.4325009993
 30
0.0
 10
4.1535908527
 20
6.4325262574
 30
0.0
 10
4.1527429654
 20
6.4325521244
 30
0.0
 10
4.1519553098
 20
6.432585481
 30
0.0
 10
4.1512297777
 20
6.4326263733
 30
0.0
 10
4.1505680948
 20
6.4326748476
 30
0.0
 10
4.1499718094
 20
6.4327309492
 30
0.0
 10
4.1494423067
 20
6.4327947478
 30
0.0
 10
4.1490438914
 20
6.4328564235
 30
0.0
 10
4.1487598685
 20
6.4329108356
 30
0.0
 10
4.1485724336
 20
6.4329521177
 30
0.0
 10
4.1484024906
 20
6.4329954369
 30
0.0
 10
4.1482501123
 20
6.4330408095
 30
0.0
 10
4.14811535
 20
6.4330882516
 30
0.0
 10
4.1479982277
 20
6.4331377954
 30
0.0
 10
4.1478987322
 20
6.4331894998
 30
0.0
 10
4.1478168101
 20
6.4332434855
 30
0.0
 10
4.147752416
 20
6.4332999924
 30
0.0
 10
4.1477056441
 20
6.4333594535
 30
0.0
 10
4.1476770643
 20
6.4334222245
 30
0.0
 10
4.1476708077
 20
6.4334660342
 30
0.0
 10
4.1476708075
 20
6.433487342
 30
0.0
  0
LINE
  5
29B
100
AcDbEntity
  8
0
100
AcDbLine
 62
7
  6
CONTINUOUS
 10
4.1549931356
 20
6.4468771104
 11
4.1539208074
 21
6.4470061516
  0
LINE
  5
29C
100
AcDbEntity
  8
0
100
AcDbLine
 62
7
  6
CONTINUOUS
 10
4.1807380504
 20
6.4468771372
 11
4.1753478146
 21
6.4467177563
  0
SPLINE
  5
29D
100
AcDbEntity
  8
0
100
AcDbSpline
 62
7
  6
CONTINUOUS
 70
0
 71
3
 72
25
 73
21
 74
0
 42
0.0000001
 43
0.0000001
 44
0.0000000001
 40
0.0
 40
0.0
 40
0.0
 40
0.0
 40
0.180363805
 40
0.3517158894
 40
0.4327861146
 40
0.5101475453
 40
0.5833463539
 40
0.6519578347
 40
0.7155934258
 40
0.773908102
 40
0.8266065958
 40
0.8734504903
 40
0.8946205001
 40
0.9142667753
 40
0.9323791308
 40
0.9489523958
 40
0.9639880528
 40
0.9774945856
 40
0.9894891827
 40
1.0
 40
1.0
 40
1.0
 40
1.0
 10
4.1753478146
 20
6.4467177563
 30
0.0
 10
4.1741840684
 20
6.4466311162
 30
0.0
 10
4.1719135451
 20
6.4464774809
 30
0.0
 10
4.1691170766
 20
6.4463311549
 30
0.0
 10
4.1669849418
 20
6.4462481025
 30
0.0
 10
4.1654868973
 20
6.4462040734
 30
0.0
 10
4.1640690637
 20
6.4461773267
 30
0.0
 10
4.1627398115
 20
6.4461679693
 30
0.0
 10
4.1615068463
 20
6.4461760125
 30
0.0
 10
4.1603770817
 20
6.446201369
 30
0.0
 10
4.1593565514
 20
6.4462438812
 30
0.0
 10
4.158577089
 20
6.4462948729
 30
0.0
 10
4.1580121463
 20
6.446345339
 30
0.0
 10
4.1576330286
 20
6.44638604
 30
0.0
 10
4.1572843291
 20
6.4464307991
 30
0.0
 10
4.1569663051
 20
6.4464795476
 30
0.0
 10
4.1566791408
 20
6.4465321841
 30
0.0
 10
4.1564229326
 20
6.4465886061
 30
0.0
 10
4.1561977347
 20
6.4466487101
 30
0.0
 10
4.1560592407
 20
6.4466940766
 30
0.0
 10
4.1559954904
 20
6.4467177555
 30
0.0
  0
LINE
  5
29E
100
AcDbEntity
  8
0
100
AcDbLine
 62
7
  6
CONTINUOUS
 10
4.1559954904
 20
6.4467177555
 11
4.1549931751
 21
6.4468771355
  0
SPLINE
  5
29F
100
AcDbEntity
  8
0
100
AcDbSpline
 62
7
  6
CONTINUOUS
 70
0
 71
3
 72
23
 73
19
 74
0
 42
0.0000001
 43
0.0000001
 44
0.0000000001
 40
0.0
 40
0.0
 40
0.0
 40
0.0
 40
0.0608501499
 40
0.1218403971
 40
0.182997516
 40
0.2443504818
 40
0.3059216157
 40
0.367730585
 40
0.4297924165
 40
0.4921178232
 40
0.5547129242
 40
0.6175792266
 40
0.6807136929
 40
0.7441086922
 40
0.8077527557
 40
0.8716290247
 40
0.9357202031
 40
1.0
 40
1.0
 40
1.0
 40
1.0
 10
4.1549931751
 20
6.4468771355
 30
0.0
 10
4.1557675727
 20
6.4473669145
 30
0.0
 10
4.1572846986
 20
6.4484016616
 30
0.0
 10
4.1594504933
 20
6.4501086899
 30
0.0
 10
4.1614999433
 20
6.4519652547
 30
0.0
 10
4.1634242319
 20
6.4539633361
 30
0.0
 10
4.1652152576
 20
6.4560945151
 30
0.0
 10
4.1668654408
 20
6.4583497278
 30
0.0
 10
4.16836781
 20
6.4607194207
 30
0.0
 10
4.1697160216
 20
6.4631935473
 30
0.0
 10
4.1709043855
 20
6.4657616263
 30
0.0
 10
4.1719278931
 20
6.4684127807
 30
0.0
 10
4.1727822305
 20
6.4711357849
 30
0.0
 10
4.1734638085
 20
6.4739191199
 30
0.0
 10
4.1739697466
 20
6.4767509911
 30
0.0
 10
4.1742979471
 20
6.47961948
 30
0.0
 10
4.1744470033
 20
6.4825122866
 30
0.0
 10
4.1744265702
 20
6.4844466504
 30
0.0
 10
4.1743865362
 20
6.4854137491
 30
0.0
  0
LINE
  5
2A0
100
AcDbEntity
  8
0
100
AcDbLine
 62
7
  6
CONTINUOUS
 10
4.2026708075
 20
6.4470061516
 11
4.1807380388
 21
6.4468771204
  0
SPLINE
  5
2A1
100
AcDbEntity
  8
0
100
AcDbSpline
 62
7
  6
CONTINUOUS
 70
0
 71
3
 72
23
 73
19
 74
0
 42
0.0000001
 43
0.0000001
 44
0.0000000001
 40
0.0
 40
0.0
 40
0.0
 40
0.0
 40
0.0454152735
 40
0.0938893082
 40
0.1453242749
 40
0.1995957263
 40
0.2565512814
 40
0.3160175834
 40
0.3778021304
 40
0.4416962619
 40
0.5074772887
 40
0.5749105179
 40
0.6437511603
 40
0.7137458824
 40
0.7846351278
 40
0.8561526661
 40
0.9280324248
 40
1.0
 40
1.0
 40
1.0
 40
1.0
 10
4.1807380388
 20
6.4468771204
 30
0.0
 10
4.1810879984
 20
6.4473837694
 30
0.0
 10
4.1817803428
 20
6.4484529191
 30
0.0
 10
4.1827672337
 20
6.4501591119
 30
0.0
 10
4.1837328134
 20
6.4520139152
 30
0.0
 10
4.1846729867
 20
6.4540095056
 30
0.0
 10
4.1855838
 20
6.4561375847
 30
0.0
 10
4.1864613999
 20
6.4583892122
 30
0.0
 10
4.1873020684
 20
6.4607549293
 30
0.0
 10
4.1881022417
 20
6.463224774
 30
0.0
 10
4.1888585255
 20
6.4657883355
 30
0.0
 10
4.1895677127
 20
6.468434798
 30
0.0
 10
4.1902267948
 20
6.4711529877
 30
0.0
 10
4.1908329802
 20
6.4739314284
 30
0.0
 10
4.1913836926
 20
6.4767583698
 30
0.0
 10
4.1918766124
 20
6.4796218942
 30
0.0
 10
4.1923096329
 20
6.4825098538
 30
0.0
 10
4.1925573319
 20
6.4844445964
 30
0.0
 10
4.1926708075
 20
6.4854137491
 30
0.0
  0
LINE
  5
2A2
100
AcDbEntity
  8
0
100
AcDbLine
 62
7
  6
CONTINUOUS
 10
5.3896035446
 20
6.4468771104
 11
5.3676708074
 21
6.4470061516
  0
LINE
  5
2A3
100
AcDbEntity
  8
0
100
AcDbLine
 62
7
  6
CONTINUOUS
 10
5.4153484319
 20
6.4468771372
 11
5.4143461233
 21
6.4467177563
  0
SPLINE
  5
2A4
100
AcDbEntity
  8
0
100
AcDbSpline
 62
7
  6
CONTINUOUS
 70
0
 71
3
 72
25
 73
21
 74
0
 42
0.0000001
 43
0.0000001
 44
0.0000000001
 40
0.0
 40
0.0
 40
0.0
 40
0.0
 40
0.0105107739
 40
0.0225052384
 40
0.0360116216
 40
0.0510471754
 40
0.0676203383
 40
0.0857326565
 40
0.1053789031
 40
0.1265488426
 40
0.1733926294
 40
0.2260910495
 40
0.2844056429
 40
0.3480411585
 40
0.4166525625
 40
0.4898513194
 40
0.5672127371
 40
0.648282946
 40
0.8196351829
 40
1.0
 40
1.0
 40
1.0
 40
1.0
 10
5.4143461233
 20
6.4467177563
 30
0.0
 10
5.4142823733
 20
6.4466940777
 30
0.0
 10
5.4141438806
 20
6.4466487108
 30
0.0
 10
5.413918685
 20
6.4465886066
 30
0.0
 10
5.4136624793
 20
6.446532185
 30
0.0
 10
5.4133753173
 20
6.4464795486
 30
0.0
 10
5.413057295
 20
6.4464307999
 30
0.0
 10
5.4127085965
 20
6.4463860412
 30
0.0
 10
5.4123294798
 20
6.4463453402
 30
0.0
 10
5.4117645385
 20
6.4462948739
 30
0.0
 10
5.4109850778
 20
6.4462438818
 30
0.0
 10
5.4099645493
 20
6.4462013695
 30
0.0
 10
5.4088347863
 20
6.4461760129
 30
0.0
 10
5.4076018228
 20
6.4461679693
 30
0.0
 10
5.406272572
 20
6.4461773264
 30
0.0
 10
5.4048547394
 20
6.4462040729
 30
0.0
 10
5.4033566957
 20
6.4462481018
 30
0.0
 10
5.4012245602
 20
6.4463311536
 30
0.0
 10
5.3984280847
 20
6.4464774811
 30
0.0
 10
5.3961575539
 20
6.4466311142
 30
0.0
 10
5.3949938013
 20
6.4467177555
 30
0.0
  0
LINE
  5
2A5
100
AcDbEntity
  8
0
100
AcDbLine
 62
7
  6
CONTINUOUS
 10
5.3949938013
 20
6.4467177555
 11
5.3896035273
 21
6.4468771355
  0
SPLINE
  5
2A6
100
AcDbEntity
  8
0
100
AcDbSpline
 62
7
  6
CONTINUOUS
 70
0
 71
3
 72
23
 73
19
 74
0
 42
0.0000001
 43
0.0000001
 44
0.0000000001
 40
0.0
 40
0.0
 40
0.0
 40
0.0
 40
0.0454153792
 40
0.0938894875
 40
0.1453245018
 40
0.1995959794
 40
0.2565515437
 40
0.3160178415
 40
0.3778023744
 40
0.4416964842
 40
0.5074774842
 40
0.5749106838
 40
0.6437512953
 40
0.7137459865
 40
0.7846352022
 40
0.8561527129
 40
0.9280324467
 40
1.0
 40
1.0
 40
1.0
 40
1.0
 10
5.3896035273
 20
6.4468771355
 30
0.0
 10
5.3892535653
 20
6.4473837841
 30
0.0
 10
5.3885612167
 20
6.4484529333
 30
0.0
 10
5.3875743214
 20
6.4501591259
 30
0.0
 10
5.3866087392
 20
6.4520139289
 30
0.0
 10
5.3856685651
 20
6.454009519
 30
0.0
 10
5.3847577526
 20
6.4561375976
 30
0.0
 10
5.3838801549
 20
6.4583892244
 30
0.0
 10
5.3830394899
 20
6.4607549408
 30
0.0
 10
5.3822393211
 20
6.4632247847
 30
0.0
 10
5.3814830427
 20
6.4657883452
 30
0.0
 10
5.3807738616
 20
6.4684348066
 30
0.0
 10
5.3801147862
 20
6.4711529952
 30
0.0
 10
5.3795086078
 20
6.4739314345
 30
0.0
 10
5.3789579024
 20
6.4767583746
 30
0.0
 10
5.3784649896
 20
6.4796218975
 30
0.0
 10
5.3780319758
 20
6.4825098555
 30
0.0
 10
5.377784281
 20
6.4844445969
 30
0.0
 10
5.3776708075
 20
6.4854137491
 30
0.0
  0
SPLINE
  5
2A7
100
AcDbEntity
  8
0
100
AcDbSpline
 62
7
  6
CONTINUOUS
 70
0
 71
3
 72
11
 73
7
 74
0
 42
0.0000001
 43
0.0000001
 44
0.0000000001
 40
0.0
 40
0.0
 40
0.0
 40
0.0
 40
0.2499999059
 40
0.4999998893
 40
0.7499999241
 40
1.0
 40
1.0
 40
1.0
 40
1.0
 10
4.9927724128
 20
2.7289385318
 30
0.0
 10
5.0142232041
 20
3.0217762419
 30
0.0
 10
5.0573239099
 20
3.6074371724
 30
0.0
 10
5.1223827584
 20
4.4858985273
 30
0.0
 10
5.1877254639
 20
5.3643390079
 30
0.0
 10
5.2314247425
 20
5.9499558057
 30
0.0
 10
5.2533000956
 20
6.2427623067
 30
0.0
  0
SPLINE
  5
2A8
100
AcDbEntity
  8
0
100
AcDbSpline
 62
7
  6
CONTINUOUS
 70
0
 71
3
 72
11
 73
7
 74
0
 42
0.0000001
 43
0.0000001
 44
0.0000000001
 40
0.0
 40
0.0
 40
0.0
 40
0.0
 40
0.2500000759
 40
0.5000001127
 40
0.7500000953
 40
1.0
 40
1.0
 40
1.0
 40
1.0
 10
4.3170413481
 20
6.2427622954
 30
0.0
 10
4.3389165503
 20
5.9499557829
 30
0.0
 10
4.3826157435
 20
5.3643389762
 30
0.0
 10
4.4479587685
 20
4.4858985176
 30
0.0
 10
4.5130169952
 20
3.6074371167
 30
0.0
 10
4.5561184854
 20
3.0217762461
 30
0.0
 10
4.5775692021
 20
2.7289385318
 30
0.0
  0
LINE
  5
2A9
100
AcDbEntity
  8
0
100
AcDbLine
 62
7
  6
CONTINUOUS
 10
5.2662266698
 20
5.8731875369
 11
5.2509052503
 21
5.5635716399
  0
LINE
  5
2AA
100
AcDbEntity
  8
0
100
AcDbLine
 62
7
  6
CONTINUOUS
 10
5.2484496118
 20
5.5148751683
 11
5.2339379085
 21
5.2324188725
  0
LINE
  5
2AB
100
AcDbEntity
  8
0
100
AcDbLine
 62
7
  6
CONTINUOUS
 10
5.2309616118
 20
5.1756214521
 11
5.2164567787
 21
4.9044276318
  0
LINE
  5
2AC
100
AcDbEntity
  8
0
100
AcDbLine
 62
7
  6
CONTINUOUS
 10
5.2003298077
 20
4.613934791
 11
5.1917052493
 21
4.4633990986
  0
SPLINE
  5
2AD
100
AcDbEntity
  8
0
100
AcDbSpline
 62
7
  6
CONTINUOUS
 70
0
 71
3
 72
9
 73
5
 74
0
 42
0.0000001
 43
0.0000001
 44
0.0000000001
 40
0.0
 40
0.0
 40
0.0
 40
0.0
 40
0.5000061578
 40
1.0
 40
1.0
 40
1.0
 40
1.0
 10
5.1840992621
 20
4.3334430217
 30
0.0
 10
5.1745852784
 20
4.1725355865
 30
0.0
 10
5.1548342153
 20
3.8507668953
 30
0.0
 10
5.1332309184
 20
3.5291157838
 30
0.0
 10
5.1218218176
 20
3.3683355888
 30
0.0
  0
SPLINE
  5
2AE
100
AcDbEntity
  8
0
100
AcDbSpline
 62
7
  6
CONTINUOUS
 70
0
 71
3
 72
14
 73
10
 74
0
 42
0.0000001
 43
0.0000001
 44
0.0000000001
 40
0.0
 40
0.0
 40
0.0
 40
0.0
 40
0.28447682
 40
0.422608611
 40
0.5555096164
 40
0.6813302634
 40
0.7983590175
 40
0.9050406083
 40
1.0
 40
1.0
 40
1.0
 40
1.0
 10
5.121264745
 20
3.3599902047
 30
0.0
 10
5.120635923
 20
3.3499380913
 30
0.0
 10
5.1199233061
 20
3.334989502
 30
0.0
 10
5.1194766779
 20
3.3153263071
 30
0.0
 10
5.1194105177
 20
3.3012751707
 30
0.0
 10
5.1196142231
 20
3.2879724969
 30
0.0
 10
5.1200866784
 20
3.2756052235
 30
0.0
 10
5.1208210399
 20
3.2643453728
 30
0.0
 10
5.1215199481
 20
3.2572385919
 30
0.0
 10
5.1219244999
 20
3.2539010299
 30
0.0
  0
SPLINE
  5
2AF
100
AcDbEntity
  8
0
100
AcDbSpline
 62
7
  6
CONTINUOUS
 70
0
 71
3
 72
22
 73
18
 74
0
 42
0.0000001
 43
0.0000001
 44
0.0000000001
 40
0.0
 40
0.0
 40
0.0
 40
0.0
 40
0.23130417
 40
0.4280293682
 40
0.5130012178
 40
0.5889090892
 40
0.6557752755
 40
0.7137124416
 40
0.7629932955
 40
0.8042187242
 40
0.8385051556
 40
0.8678235538
 40
0.8816165304
 40
0.8954127243
 40
0.9247345228
 40
0.9589588998
 40
1.0
 40
1.0
 40
1.0
 40
1.0
 10
5.1219244999
 20
3.2539010299
 30
0.0
 10
5.1222435871
 20
3.2512685526
 30
0.0
 10
5.1229214584
 20
3.2464070514
 30
0.0
 10
5.1240242159
 20
3.2406258904
 30
0.0
 10
5.1250176261
 20
3.2366472622
 30
0.0
 10
5.125763629
 20
3.2341440266
 30
0.0
 10
5.1265438965
 20
3.2319777221
 30
0.0
 10
5.1273559154
 20
3.230152116
 30
0.0
 10
5.1281982219
 20
3.2286691522
 30
0.0
 10
5.1290720706
 20
3.2275285517
 30
0.0
 10
5.129982793
 20
3.226728099
 30
0.0
 10
5.130806446
 20
3.2263507767
 30
0.0
 10
5.1314561765
 20
3.2262583098
 30
0.0
 10
5.1321116468
 20
3.2262906847
 30
0.0
 10
5.1329663221
 20
3.2265884207
 30
0.0
 10
5.1339475384
 20
3.2272953352
 30
0.0
 10
5.134539338
 20
3.2279292934
 30
0.0
 10
5.1348383319
 20
3.228292585
 30
0.0
  0
SPLINE
  5
2B0
100
AcDbEntity
  8
0
100
AcDbSpline
 62
7
  6
CONTINUOUS
 70
0
 71
3
 72
8
 73
4
 74
0
 42
0.0000001
 43
0.0000001
 44
0.0000000001
 40
0.0
 40
0.0
 40
0.0
 40
0.0
 40
1.0
 40
1.0
 40
1.0
 40
1.0
 10
5.1381895114
 20
3.2323800327
 30
0.0
 10
5.1290931538
 20
3.0354081084
 30
0.0
 10
5.1201221727
 20
2.8384303216
 30
0.0
 10
5.1113220177
 20
2.6414449416
 30
0.0
  0
SPLINE
  5
2B1
100
AcDbEntity
  8
0
100
AcDbSpline
 62
7
  6
CONTINUOUS
 70
0
 71
3
 72
10
 73
6
 74
0
 42
0.0000001
 43
0.0000001
 44
0.0000000001
 40
0.0
 40
0.0
 40
0.0
 40
0.0
 40
0.2500170112
 40
0.5000198303
 40
1.0
 40
1.0
 40
1.0
 40
1.0
 10
5.0221134389
 20
2.7290721226
 30
0.0
 10
5.0437174609
 20
3.021868141
 30
0.0
 10
5.0870079616
 20
3.6074373868
 30
0.0
 10
5.173910703
 20
4.7785053385
 30
0.0
 10
5.2393940721
 20
5.6567635073
 30
0.0
 10
5.2831354592
 20
6.2422525325
 30
0.0
  0
SPLINE
  5
2B2
100
AcDbEntity
  8
0
100
AcDbSpline
 62
7
  6
CONTINUOUS
 70
0
 71
3
 72
10
 73
6
 74
0
 42
0.0000001
 43
0.0000001
 44
0.0000000001
 40
0.0
 40
0.0
 40
0.0
 40
0.0
 40
0.4999801805
 40
0.7499830045
 40
1.0
 40
1.0
 40
1.0
 40
1.0
 10
4.2872061555
 20
6.2422525347
 30
0.0
 10
4.3309475029
 20
5.6567634935
 30
0.0
 10
4.396430306
 20
4.7785052636
 30
0.0
 10
4.4833343417
 20
3.6074374071
 30
0.0
 10
4.5266241297
 20
3.021868121
 30
0.0
 10
4.548228176
 20
2.7290721226
 30
0.0
  0
SPLINE
  5
2B3
100
AcDbEntity
  8
0
100
AcDbSpline
 62
7
  6
CONTINUOUS
 70
0
 71
3
 72
8
 73
4
 74
0
 42
0.0000001
 43
0.0000001
 44
0.0000000001
 40
0.0
 40
0.0
 40
0.0
 40
0.0
 40
1.0
 40
1.0
 40
1.0
 40
1.0
 10
4.4590195972
 20
2.6414449416
 30
0.0
 10
4.4502194419
 20
2.8384303216
 30
0.0
 10
4.4412484611
 20
3.0354081084
 30
0.0
 10
4.4321521036
 20
3.2323800327
 30
0.0
  0
SPLINE
  5
2B4
100
AcDbEntity
  8
0
100
AcDbSpline
 62
7
  6
CONTINUOUS
 70
0
 71
3
 72
22
 73
18
 74
0
 42
0.0000001
 43
0.0000001
 44
0.0000000001
 40
0.0
 40
0.0
 40
0.0
 40
0.0
 40
0.0403552323
 40
0.0739120302
 40
0.1026420816
 40
0.1162015193
 40
0.1298109474
 40
0.1589338184
 40
0.1932199053
 40
0.2345861309
 40
0.2841029502
 40
0.342313431
 40
0.4094770428
 40
0.4857083948
 40
0.5710004354
 40
0.7682859321
 40
1.0
 40
1.0
 40
1.0
 40
1.0
 10
4.435503282
 20
3.2282925863
 30
0.0
 10
4.4358066474
 20
3.2279239506
 30
0.0
 10
4.4364069506
 20
3.2272818965
 30
0.0
 10
4.4374045808
 20
3.2265704582
 30
0.0
 10
4.4382742603
 20
3.2262801751
 30
0.0
 10
4.4389393145
 20
3.2262606303
 30
0.0
 10
4.4396002584
 20
3.2263704613
 30
0.0
 10
4.4404360008
 20
3.2267788922
 30
0.0
 10
4.4413572757
 20
3.2276237798
 30
0.0
 10
4.4422413628
 20
3.2288193548
 30
0.0
 10
4.4430928685
 20
3.2303681375
 30
0.0
 10
4.4439134891
 20
3.2322698973
 30
0.0
 10
4.4447009553
 20
3.2345227982
 30
0.0
 10
4.4454522982
 20
3.2371229151
 30
0.0
 10
4.4464507774
 20
3.2412497031
 30
0.0
 10
4.4475553632
 20
3.2472370281
 30
0.0
 10
4.4482300179
 20
3.2522686469
 30
0.0
 10
4.4485465573
 20
3.2549915461
 30
0.0
  0
SPLINE
  5
2B5
100
AcDbEntity
  8
0
100
AcDbSpline
 62
7
  6
CONTINUOUS
 70
0
 71
3
 72
13
 73
9
 74
0
 42
0.0000001
 43
0.0000001
 44
0.0000000001
 40
0.0
 40
0.0
 40
0.0
 40
0.0
 40
0.0959101785
 40
0.203151991
 40
0.3204060024
 40
0.4461694137
 40
0.7164880559
 40
1.0
 40
1.0
 40
1.0
 40
1.0
 10
4.4485465573
 20
3.2549915461
 30
0.0
 10
4.4489324922
 20
3.2583113919
 30
0.0
 10
4.4495987835
 20
3.2653611264
 30
0.0
 10
4.4502981869
 20
3.2765057751
 30
0.0
 10
4.450744393
 20
3.288704422
 30
0.0
 10
4.4509997317
 20
3.3065921099
 30
0.0
 10
4.4506354077
 20
3.3302766757
 30
0.0
 10
4.4497235813
 20
3.3495578257
 30
0.0
 10
4.4491124433
 20
3.3594185088
 30
0.0
  0
SPLINE
  5
2B6
100
AcDbEntity
  8
0
100
AcDbSpline
 62
7
  6
CONTINUOUS
 70
0
 71
3
 72
9
 73
5
 74
0
 42
0.0000001
 43
0.0000001
 44
0.0000000001
 40
0.0
 40
0.0
 40
0.0
 40
0.0
 40
0.4999939629
 40
1.0
 40
1.0
 40
1.0
 40
1.0
 10
4.4485197974
 20
3.3683355886
 30
0.0
 10
4.4373529157
 20
3.5257024892
 30
0.0
 10
4.4161834688
 20
3.8405232393
 30
0.0
 10
4.3967987267
 20
4.1554575539
 30
0.0
 10
4.3874560858
 20
4.3129471021
 30
0.0
  0
LINE
  5
2B7
100
AcDbEntity
  8
0
100
AcDbLine
 62
7
  6
CONTINUOUS
 10
4.370592568
 20
4.6036930049
 11
4.3590958869
 21
4.8092793103
  0
LINE
  5
2B8
100
AcDbEntity
  8
0
100
AcDbLine
 62
7
  6
CONTINUOUS
 10
4.3534896205
 20
4.9116880988
 11
4.3405171263
 21
5.1540258496
  0
LINE
  5
2B9
100
AcDbEntity
  8
0
100
AcDbLine
 62
7
  6
CONTINUOUS
 10
4.3188781109
 20
5.5746793322
 11
4.3042424511
 21
5.8705650377
  0
LINE
  5
2BA
100
AcDbEntity
  8
0
100
AcDbLine
 62
7
  6
CONTINUOUS
 10
5.0818467553
 20
2.6132037168
 11
4.9927724128
 21
2.702209645
  0
LINE
  5
2BB
100
AcDbEntity
  8
0
100
AcDbLine
 62
7
  6
CONTINUOUS
 10
4.5775692021
 20
2.702209645
 11
4.4884948596
 21
2.6132037168
  0
LINE
  5
2BC
100
AcDbEntity
  8
0
100
AcDbLine
 62
7
  6
CONTINUOUS
 10
5.1220486755
 20
3.3679488156
 11
5.1218218169
 21
3.3683355776
  0
SPLINE
  5
2BD
100
AcDbEntity
  8
0
100
AcDbSpline
 62
7
  6
CONTINUOUS
 70
0
 71
3
 72
17
 73
13
 74
0
 42
0.0000001
 43
0.0000001
 44
0.0000000001
 40
0.0
 40
0.0
 40
0.0
 40
0.0
 40
0.0403097472
 40
0.0818422035
 40
0.1717200975
 40
0.2216110561
 40
0.2752442088
 40
0.3941433512
 40
0.5284488038
 40
0.6763724379
 40
0.8350577917
 40
1.0
 40
1.0
 40
1.0
 40
1.0
 10
5.2819278727
 20
6.2694953416
 30
0.0
 10
5.2814928479
 20
6.2694953416
 30
0.0
 10
5.2806074278
 20
6.2694087586
 30
0.0
 10
5.278819504
 20
6.2688896131
 30
0.0
 10
5.2771139396
 20
6.2678579807
 30
0.0
 10
5.2755709998
 20
6.2664489927
 30
0.0
 10
5.2739912264
 20
6.2646348939
 30
0.0
 10
5.2722088797
 20
6.2618221845
 30
0.0
 10
5.2704586746
 20
6.2578500865
 30
0.0
 10
5.2690717716
 20
6.2532877525
 30
0.0
 10
5.2681030155
 20
6.2482841593
 30
0.0
 10
5.2677516399
 20
6.2448038497
 30
0.0
 10
5.2676506388
 20
6.2430266527
 30
0.0
  0
LINE
  5
2BE
100
AcDbEntity
  8
0
100
AcDbLine
 62
7
  6
CONTINUOUS
 10
4.317041348
 20
6.2697211462
 11
4.2884138589
 21
6.2694953416
  0
LINE
  5
2BF
100
AcDbEntity
  8
0
100
AcDbLine
 62
7
  6
CONTINUOUS
 10
5.2819278728
 20
6.2694953416
 11
5.253300096
 21
6.2697211505
  0
SPLINE
  5
2C0
100
AcDbEntity
  8
0
100
AcDbSpline
 62
7
  6
CONTINUOUS
 70
0
 71
3
 72
11
 73
7
 74
0
 42
0.0000001
 43
0.0000001
 44
0.0000000001
 40
0.0
 40
0.0
 40
0.0
 40
0.0
 40
0.2452380762
 40
0.4931759477
 40
0.7444178782
 40
1.0
 40
1.0
 40
1.0
 40
1.0
 10
5.3051708075
 20
6.2694953416
 30
0.0
 10
5.3038523714
 20
6.2694953416
 30
0.0
 10
5.3011957286
 20
6.2692579339
 30
0.0
 10
5.2973108476
 20
6.268220987
 30
0.0
 10
5.2936083908
 20
6.2665149357
 30
0.0
 10
5.2913444944
 20
6.2649738933
 30
0.0
 10
5.2902719957
 20
6.2641149684
 30
0.0
  0
SPLINE
  5
2C1
100
AcDbEntity
  8
0
100
AcDbSpline
 62
7
  6
CONTINUOUS
 70
0
 71
3
 72
11
 73
7
 74
0
 42
0.0000001
 43
0.0000001
 44
0.0000000001
 40
0.0
 40
0.0
 40
0.0
 40
0.0
 40
0.2404810902
 40
0.4882022584
 40
0.7424173872
 40
1.0
 40
1.0
 40
1.0
 40
1.0
 10
5.2902719957
 20
6.2641149684
 30
0.0
 10
5.2887344335
 20
6.2628835911
 30
0.0
 10
5.2858874868
 20
6.2600234735
 30
0.0
 10
5.2825583008
 20
6.2548864277
 30
0.0
 10
5.2802561864
 20
6.2490662716
 30
0.0
 10
5.2794603978
 20
6.2449212931
 30
0.0
 10
5.2792567844
 20
6.2428211858
 30
0.0
  0
LINE
  5
2C2
100
AcDbEntity
  8
0
100
AcDbLine
 62
7
  6
CONTINUOUS
 10
4.4482929392
 20
3.3679488153
 11
4.4485197981
 21
3.3683355777
  0
SPLINE
  5
2C3
100
AcDbEntity
  8
0
100
AcDbSpline
 62
7
  6
CONTINUOUS
 70
0
 71
3
 72
11
 73
7
 74
0
 42
0.0000001
 43
0.0000001
 44
0.0000000001
 40
0.0
 40
0.0
 40
0.0
 40
0.0
 40
0.2452421693
 40
0.4931810334
 40
0.7444215056
 40
1.0
 40
1.0
 40
1.0
 40
1.0
 10
4.2651708079
 20
6.2694953416
 30
0.0
 10
4.2664890747
 20
6.2694953416
 30
0.0
 10
4.2691453584
 20
6.2692580126
 30
0.0
 10
4.2730297353
 20
6.2682213823
 30
0.0
 10
4.2767317451
 20
6.2665158389
 30
0.0
 10
4.2789954245
 20
6.264975238
 30
0.0
 10
4.2800678352
 20
6.264116553
 30
0.0
  0
SPLINE
  5
2C4
100
AcDbEntity
  8
0
100
AcDbSpline
 62
7
  6
CONTINUOUS
 70
0
 71
3
 72
11
 73
7
 74
0
 42
0.0000001
 43
0.0000001
 44
0.0000000001
 40
0.0
 40
0.0
 40
0.0
 40
0.0
 40
0.2404796543
 40
0.4882000068
 40
0.7424158275
 40
1.0
 40
1.0
 40
1.0
 40
1.0
 10
4.2800678352
 20
6.264116553
 30
0.0
 10
4.2816056594
 20
6.2628852089
 30
0.0
 10
4.2844531088
 20
6.2600250364
 30
0.0
 10
4.2877828652
 20
6.2548876375
 30
0.0
 10
4.290085335
 20
6.2490669312
 30
0.0
 10
4.2908812009
 20
6.2449215145
 30
0.0
 10
4.2910848048
 20
6.2428211829
 30
0.0
  0
SPLINE
  5
2C5
100
AcDbEntity
  8
0
100
AcDbSpline
 62
7
  6
CONTINUOUS
 70
0
 71
3
 72
17
 73
13
 74
0
 42
0.0000001
 43
0.0000001
 44
0.0000000001
 40
0.0
 40
0.0
 40
0.0
 40
0.0
 40
0.0403123748
 40
0.0818467631
 40
0.171726731
 40
0.2216180497
 40
0.2752512363
 40
0.3941496243
 40
0.5284535955
 40
0.6763754727
 40
0.8350591254
 40
1.0
 40
1.0
 40
1.0
 40
1.0
 10
4.2884138589
 20
6.2694953416
 30
0.0
 10
4.2888489144
 20
6.2694953416
 30
0.0
 10
4.2897343887
 20
6.2694087601
 30
0.0
 10
4.2915223985
 20
6.2688896183
 30
0.0
 10
4.2932280322
 20
6.2678579858
 30
0.0
 10
4.2947710144
 20
6.2664489866
 30
0.0
 10
4.2963507996
 20
6.2646348855
 30
0.0
 10
4.2981331311
 20
6.2618221707
 30
0.0
 10
4.29988327
 20
6.2578500634
 30
0.0
 10
4.3012700782
 20
6.2532877291
 30
0.0
 10
4.3022387335
 20
6.2482841407
 30
0.0
 10
4.3025900274
 20
6.244803836
 30
0.0
 10
4.3026909825
 20
6.2430266412
 30
0.0
  0
SPLINE
  5
2C6
100
AcDbEntity
  8
0
100
AcDbSpline
 62
7
  6
CONTINUOUS
 70
0
 71
3
 72
16
 73
12
 74
0
 42
0.0000001
 43
0.0000001
 44
0.0000000001
 40
0.0
 40
0.0
 40
0.0
 40
0.0
 40
0.0227880384
 40
0.0452967134
 40
0.0995922822
 40
0.1773670266
 40
0.283379549
 40
0.4189256874
 40
0.5839752108
 40
0.7779875326
 40
1.0
 40
1.0
 40
1.0
 40
1.0
 10
5.2831354246
 20
6.2422525731
 30
0.0
 10
5.2831370998
 20
6.2422780256
 30
0.0
 10
5.2831327023
 20
6.2423297913
 30
0.0
 10
5.2830810069
 20
6.2424315145
 30
0.0
 10
5.2829288718
 20
6.242530257
 30
0.0
 10
5.2826717856
 20
6.2426005235
 30
0.0
 10
5.2823167832
 20
6.242650038
 30
0.0
 10
5.2818627305
 20
6.2426807613
 30
0.0
 10
5.2813095133
 20
6.242703809
 30
0.0
 10
5.2806595813
 20
6.2427283444
 30
0.0
 10
5.280194479
 20
6.2427522968
 30
0.0
 10
5.2799464839
 20
6.2427682405
 30
0.0
  0
SPLINE
  5
2C7
100
AcDbEntity
  8
0
100
AcDbSpline
 62
7
  6
CONTINUOUS
 70
0
 71
3
 72
17
 73
13
 74
0
 42
0.0000001
 43
0.0000001
 44
0.0000000001
 40
0.0
 40
0.0
 40
0.0
 40
0.0
 40
0.1738052425
 40
0.3428771912
 40
0.5015486234
 40
0.6453196666
 40
0.7701405374
 40
0.8725942312
 40
0.914472837
 40
0.9497657984
 40
0.9783039499
 40
1.0
 40
1.0
 40
1.0
 40
1.0
 10
4.9927724128
 20
2.7289385309
 30
0.0
 10
4.9944728424
 20
2.7288150689
 30
0.0
 10
4.9978294117
 20
2.7285985021
 30
0.0
 10
5.0027437418
 20
2.7283609426
 30
0.0
 10
5.0073671156
 20
2.7282212558
 30
0.0
 10
5.0115585095
 20
2.7281812343
 30
0.0
 10
5.0151980336
 20
2.7282425673
 30
0.0
 10
5.0178359096
 20
2.7283788901
 30
0.0
 10
5.0195897462
 20
2.7285509388
 30
0.0
 10
5.0206173937
 20
2.7286933872
 30
0.0
 10
5.0214406943
 20
2.7288558257
 30
0.0
 10
5.0219157358
 20
2.7289933378
 30
0.0
 10
5.0221134389
 20
2.7290721226
 30
0.0
  0
SPLINE
  5
2C8
100
AcDbEntity
  8
0
100
AcDbSpline
 62
7
  6
CONTINUOUS
 70
0
 71
3
 72
11
 73
7
 74
0
 42
0.0000001
 43
0.0000001
 44
0.0000000001
 40
0.0
 40
0.0
 40
0.0
 40
0.0
 40
0.235990652
 40
0.4838620091
 40
0.7399463915
 40
1.0
 40
1.0
 40
1.0
 40
1.0
 10
5.2676503636
 20
6.243026649
 30
0.0
 10
5.2665213644
 20
6.2430008805
 30
0.0
 10
5.2642055478
 20
6.2430048055
 30
0.0
 10
5.2606648832
 20
6.2430326605
 30
0.0
 10
5.2570086434
 20
6.242980601
 30
0.0
 10
5.2545412218
 20
6.2428530336
 30
0.0
 10
5.2533000938
 20
6.2427622684
 30
0.0
  0
SPLINE
  5
2C9
100
AcDbEntity
  8
0
100
AcDbSpline
 62
7
  6
CONTINUOUS
 70
0
 71
3
 72
10
 73
6
 74
0
 42
0.0000001
 43
0.0000001
 44
0.0000000001
 40
0.0
 40
0.0
 40
0.0
 40
0.0
 40
0.1956230887
 40
0.4304977605
 40
1.0
 40
1.0
 40
1.0
 40
1.0
 10
5.2792567853
 20
6.2428211927
 30
0.0
 10
5.2785025681
 20
6.2428888711
 30
0.0
 10
5.2768387896
 20
6.2429929578
 30
0.0
 10
5.2729691246
 20
6.2431058218
 30
0.0
 10
5.2698543114
 20
6.243076701
 30
0.0
 10
5.2676503636
 20
6.243026649
 30
0.0
  0
SPLINE
  5
2CA
100
AcDbEntity
  8
0
100
AcDbSpline
 62
7
  6
CONTINUOUS
 70
0
 71
3
 72
11
 73
7
 74
0
 42
0.0000001
 43
0.0000001
 44
0.0000000001
 40
0.0
 40
0.0
 40
0.0
 40
0.0
 40
0.2488212265
 40
0.4995694907
 40
0.7505598723
 40
1.0
 40
1.0
 40
1.0
 40
1.0
 10
4.9927724127
 20
2.7022096451
 30
0.0
 10
4.9963424347
 20
2.702317349
 30
0.0
 10
5.0035320585
 20
2.7038587111
 30
0.0
 10
5.0128032942
 20
2.7097607406
 30
0.0
 10
5.0195022324
 20
2.7184839351
 30
0.0
 10
5.0216825245
 20
2.7255176171
 30
0.0
 10
5.0221134389
 20
2.7290721226
 30
0.0
  0
SPLINE
  5
2CB
100
AcDbEntity
  8
0
100
AcDbSpline
 62
7
  6
CONTINUOUS
 70
0
 71
3
 72
11
 73
7
 74
0
 42
0.0000001
 43
0.0000001
 44
0.0000000001
 40
0.0
 40
0.0
 40
0.0
 40
0.0
 40
0.2483429597
 40
0.4985167945
 40
0.7495219561
 40
1.0
 40
1.0
 40
1.0
 40
1.0
 10
5.0818467554
 20
2.6132037167
 30
0.0
 10
5.0847818628
 20
2.6132923125
 30
0.0
 10
5.0906818282
 20
2.6143595519
 30
0.0
 10
5.0986829548
 20
2.6184439042
 30
0.0
 10
5.10521196
 20
2.6246489983
 30
0.0
 10
5.1082151139
 20
2.6298761017
 30
0.0
 10
5.1093005398
 20
2.6326317245
 30
0.0
  0
SPLINE
  5
2CC
100
AcDbEntity
  8
0
100
AcDbSpline
 62
7
  6
CONTINUOUS
 70
0
 71
3
 72
9
 73
5
 74
0
 42
0.0000001
 43
0.0000001
 44
0.0000000001
 40
0.0
 40
0.0
 40
0.0
 40
0.0
 40
0.2514183997
 40
1.0
 40
1.0
 40
1.0
 40
1.0
 10
5.1093005398
 20
2.6326317245
 30
0.0
 10
5.1095788451
 20
2.6333382714
 30
0.0
 10
5.1105796667
 20
2.6361890743
 30
0.0
 10
5.1111545134
 20
2.6391901428
 30
0.0
 10
5.1113220177
 20
2.6414449416
 30
0.0
  0
SPLINE
  5
2CD
100
AcDbEntity
  8
0
100
AcDbSpline
 62
7
  6
CONTINUOUS
 70
0
 71
3
 72
10
 73
6
 74
0
 42
0.0000001
 43
0.0000001
 44
0.0000000001
 40
0.0
 40
0.0
 40
0.0
 40
0.0
 40
0.5693857866
 40
0.8043172315
 40
1.0
 40
1.0
 40
1.0
 40
1.0
 10
4.302690982
 20
6.2430266503
 30
0.0
 10
4.3004875369
 20
6.243076929
 30
0.0
 10
4.2973730181
 20
6.2431054162
 30
0.0
 10
4.293503427
 20
6.242993124
 30
0.0
 10
4.2918392223
 20
6.2428890396
 30
0.0
 10
4.2910848067
 20
6.2428211667
 30
0.0
  0
SPLINE
  5
2CE
100
AcDbEntity
  8
0
100
AcDbSpline
 62
7
  6
CONTINUOUS
 70
0
 71
3
 72
12
 73
8
 74
0
 42
0.0000001
 43
0.0000001
 44
0.0000000001
 40
0.0
 40
0.0
 40
0.0
 40
0.0
 40
0.2512864342
 40
0.3767866709
 40
0.5021045671
 40
0.7519075252
 40
1.0
 40
1.0
 40
1.0
 40
1.0
 10
5.1305831071
 20
3.2529437993
 30
0.0
 10
5.131826782
 20
3.2515373858
 30
0.0
 10
5.1335031215
 20
3.249249673
 30
0.0
 10
5.135280902
 20
3.2459420039
 30
0.0
 10
5.1367434389
 20
3.2424940509
 30
0.0
 10
5.1379501791
 20
3.2379680728
 30
0.0
 10
5.1382288624
 20
3.2342331775
 30
0.0
 10
5.1381895114
 20
3.2323800327
 30
0.0
  0
SPLINE
  5
2CF
100
AcDbEntity
  8
0
100
AcDbSpline
 62
7
  6
CONTINUOUS
 70
0
 71
3
 72
14
 73
10
 74
0
 42
0.0000001
 43
0.0000001
 44
0.0000000001
 40
0.0
 40
0.0
 40
0.0
 40
0.0
 40
0.1257057613
 40
0.251331139
 40
0.3768556235
 40
0.5022370711
 40
0.6274614407
 40
0.7524521303
 40
1.0
 40
1.0
 40
1.0
 40
1.0
 10
5.122937469
 20
3.2529149511
 30
0.0
 10
5.1238788468
 20
3.2521908467
 30
0.0
 10
5.1256795061
 20
3.2506332797
 30
0.0
 10
5.1280883099
 20
3.2480008882
 30
0.0
 10
5.1301746114
 20
3.2451095165
 30
0.0
 10
5.1319115746
 20
3.2420003406
 30
0.0
 10
5.1332690638
 20
3.2387117626
 30
0.0
 10
5.1345385792
 20
3.2341763099
 30
0.0
 10
5.1348913852
 20
3.2306307847
 30
0.0
 10
5.1348383311
 20
3.2282925841
 30
0.0
  0
SPLINE
  5
2D0
100
AcDbEntity
  8
0
100
AcDbSpline
 62
7
  6
CONTINUOUS
 70
0
 71
3
 72
16
 73
12
 74
0
 42
0.0000001
 43
0.0000001
 44
0.0000000001
 40
0.0
 40
0.0
 40
0.0
 40
0.0
 40
0.4175752561
 40
0.5840444761
 40
0.7208823131
 40
0.8277845778
 40
0.9055222807
 40
0.9345971569
 40
0.9584799381
 40
0.9792554861
 40
1.0
 40
1.0
 40
1.0
 40
1.0
 10
4.2910848067
 20
6.2428211667
 30
0.0
 10
4.2905233049
 20
6.2427706032
 30
0.0
 10
4.2897353693
 20
6.2427290179
 30
0.0
 10
4.2887628987
 20
6.2426943675
 30
0.0
 10
4.288209497
 20
6.2426657456
 30
0.0
 10
4.2877779841
 20
6.2426215647
 30
0.0
 10
4.2874939005
 20
6.2425577544
 30
0.0
 10
4.2873344972
 20
6.2424799375
 30
0.0
 10
4.2872563856
 20
6.2424160061
 30
0.0
 10
4.287210304
 20
6.2423380007
 30
0.0
 10
4.2872043225
 20
6.2422804755
 30
0.0
 10
4.2872061594
 20
6.2422525284
 30
0.0
  0
SPLINE
  5
2D1
100
AcDbEntity
  8
0
100
AcDbSpline
 62
7
  6
CONTINUOUS
 70
0
 71
3
 72
11
 73
7
 74
0
 42
0.0000001
 43
0.0000001
 44
0.0000000001
 40
0.0
 40
0.0
 40
0.0
 40
0.0
 40
0.2599829727
 40
0.5159859399
 40
0.7639493022
 40
1.0
 40
1.0
 40
1.0
 40
1.0
 10
4.3170413467
 20
6.2427623133
 30
0.0
 10
4.3158005465
 20
6.242853051
 30
0.0
 10
4.3133338651
 20
6.2429813082
 30
0.0
 10
4.3096778608
 20
6.2430323115
 30
0.0
 10
4.3061368383
 20
6.243004675
 30
0.0
 10
4.3038202768
 20
6.24300088
 30
0.0
 10
4.302690982
 20
6.2430266503
 30
0.0
  0
SPLINE
  5
2D2
100
AcDbEntity
  8
0
100
AcDbSpline
 62
7
  6
CONTINUOUS
 70
0
 71
3
 72
17
 73
13
 74
0
 42
0.0000001
 43
0.0000001
 44
0.0000000001
 40
0.0
 40
0.0
 40
0.0
 40
0.0
 40
0.17380523
 40
0.3428771608
 40
0.5015485823
 40
0.645319623
 40
0.7701404893
 40
0.8725941828
 40
0.9144727969
 40
0.9497657725
 40
0.9783039402
 40
1.0
 40
1.0
 40
1.0
 40
1.0
 10
4.5775692021
 20
2.7289385309
 30
0.0
 10
4.5758687725
 20
2.7288150693
 30
0.0
 10
4.5725122036
 20
2.7285984986
 30
0.0
 10
4.567597874
 20
2.7283609304
 30
0.0
 10
4.5629745002
 20
2.728221244
 30
0.0
 10
4.5587831061
 20
2.7281812263
 30
0.0
 10
4.555143582
 20
2.7282425594
 30
0.0
 10
4.5525057057
 20
2.7283788823
 30
0.0
 10
4.550751869
 20
2.7285509336
 30
0.0
 10
4.5497242213
 20
2.7286933843
 30
0.0
 10
4.5489009207
 20
2.7288558247
 30
0.0
 10
4.5484258792
 20
2.7289933377
 30
0.0
 10
4.548228176
 20
2.7290721226
 30
0.0
  0
SPLINE
  5
2D3
100
AcDbEntity
  8
0
100
AcDbSpline
 62
7
  6
CONTINUOUS
 70
0
 71
3
 72
11
 73
7
 74
0
 42
0.0000001
 43
0.0000001
 44
0.0000000001
 40
0.0
 40
0.0
 40
0.0
 40
0.0
 40
0.2488212339
 40
0.4995694865
 40
0.7505598771
 40
1.0
 40
1.0
 40
1.0
 40
1.0
 10
4.5775692022
 20
2.7022096451
 30
0.0
 10
4.5739991801
 20
2.702317349
 30
0.0
 10
4.5668095563
 20
2.7038587112
 30
0.0
 10
4.5575383206
 20
2.7097607406
 30
0.0
 10
4.5508393825
 20
2.7184839351
 30
0.0
 10
4.5486590904
 20
2.7255176172
 30
0.0
 10
4.548228176
 20
2.7290721226
 30
0.0
  0
SPLINE
  5
2D4
100
AcDbEntity
  8
0
100
AcDbSpline
 62
7
  6
CONTINUOUS
 70
0
 71
3
 72
11
 73
7
 74
0
 42
0.0000001
 43
0.0000001
 44
0.0000000001
 40
0.0
 40
0.0
 40
0.0
 40
0.0
 40
0.2483429593
 40
0.4985167907
 40
0.7495219519
 40
1.0
 40
1.0
 40
1.0
 40
1.0
 10
4.4884948595
 20
2.6132037167
 30
0.0
 10
4.4855597552
 20
2.6132923124
 30
0.0
 10
4.479659796
 20
2.6143595497
 30
0.0
 10
4.4716586763
 20
2.6184438939
 30
0.0
 10
4.4651296734
 20
2.6246489763
 30
0.0
 10
4.4621265171
 20
2.6298760709
 30
0.0
 10
4.4610410889
 20
2.6326316895
 30
0.0
  0
SPLINE
  5
2D5
100
AcDbEntity
  8
0
100
AcDbSpline
 62
7
  6
CONTINUOUS
 70
0
 71
3
 72
9
 73
5
 74
0
 42
0.0000001
 43
0.0000001
 44
0.0000000001
 40
0.0
 40
0.0
 40
0.0
 40
0.0
 40
0.2514184047
 40
1.0
 40
1.0
 40
1.0
 40
1.0
 10
4.4610410889
 20
2.6326316895
 30
0.0
 10
4.4607627816
 20
2.633338239
 30
0.0
 10
4.4597619528
 20
2.6361890526
 30
0.0
 10
4.4591871022
 20
2.6391901335
 30
0.0
 10
4.4590195972
 20
2.6414449416
 30
0.0
  0
SPLINE
  5
2D6
100
AcDbEntity
  8
0
100
AcDbSpline
 62
7
  6
CONTINUOUS
 70
0
 71
3
 72
12
 73
8
 74
0
 42
0.0000001
 43
0.0000001
 44
0.0000000001
 40
0.0
 40
0.0
 40
0.0
 40
0.0
 40
0.2513332223
 40
0.5019028405
 40
0.627053795
 40
0.7519963261
 40
1.0
 40
1.0
 40
1.0
 40
1.0
 10
4.4420486145
 20
3.2552731148
 30
0.0
 10
4.44046209
 20
3.2538213645
 30
0.0
 10
4.4375868512
 20
3.2505823247
 30
0.0
 10
4.434928735
 20
3.2458738483
 30
0.0
 10
4.4334370313
 20
3.2418499255
 30
0.0
 10
4.432391894
 20
3.2377123322
 30
0.0
 10
4.4321070534
 20
3.2345015629
 30
0.0
 10
4.4321521036
 20
3.2323800327
 30
0.0
  0
SPLINE
  5
2D7
100
AcDbEntity
  8
0
100
AcDbSpline
 62
7
  6
CONTINUOUS
 70
0
 71
3
 72
14
 73
10
 74
0
 42
0.0000001
 43
0.0000001
 44
0.0000000001
 40
0.0
 40
0.0
 40
0.0
 40
0.0
 40
0.1257057139
 40
0.2513310607
 40
0.3768555311
 40
0.5022369827
 40
0.6274613804
 40
0.7524521127
 40
1.0
 40
1.0
 40
1.0
 40
1.0
 10
4.4474045354
 20
3.2529152524
 30
0.0
 10
4.44646313
 20
3.2521911509
 30
0.0
 10
4.4446624165
 20
3.2506335844
 30
0.0
 10
4.442253537
 20
3.2480011792
 30
0.0
 10
4.4401671672
 20
3.2451097809
 30
0.0
 10
4.4384301452
 20
3.2420005667
 30
0.0
 10
4.4370726093
 20
3.2387119403
 30
0.0
 10
4.4358030489
 20
3.2341764144
 30
0.0
 10
4.4354502287
 20
3.2306308266
 30
0.0
 10
4.4355032838
 20
3.2282925853
 30
0.0
  0
ENDSEC
  0
SECTION
  2
OBJECTS
  0
DICTIONARY
  5
C
100
AcDbDictionary
280
0
281
1
  3
ACAD_GROUP
350
D
  3
ACAD_MLINESTYLE
350
17
  3
ACAD_LAYOUT
350
1A
  3
ACAD_PLOTSETTINGS
350
19
  3
ACAD_PLOTSTYLENAME
350
E
  0
DICTIONARY
  5
D
102
{ACAD_REACTORS
330
C
102
}
100
AcDbDictionary
280
0
281
1
  0
ACDBDICTIONARYWDFLT
  5
E
102
{ACAD_REACTORS
330
C
102
}
100
AcDbDictionary
281
1
  3
Normal
350
F
100
AcDbDictionaryWithDefault
340
F
  0
DICTIONARY
  5
17
102
{ACAD_REACTORS
330
C
102
}
100
AcDbDictionary
280
0
281
1
  3
Standard
350
18
  0
DICTIONARY
  5
19
102
{ACAD_REACTORS
330
C
102
}
100
AcDbDictionary
281
1
  0
DICTIONARY
  5
1A
102
{ACAD_REACTORS
330
C
102
}
100
AcDbDictionary
281
1
  3
Model
350
2D8
  3
Layout1
350
2D9
  0
ACDBPLACEHOLDER
  5
F
102
{ACAD_REACTORS
330
E
102
}
  0
MLINESTYLE
  5
18
102
{ACAD_REACTORS
330
17
102
}
100
AcDbMlineStyle
  2
STANDARD
 70
0
  3

 62
256
 51
90.0
 52
90.0
 71
2
 49
0.5
 62
256
  6
BYLAYER
 49
-0.5
 62
256
  6
BYLAYER
  0
LAYOUT
  5
2D8
102
{ACAD_REACTORS
330
1A
102
}
100
AcDbPlotSettings
  1

  2
none_device
  4
ANSI_A_(11.00_x_8.50_Inches)
  6

 40
0.0
 41
0.0
 42
0.0
 43
0.0
 44
279.4
 45
215.9
 46
0.0
 47
0.0
 48
0.0
 49
0.0
140
0.0
141
0.0
142
1.0
143
1.0
 70
1024
 72
0
 73
0
 74
0
  7

 75
0
147
1.0
148
0.0
149
0.0
100
AcDbLayout
  1
Model
 70
0
 71
0
 10
0.0
 20
0.0
 11
11.0
 21
8.5
 12
0.0
 22
0.0
 32
0.0
 14
0.0
 24
0.0
 34
0.0
 15
0.0
 25
0.0
 35
0.0
146
0.0
 13
0.0
 23
0.0
 33
0.0
 16
1.0
 26
0.0
 36
0.0
 17
0.0
 27
1.0
 37
0.0
 76
0
330
206
345
0
346
0
  0
LAYOUT
  5
2D9
102
{ACAD_REACTORS
330
1A
102
}
100
AcDbPlotSettings
  1

  2
none_device
  4
ANSI_A_(11.00_x_8.50_Inches)
  6

 40
0.0
 41
0.0
 42
0.0
 43
0.0
 44
279.4
 45
215.9
 46
0.0
 47
0.0
 48
0.0
 49
0.0
140
0.0
141
0.0
142
1.0
143
1.0
 70
0
 72
0
 73
0
 74
0
  7

 75
0
147
1.0
148
0.0
149
0.0
100
AcDbLayout
  1
Layout1
 70
0
 71
1
 10
0.0
 20
0.0
 11
11.0
 21
8.5
 12
0.0
 22
0.0
 32
0.0
 14
0.0
 24
0.0
 34
0.0
 15
0.0
 25
0.0
 35
0.0
146
0.0
 13
0.0
 23
0.0
 33
0.0
 16
1.0
 26
0.0
 36
0.0
 17
0.0
 27
1.0
 37
0.0
 76
0
330
207
345
0
346
0
  0
ENDSEC
  0
EOF
