999
DXF file: E:\BT Custom\CADOUTPUT\_FRONT.dxf
999
Pro/ENGINEER 2018400 by Parametric Technology Corporation
  0
SECTION
  2
HEADER
  9
$ACADVER
  1
AC1018
  9
$DWGCODEPAGE
  3
ANSI_1252
  9
$EXTMAX
 10
22.0
 20
17.0
 30
0.0
  9
$EXTMIN
 10
0.0
 20
0.0
 30
0.0
  9
$LIMMIN
 10
0.0
 20
0.0
  9
$LIMMAX
 10
22.0
 20
17.0
  9
$VIEWCTR
 10
11.0
 20
8.5
  9
$VIEWSIZE
 40
17.0
  9
$CLAYER
  8
0
  9
$LTSCALE
 40
1.21
  9
$CELTYPE
  6
BYLAYER
  9
$DIMSCALE
 40
1.0
  9
$DIMASZ
 40
0.1
  9
$DIMEXO
 40
0.0625
  9
$DIMDLI
 40
0.836
  9
$DIMEXE
 40
0.125
  9
$DIMCEN
 40
0.198
  9
$DIMLFAC
 40
1.0
  9
$DIMBLK
  1
_FILLED
  9
$DIMALT
 70
1
  9
$DIMALTD
 70
2
  9
$DIMALTTD
 70
2
  9
$DIMALTF
 40
25.4
  9
$DIMTXT
 40
0.08
  9
$DIMTOL
 70
1
  9
$DIMLIM
 70
0
  9
$DIMTFAC
 40
1.0
  9
$DIMTP
 40
0.001
  9
$DIMTM
 40
0.001
  9
$DIMGAP
 40
0.09
  9
$DIMDSEP
 70
46
  9
$AUNITS
 70
0
  9
$PDMODE
 70
3
  9
$PDSIZE
 40
0.06
  9
$HANDSEED
  5
285
  9
$TILEMODE
 70
1
  9
$MEASUREMENT
 70
0
  9
$INSUNITS
 70
1
  0
ENDSEC
  0
SECTION
  2
CLASSES
  0
CLASS
  1
ACDBDICTIONARYWDFLT
  2
AcDbDictionaryWithDefault
  3
AutoCAD 2000
 90
0
 91
1
280
0
281
0
  0
CLASS
  1
ACDBPLACEHOLDER
  2
AcDbPlaceHolder
  3
AutoCAD 2000
 90
0
 91
1
280
0
281
0
  0
CLASS
  1
LAYOUT
  2
AcDbLayout
  3
AutoCAD 2000
 90
0
 91
0
280
0
281
0
  0
ENDSEC
  0
SECTION
  2
TABLES
  0
TABLE
  2
VPORT
  5
8
100
AcDbSymbolTable
 70
2
  0
VPORT
  5
1F4
100
AcDbSymbolTableRecord
100
AcDbViewportTableRecord
  2
*ACTIVE
 70
0
 10
0.0
 20
0.0
 11
1.0
 21
1.0
 12
11.0
 22
8.5
 13
0.0
 23
0.0
 14
1.0
 24
1.0
 15
0.0
 25
0.0
 16
0.0
 26
0.0
 36
1.0
 17
0.0
 27
0.0
 37
0.0
 40
17.0
 41
1.2941176471
 42
50.0
 43
0.0
 44
0.0
 50
0.0
 51
0.0
 71
0
 72
100
 73
1
 74
1
 75
0
 76
0
 77
0
 78
0
  0
ENDTAB
  0
TABLE
  2
LTYPE
  5
5
100
AcDbSymbolTable
 70
6
  0
LTYPE
  5
14
100
AcDbSymbolTableRecord
100
AcDbLinetypeTableRecord
  2
BYBLOCK
 70
0
  3

 72
65
 73
0
 40
0.0
  0
LTYPE
  5
15
100
AcDbSymbolTableRecord
100
AcDbLinetypeTableRecord
  2
BYLAYER
 70
0
  3

 72
65
 73
0
 40
0.0
  0
LTYPE
  5
16
100
AcDbSymbolTableRecord
100
AcDbLinetypeTableRecord
  2
CONTINUOUS
 70
64
  3
Solid line
 72
65
 73
0
 40
0.0
  0
LTYPE
  5
1F5
100
AcDbSymbolTableRecord
100
AcDbLinetypeTableRecord
  2
CENTER
 70
64
  3
____ _ ____ _ ____ _ ____ _ ____ _ ____ _ ____
 72
65
 73
4
 40
0.6
 49
0.375
 74
0
 49
-0.075
 74
0
 49
0.075
 74
0
 49
-0.075
 74
0
  0
LTYPE
  5
1F6
100
AcDbSymbolTableRecord
100
AcDbLinetypeTableRecord
  2
HIDDEN
 70
64
  3
- - - - - - - - - - - - - - - - - - - -
 72
65
 73
2
 40
0.2
 49
0.1
 74
0
 49
-0.1
 74
0
  0
LTYPE
  5
1F7
100
AcDbSymbolTableRecord
100
AcDbLinetypeTableRecord
  2
PHANTOM
 70
64
  3
_____ _ _ _____ _ _ _____ _ _ _____
 72
65
 73
6
 40
0.8
 49
0.45
 74
0
 49
-0.05
 74
0
 49
0.1
 74
0
 49
-0.05
 74
0
 49
0.1
 74
0
 49
-0.05
 74
0
  0
LTYPE
  5
1F8
100
AcDbSymbolTableRecord
100
AcDbLinetypeTableRecord
  2
DOT
 70
64
  3
. . . . . . . . . . . . . . . . . . . .
 72
65
 73
2
 40
0.2
 49
0.1
 74
0
 49
-0.1
 74
0
  0
LTYPE
  5
1F9
100
AcDbSymbolTableRecord
100
AcDbLinetypeTableRecord
  2
DASHED
 70
64
  3
- - - - - - - - - - - - - - - - - - - -
 72
65
 73
2
 40
0.2
 49
0.1
 74
0
 49
-0.1
 74
0
  0
ENDTAB
  0
TABLE
  2
LAYER
  5
2
100
AcDbSymbolTable
 70
36
  0
LAYER
  5
10
100
AcDbSymbolTableRecord
100
AcDbLayerTableRecord
  2
0
 70
0
 62
7
  6
CONTINUOUS
370
-3
390
F
  0
LAYER
  5
1FA
100
AcDbSymbolTableRecord
100
AcDbLayerTableRecord
  2
DEFAULT_1
 70
0
 62
7
  6
CENTER
370
-3
390
F
  0
LAYER
  5
1FB
100
AcDbSymbolTableRecord
100
AcDbLayerTableRecord
  2
DEFAULT_2
 70
0
 62
8
  6
HIDDEN
370
-3
390
F
  0
LAYER
  5
1FC
100
AcDbSymbolTableRecord
100
AcDbLayerTableRecord
  2
DEFAULT_3
 70
0
 62
7
  6
PHANTOM
370
-3
390
F
  0
LAYER
  5
1FD
100
AcDbSymbolTableRecord
100
AcDbLayerTableRecord
  2
ALL_FEATURES
 70
0
 62
7
  6
CONTINUOUS
370
-3
390
F
  0
LAYER
  5
1FE
100
AcDbSymbolTableRecord
100
AcDbLayerTableRecord
  2
AXES_FEATURES
 70
0
 62
7
  6
CONTINUOUS
370
-3
390
F
  0
LAYER
  5
1FF
100
AcDbSymbolTableRecord
100
AcDbLayerTableRecord
  2
DIMENSIONS
 70
0
 62
7
  6
CONTINUOUS
370
-3
390
F
  0
ENDTAB
  0
TABLE
  2
STYLE
  5
3
100
AcDbSymbolTable
 70
1
  0
STYLE
  5
11
100
AcDbSymbolTableRecord
100
AcDbTextStyleTableRecord
  2
STANDARD
 70
0
 40
0.0
 41
0.8
 50
0.0
 71
0
 42
0.2
  3
txt
  4

  0
STYLE
  5
200
100
AcDbSymbolTableRecord
100
AcDbTextStyleTableRecord
  2
TEXTSTYLE_1
 70
0
 40
0.0
 41
0.8
 50
0.0
 71
0
 42
0.2
  3
gdt
  4

  0
ENDTAB
  0
TABLE
  2
VIEW
  5
6
100
AcDbSymbolTable
 70
0
  0
ENDTAB
  0
TABLE
  2
UCS
  5
7
100
AcDbSymbolTable
 70
0
  0
ENDTAB
  0
TABLE
  2
APPID
  5
9
100
AcDbSymbolTable
 70
1
  0
APPID
  5
201
100
AcDbSymbolTableRecord
100
AcDbRegAppTableRecord
  2
ACAD
 70
0
  0
ENDTAB
  0
TABLE
  2
BLOCK_RECORD
  5
1
100
AcDbSymbolTable
 70
0
  0
BLOCK_RECORD
  5
202
100
AcDbSymbolTableRecord
100
AcDbBlockTableRecord
  2
*Model_Space
  0
BLOCK_RECORD
  5
203
100
AcDbSymbolTableRecord
100
AcDbBlockTableRecord
  2
*Paper_Space
  0
BLOCK_RECORD
  5
204
100
AcDbSymbolTableRecord
100
AcDbBlockTableRecord
  2
_FILLED
  0
ENDTAB
  0
TABLE
  2
DIMSTYLE
  5
A
100
AcDbSymbolTable
 70
1
100
AcDbDimStyleTable
 71
0
  0
DIMSTYLE
105
205
100
AcDbSymbolTableRecord
100
AcDbDimStyleTableRecord
  2
STANDARD
 70
0
  3

  4

 40
1.0
 41
0.1
 42
0.0625
 43
0.38
 44
0.125
 45
0.0
 46
0.0
 47
0.001
 48
0.001
140
0.08
141
0.09
142
0.0
143
25.4
144
1.0
145
0.0
146
1.0
147
0.09
 71
1.0
 72
0.0
 73
1
 74
1
 75
0
 76
0
 77
0
 78
4
 79
1
170
1
171
2
172
0
173
0
174
0
175
0
176
0
177
0
178
0
270
2
179
3
271
3
272
3
273
2
274
2
275
0
280
0
281
0
282
0
283
1
284
4
285
0
286
0
287
3
288
0
340
11
278
46
341
204
342
204
343
204
344
204
  0
ENDTAB
  0
ENDSEC
  0
SECTION
  2
BLOCKS
  0
BLOCK
  5
20
100
AcDbEntity
  8
0
100
AcDbBlockBegin
  2
*Model_Space
 70
0
 10
0.0
 20
0.0
 30
0.0
  3
*Model_Space
  1

  0
ENDBLK
  5
21
100
AcDbEntity
  8
0
100
AcDbBlockEnd
  0
BLOCK
  5
1C
100
AcDbEntity
  8
0
100
AcDbBlockBegin
  2
*Paper_Space
 70
0
 10
0.0
 20
0.0
 30
0.0
  3
*Paper_Space
  1

  0
ENDBLK
  5
1D
100
AcDbEntity
  8
0
100
AcDbBlockEnd
  0
BLOCK
  5
206
100
AcDbEntity
  8
0
100
AcDbBlockBegin
  2
_FILLED
 70
64
 10
0.0
 20
0.0
  3
_FILLED
  1

  0
SOLID
  5
207
100
AcDbEntity
  8
0
  6
BYBLOCK
 62
0
100
AcDbTrace
 10
0.0
 20
0.0
 11
-1.0
 21
0.2
 12
-1.0
 22
-0.2
 13
-1.0
 23
-0.2
  0
ENDBLK
  5
208
100
AcDbEntity
  8
0
  6
BYBLOCK
 62
0
100
AcDbBlockEnd
  0
ENDSEC
  0
SECTION
  2
ENTITIES
  0
LINE
  5
209
100
AcDbEntity
  8
0
100
AcDbLine
 62
7
  6
CONTINUOUS
 10
8.8351923427
 20
7.4671695021
 11
8.8351923427
 21
7.3871695021
  0
LINE
  5
20A
100
AcDbEntity
  8
0
100
AcDbLine
 62
7
  6
CONTINUOUS
 10
9.0401923427
 20
7.7071695021
 11
9.0401923427
 21
7.6371695021
  0
LINE
  5
20B
100
AcDbEntity
  8
0
100
AcDbLine
 62
7
  6
CONTINUOUS
 10
8.8351923427
 20
7.3871695021
 11
10.9451923427
 21
7.3871695021
  0
LINE
  5
20C
100
AcDbEntity
  8
0
100
AcDbLine
 62
7
  6
CONTINUOUS
 10
9.2251923427
 20
8.1371695021
 11
9.2251923427
 21
8.0651695021
  0
LINE
  5
20D
100
AcDbEntity
  8
0
100
AcDbLine
 62
7
  6
CONTINUOUS
 10
9.2251923427
 20
7.9091695021
 11
9.2251923427
 21
7.8371695021
  0
LINE
  5
20E
100
AcDbEntity
  8
0
100
AcDbLine
 62
9
  6
CONTINUOUS
 10
10.9451923427
 20
7.4671695021
 11
8.8351923427
 21
7.4671695021
  0
LINE
  5
20F
100
AcDbEntity
  8
0
100
AcDbLine
 62
7
  6
CONTINUOUS
 10
9.2731923427
 20
7.8371695021
 11
9.2731923427
 21
7.8062104589
  0
LINE
  5
210
100
AcDbEntity
  8
0
100
AcDbLine
 62
7
  6
CONTINUOUS
 10
9.3301923427
 20
9.8378655171
 11
9.3301923427
 21
8.1671695021
  0
LINE
  5
211
100
AcDbEntity
  8
0
100
AcDbLine
 62
7
  6
CONTINUOUS
 10
10.3010784576
 20
10.739053221
 11
10.4310861441
 21
10.8300855831
  0
LINE
  5
212
100
AcDbEntity
  8
0
100
AcDbLine
 62
7
  6
CONTINUOUS
 10
10.7751923427
 20
7.6371695021
 11
9.0051923427
 21
7.6371695021
  0
LINE
  5
213
100
AcDbEntity
  8
0
100
AcDbLine
 62
7
  6
CONTINUOUS
 10
10.7401923427
 20
7.7071695021
 11
9.0401923427
 21
7.7071695021
  0
LINE
  5
214
100
AcDbEntity
  8
0
100
AcDbLine
 62
7
  6
CONTINUOUS
 10
9.5331923427
 20
10.8391695021
 11
9.5331923427
 21
10.8891695021
  0
LINE
  5
215
100
AcDbEntity
  8
0
100
AcDbLine
 62
7
  6
CONTINUOUS
 10
9.5331923427
 20
11.0090470404
 11
9.5331923427
 21
11.0590470404
  0
LINE
  5
216
100
AcDbEntity
  8
0
100
AcDbLine
 62
7
  6
CONTINUOUS
 10
9.5901923427
 20
11.0690470404
 11
9.5901923427
 21
11.069891085
  0
LINE
  5
217
100
AcDbEntity
  8
0
100
AcDbLine
 62
7
  6
CONTINUOUS
 10
9.6051923427
 20
10.2170403802
 11
9.6051923427
 21
10.8291695021
  0
LINE
  5
218
100
AcDbEntity
  8
0
100
AcDbLine
 62
7
  6
CONTINUOUS
 10
9.2731923427
 20
7.8062104589
 11
10.5071923427
 21
7.8062104589
  0
LINE
  5
219
100
AcDbEntity
  8
0
100
AcDbLine
 62
7
  6
CONTINUOUS
 10
9.2251923427
 20
7.8371695021
 11
10.5551923427
 21
7.8371695021
  0
LINE
  5
21A
100
AcDbEntity
  8
0
100
AcDbLine
 62
7
  6
CONTINUOUS
 10
10.5551923427
 20
7.9091695021
 11
9.2251923427
 21
7.9091695021
  0
LINE
  5
21B
100
AcDbEntity
  8
0
100
AcDbLine
 62
7
  6
CONTINUOUS
 10
9.6801923427
 20
10.0971695021
 11
9.6801923427
 21
10.1241695021
  0
LINE
  5
21C
100
AcDbEntity
  8
0
100
AcDbLine
 62
7
  6
CONTINUOUS
 10
10.2093062278
 20
10.2108992702
 11
10.6490451899
 21
10.5188078062
  0
LINE
  5
21D
100
AcDbEntity
  8
0
100
AcDbLine
 62
7
  6
CONTINUOUS
 10
9.2251923427
 20
8.0651695021
 11
10.5551923427
 21
8.0651695021
  0
LINE
  5
21E
100
AcDbEntity
  8
0
100
AcDbLine
 62
7
  6
CONTINUOUS
 10
10.5551923427
 20
8.1371695021
 11
9.2251923427
 21
8.1371695021
  0
LINE
  5
21F
100
AcDbEntity
  8
0
100
AcDbLine
 62
9
  6
CONTINUOUS
 10
9.3301923427
 20
8.1671695021
 11
10.4501923427
 21
8.1671695021
  0
LINE
  5
220
100
AcDbEntity
  8
0
100
AcDbLine
 62
7
  6
CONTINUOUS
 10
10.1001923427
 20
10.0971695021
 11
10.1001923427
 21
10.1241695021
  0
LINE
  5
221
100
AcDbEntity
  8
0
100
AcDbLine
 62
7
  6
CONTINUOUS
 10
10.1751923427
 20
10.8045853846
 11
10.1751923427
 21
10.8291695021
  0
LINE
  5
222
100
AcDbEntity
  8
0
100
AcDbLine
 62
7
  6
CONTINUOUS
 10
10.1901923427
 20
11.0690470404
 11
10.1901923427
 21
11.069891085
  0
LINE
  5
223
100
AcDbEntity
  8
0
100
AcDbLine
 62
7
  6
CONTINUOUS
 10
10.2471923427
 20
10.8391695021
 11
10.2471923427
 21
10.8891695021
  0
LINE
  5
224
100
AcDbEntity
  8
0
100
AcDbLine
 62
7
  6
CONTINUOUS
 10
10.2471923427
 20
11.0090470404
 11
10.2471923427
 21
11.0590470404
  0
LINE
  5
225
100
AcDbEntity
  8
0
100
AcDbLine
 62
7
  6
CONTINUOUS
 10
10.4501923427
 20
9.8378655171
 11
10.4501923427
 21
8.1671695021
  0
LINE
  5
226
100
AcDbEntity
  8
0
100
AcDbLine
 62
7
  6
CONTINUOUS
 10
10.5071923427
 20
7.8371695021
 11
10.5071923427
 21
7.8062104589
  0
LINE
  5
227
100
AcDbEntity
  8
0
100
AcDbLine
 62
7
  6
CONTINUOUS
 10
10.5551923427
 20
8.1371695021
 11
10.5551923427
 21
8.0651695021
  0
LINE
  5
228
100
AcDbEntity
  8
0
100
AcDbLine
 62
7
  6
CONTINUOUS
 10
10.5551923427
 20
7.9091695021
 11
10.5551923427
 21
7.8371695021
  0
LINE
  5
229
100
AcDbEntity
  8
0
100
AcDbLine
 62
7
  6
CONTINUOUS
 10
10.6501923427
 20
10.494183164
 11
10.6501923427
 21
10.9241558403
  0
LINE
  5
22A
100
AcDbEntity
  8
0
100
AcDbLine
 62
9
  6
CONTINUOUS
 10
10.6701923427
 20
10.9441695021
 11
10.6701923427
 21
10.4741695021
  0
LINE
  5
22B
100
AcDbEntity
  8
0
100
AcDbLine
 62
9
  6
CONTINUOUS
 10
10.7101923427
 20
10.4741695021
 11
10.7101923427
 21
10.9441695021
  0
LINE
  5
22C
100
AcDbEntity
  8
0
100
AcDbLine
 62
7
  6
CONTINUOUS
 10
10.7301923427
 20
10.4941827695
 11
10.7301923427
 21
10.9241562348
  0
LINE
  5
22D
100
AcDbEntity
  8
0
100
AcDbLine
 62
7
  6
CONTINUOUS
 10
10.7401923427
 20
7.7071695021
 11
10.7401923427
 21
7.6371695021
  0
LINE
  5
22E
100
AcDbEntity
  8
0
100
AcDbLine
 62
7
  6
CONTINUOUS
 10
10.9451923427
 20
7.4671695021
 11
10.9451923427
 21
7.3871695021
  0
LINE
  5
22F
100
AcDbEntity
  8
0
100
AcDbLine
 62
9
  6
CONTINUOUS
 10
11.0301923427
 20
10.5051695021
 11
11.0301923427
 21
10.9131695021
  0
LINE
  5
230
100
AcDbEntity
  8
0
100
AcDbLine
 62
9
  6
CONTINUOUS
 10
10.4501923427
 20
9.8378655171
 11
9.3301923427
 21
9.8378655171
  0
LINE
  5
231
100
AcDbEntity
  8
0
100
AcDbLine
 62
9
  6
CONTINUOUS
 10
10.6490451899
 20
10.5188078062
 11
10.4310861441
 21
10.8300855831
  0
LINE
  5
232
100
AcDbEntity
  8
0
100
AcDbLine
 62
9
  6
CONTINUOUS
 10
11.5530323634
 20
10.9633290786
 11
11.5530323634
 21
10.4550099257
  0
LINE
  5
233
100
AcDbEntity
  8
0
100
AcDbLine
 62
9
  6
CONTINUOUS
 10
10.4316147765
 20
9.85781487
 11
9.348769909
 21
9.85781487
  0
LINE
  5
234
100
AcDbEntity
  8
0
100
AcDbLine
 62
7
  6
CONTINUOUS
 10
10.1148705579
 20
10.1391662333
 11
10.1148808564
 21
10.1391662677
  0
LINE
  5
235
100
AcDbEntity
  8
0
100
AcDbLine
 62
9
  6
CONTINUOUS
 10
10.1968244823
 20
10.0797149289
 11
9.5835602032
 21
10.0797149289
  0
LINE
  5
236
100
AcDbEntity
  8
0
100
AcDbLine
 62
7
  6
CONTINUOUS
 10
10.1769871235
 20
10.0971695021
 11
9.603397562
 21
10.0971695021
  0
LINE
  5
237
100
AcDbEntity
  8
0
100
AcDbLine
 62
9
  6
CONTINUOUS
 10
10.1001923427
 20
10.1241695021
 11
9.6801923427
 21
10.1241695021
  0
LINE
  5
238
100
AcDbEntity
  8
0
100
AcDbLine
 62
9
  6
CONTINUOUS
 10
9.6683502375
 20
10.138833325
 11
10.0734438391
 21
10.138833325
  0
LINE
  5
239
100
AcDbEntity
  8
0
100
AcDbLine
 62
9
  6
CONTINUOUS
 10
9.6051923427
 20
10.2170403802
 11
10.1256123993
 21
10.2170403802
  0
LINE
  5
23A
100
AcDbEntity
  8
0
100
AcDbLine
 62
9
  6
CONTINUOUS
 10
12.0601923427
 20
10.3567954047
 11
12.0601923427
 21
11.0615435996
  0
LINE
  5
23B
100
AcDbEntity
  8
0
100
AcDbLine
 62
7
  6
CONTINUOUS
 10
12.9801923427
 20
10.4641695021
 11
12.926826739
 21
10.4641695021
  0
LINE
  5
23C
100
AcDbEntity
  8
0
100
AcDbLine
 62
7
  6
CONTINUOUS
 10
10.7101923427
 20
10.4741695021
 11
10.6701923427
 21
10.4741695021
  0
LINE
  5
23D
100
AcDbEntity
  8
0
100
AcDbLine
 62
7
  6
CONTINUOUS
 10
11.0301923427
 20
10.5051695021
 11
10.7301923427
 21
10.5051695021
  0
LINE
  5
23E
100
AcDbEntity
  8
0
100
AcDbLine
 62
7
  6
CONTINUOUS
 10
11.5530323634
 20
10.4550099257
 11
12.0601923427
 21
10.3567954047
  0
LINE
  5
23F
100
AcDbEntity
  8
0
100
AcDbLine
 62
7
  6
CONTINUOUS
 10
12.4311923427
 20
10.3244089995
 11
12.4311923427
 21
11.0939300048
  0
LINE
  5
240
100
AcDbEntity
  8
0
100
AcDbLine
 62
7
  6
CONTINUOUS
 10
11.5530323634
 20
10.9633290786
 11
12.0601923427
 21
11.0615435996
  0
LINE
  5
241
100
AcDbEntity
  8
0
100
AcDbLine
 62
7
  6
CONTINUOUS
 10
9.5431923427
 20
10.8291695021
 11
10.2371923427
 21
10.8291695021
  0
LINE
  5
242
100
AcDbEntity
  8
0
100
AcDbLine
 62
9
  6
CONTINUOUS
 10
9.5331923427
 20
10.8391695021
 11
10.2471923427
 21
10.8391695021
  0
LINE
  5
243
100
AcDbEntity
  8
0
100
AcDbLine
 62
7
  6
CONTINUOUS
 10
10.2471923427
 20
10.8891695021
 11
9.5331923427
 21
10.8891695021
  0
LINE
  5
244
100
AcDbEntity
  8
0
100
AcDbLine
 62
7
  6
CONTINUOUS
 10
11.0301923427
 20
10.9131695021
 11
10.7301923427
 21
10.9131695021
  0
LINE
  5
245
100
AcDbEntity
  8
0
100
AcDbLine
 62
7
  6
CONTINUOUS
 10
10.7101923427
 20
10.9441695021
 11
10.6701923427
 21
10.9441695021
  0
LINE
  5
246
100
AcDbEntity
  8
0
100
AcDbLine
 62
7
  6
CONTINUOUS
 10
12.9801923427
 20
10.9541695021
 11
12.926826739
 21
10.9541695021
  0
LINE
  5
247
100
AcDbEntity
  8
0
100
AcDbLine
 62
7
  6
CONTINUOUS
 10
9.5331923427
 20
11.0090470404
 11
10.2471923427
 21
11.0090470404
  0
LINE
  5
248
100
AcDbEntity
  8
0
100
AcDbLine
 62
9
  6
CONTINUOUS
 10
10.2471923427
 20
11.0590470404
 11
9.5331923427
 21
11.0590470404
  0
LINE
  5
249
100
AcDbEntity
  8
0
100
AcDbLine
 62
7
  6
CONTINUOUS
 10
10.2371923427
 20
11.0690470404
 11
9.5431970244
 21
11.0690470404
  0
LINE
  5
24A
100
AcDbEntity
  8
0
100
AcDbLine
 62
9
  6
CONTINUOUS
 10
10.1901923427
 20
11.069891085
 11
9.5901923427
 21
11.069891085
  0
LINE
  5
24B
100
AcDbEntity
  8
0
100
AcDbLine
 62
9
  6
CONTINUOUS
 10
9.5957364302
 20
11.0788406478
 11
10.1846538812
 21
11.0788406478
  0
LINE
  5
24C
100
AcDbEntity
  8
0
100
AcDbLine
 62
9
  6
CONTINUOUS
 10
12.9160903106
 20
10.9572955843
 11
12.9160903106
 21
10.46104342
  0
LINE
  5
24D
100
AcDbEntity
  8
0
100
AcDbLine
 62
9
  6
CONTINUOUS
 10
12.926826739
 20
10.9541695021
 11
12.926826739
 21
10.4641695021
  0
LINE
  5
24E
100
AcDbEntity
  8
0
100
AcDbLine
 62
9
  6
CONTINUOUS
 10
12.9801923427
 20
10.4641695021
 11
12.9801923427
 21
10.9541695021
  0
LINE
  5
24F
100
AcDbEntity
  8
0
100
AcDbLine
 62
7
  6
CONTINUOUS
 10
13.0001923427
 20
10.4841841277
 11
13.0001923427
 21
10.9341548766
  0
ARC
  5
250
100
AcDbEntity
  8
0
100
AcDbCircle
 62
7
  6
CONTINUOUS
 10
9.8901923427
 20
10.4881695021
 40
0.66
100
AcDbArc
 50
63.5028148323
 51
116.4971851677
  0
ARC
  5
251
100
AcDbEntity
  8
0
100
AcDbCircle
 62
7
  6
CONTINUOUS
 10
10.6501923427
 20
10.5171695021
 40
0.382
100
AcDbArc
 50
90.0
 51
125.0000000005
  0
ARC
  5
252
100
AcDbEntity
  8
0
100
AcDbCircle
 62
7
  6
CONTINUOUS
 10
9.0362042836
 20
8.0401456205
 40
0.333
100
AcDbArc
 50
270.6861994637
 51
315.3714314577
  0
ARC
  5
253
100
AcDbEntity
  8
0
100
AcDbCircle
 62
7
  6
CONTINUOUS
 10
10.7441804019
 20
8.0401456205
 40
0.333
100
AcDbArc
 50
224.6285685423
 51
269.3138005363
  0
ARC
  5
254
100
AcDbEntity
  8
0
100
AcDbCircle
 62
7
  6
CONTINUOUS
 10
10.4497508065
 20
10.1121691199
 40
0.255
100
AcDbArc
 50
187.3119416293
 51
265.921584294
  0
ARC
  5
255
100
AcDbEntity
  8
0
100
AcDbCircle
 62
7
  6
CONTINUOUS
 10
9.330633879
 20
10.1121691199
 40
0.255
100
AcDbArc
 50
274.078415706
 51
352.6880583707
  0
ARC
  5
256
100
AcDbEntity
  8
0
100
AcDbCircle
 62
7
  6
CONTINUOUS
 10
9.0051923427
 20
7.4671695021
 40
0.17
100
AcDbArc
 50
90.0
 51
180.0
  0
ARC
  5
257
100
AcDbEntity
  8
0
100
AcDbCircle
 62
7
  6
CONTINUOUS
 10
10.7751923427
 20
7.4671695021
 40
0.17
100
AcDbArc
 50
0.0
 51
90.0
  0
ARC
  5
258
100
AcDbEntity
  8
0
100
AcDbCircle
 62
7
  6
CONTINUOUS
 10
9.3055664679
 20
7.9871695021
 40
0.112
100
AcDbArc
 50
135.8588345181
 51
224.1411654819
  0
ARC
  5
259
100
AcDbEntity
  8
0
100
AcDbCircle
 62
7
  6
CONTINUOUS
 10
10.4748182175
 20
7.9871695021
 40
0.112
100
AcDbArc
 50
315.8588345181
 51
44.1411654819
  0
ARC
  5
25A
100
AcDbEntity
  8
0
100
AcDbCircle
 62
7
  6
CONTINUOUS
 10
10.2554912469
 20
10.145101349
 40
0.080388825
100
AcDbArc
 50
125.0659112994
 51
152.4696538063
  0
ARC
  5
25B
100
AcDbEntity
  8
0
100
AcDbCircle
 62
7
  6
CONTINUOUS
 10
10.1132114897
 20
10.2191623703
 40
0.080013614
100
AcDbArc
 50
271.1954850232
 51
332.5337341936
  0
ARC
  5
25C
100
AcDbEntity
  8
0
100
AcDbCircle
 62
7
  6
CONTINUOUS
 10
9.6851923427
 20
10.2170403802
 40
0.08
100
AcDbArc
 50
180.0
 51
257.8468025309
  0
ARC
  5
25D
100
AcDbEntity
  8
0
100
AcDbCircle
 62
7
  6
CONTINUOUS
 10
10.4801923427
 20
8.1671695021
 40
0.03
100
AcDbArc
 50
180.0
 51
270.0
  0
ARC
  5
25E
100
AcDbEntity
  8
0
100
AcDbCircle
 62
7
  6
CONTINUOUS
 10
9.3001923427
 20
8.1671695021
 40
0.03
100
AcDbArc
 50
270.0
 51
360.0
  0
ARC
  5
25F
100
AcDbEntity
  8
0
100
AcDbCircle
 62
7
  6
CONTINUOUS
 10
9.3501923427
 20
9.8378655171
 40
0.02
100
AcDbArc
 50
94.0784157059
 51
180.0
  0
ARC
  5
260
100
AcDbEntity
  8
0
100
AcDbCircle
 62
7
  6
CONTINUOUS
 10
10.4301923427
 20
9.8378655171
 40
0.02
100
AcDbArc
 50
0.0
 51
85.9215842941
  0
ARC
  5
261
100
AcDbEntity
  8
0
100
AcDbCircle
 62
7
  6
CONTINUOUS
 10
10.1769871235
 20
10.0771695021
 40
0.02
100
AcDbArc
 50
7.311941628
 51
90.0
  0
ARC
  5
262
100
AcDbEntity
  8
0
100
AcDbCircle
 62
7
  6
CONTINUOUS
 10
9.603397562
 20
10.0771695021
 40
0.02
100
AcDbArc
 50
90.0
 51
172.688058372
  0
ARC
  5
263
100
AcDbEntity
  8
0
100
AcDbCircle
 62
7
  6
CONTINUOUS
 10
10.7101923427
 20
10.4941695021
 40
0.02
100
AcDbArc
 50
270.0
 51
360.0
  0
ARC
  5
264
100
AcDbEntity
  8
0
100
AcDbCircle
 62
7
  6
CONTINUOUS
 10
10.6701923427
 20
10.4941695021
 40
0.02
100
AcDbArc
 50
180.0
 51
270.0
  0
ARC
  5
265
100
AcDbEntity
  8
0
100
AcDbCircle
 62
7
  6
CONTINUOUS
 10
9.6651923427
 20
10.1241695021
 40
0.015
100
AcDbArc
 50
0.0
 51
77.8468025314
  0
ARC
  5
266
100
AcDbEntity
  8
0
100
AcDbCircle
 62
7
  6
CONTINUOUS
 10
10.1151923427
 20
10.1241695021
 40
0.015
100
AcDbArc
 50
91.1898758477
 51
180.0
  0
ARC
  5
267
100
AcDbEntity
  8
0
100
AcDbCircle
 62
7
  6
CONTINUOUS
 10
10.6501923427
 20
10.5171695021
 40
0.002
100
AcDbArc
 50
90.0
 51
125.0000000004
  0
ARC
  5
268
100
AcDbEntity
  8
0
100
AcDbCircle
 62
7
  6
CONTINUOUS
 10
10.2551954738
 20
10.804590966
 40
0.0800037519
100
AcDbArc
 50
180.0039940248
 51
304.9956334288
  0
ARC
  5
269
100
AcDbEntity
  8
0
100
AcDbCircle
 62
7
  6
CONTINUOUS
 10
10.2110351311
 20
10.9491082713
 40
0.07
100
AcDbArc
 50
301.0998839863
 51
58.9001160137
  0
ARC
  5
26A
100
AcDbEntity
  8
0
100
AcDbCircle
 62
7
  6
CONTINUOUS
 10
9.5693495544
 20
10.9491082713
 40
0.07
100
AcDbArc
 50
121.0998839863
 51
238.9001160137
  0
ARC
  5
26B
100
AcDbEntity
  8
0
100
AcDbCircle
 62
7
  6
CONTINUOUS
 10
10.7101923427
 20
10.9241695021
 40
0.02
100
AcDbArc
 50
0.0
 51
90.0
  0
ARC
  5
26C
100
AcDbEntity
  8
0
100
AcDbCircle
 62
7
  6
CONTINUOUS
 10
10.6701923427
 20
10.9241695021
 40
0.02
100
AcDbArc
 50
90.0
 51
180.0
  0
ARC
  5
26D
100
AcDbEntity
  8
0
100
AcDbCircle
 62
7
  6
CONTINUOUS
 10
9.5431923427
 20
10.8391695021
 40
0.01
100
AcDbArc
 50
180.0
 51
270.0
  0
ARC
  5
26E
100
AcDbEntity
  8
0
100
AcDbCircle
 62
7
  6
CONTINUOUS
 10
10.2371923427
 20
10.8391695021
 40
0.01
100
AcDbArc
 50
270.0
 51
360.0
  0
ARC
  5
26F
100
AcDbEntity
  8
0
100
AcDbCircle
 62
7
  6
CONTINUOUS
 10
10.2371923427
 20
11.0590470404
 40
0.01
100
AcDbArc
 50
0.0
 51
90.0
  0
ARC
  5
270
100
AcDbEntity
  8
0
100
AcDbCircle
 62
7
  6
CONTINUOUS
 10
9.5431923427
 20
11.0590470404
 40
0.01
100
AcDbArc
 50
90.0
 51
180.0
  0
ARC
  5
271
100
AcDbEntity
  8
0
100
AcDbCircle
 62
7
  6
CONTINUOUS
 10
9.6001923427
 20
11.069891085
 40
0.01
100
AcDbArc
 50
116.4971851667
 51
180.0
  0
ARC
  5
272
100
AcDbEntity
  8
0
100
AcDbCircle
 62
7
  6
CONTINUOUS
 10
10.1801923427
 20
11.069891085
 40
0.01
100
AcDbArc
 50
0.0
 51
63.5028148333
  0
ARC
  5
273
100
AcDbEntity
  8
0
100
AcDbCircle
 62
7
  6
CONTINUOUS
 10
11.0301923427
 20
7.7551695021
 40
2.75
100
AcDbArc
 50
79.04
 51
90.0
  0
ARC
  5
274
100
AcDbEntity
  8
0
100
AcDbCircle
 62
7
  6
CONTINUOUS
 10
12.4005136653
 20
9.3041929239
 40
1.79
100
AcDbArc
 50
89.0179637958
 51
100.96
  0
ARC
  5
275
100
AcDbEntity
  8
0
100
AcDbCircle
 62
7
  6
CONTINUOUS
 10
12.4463715671
 20
10.2190616769
 40
0.875
100
AcDbArc
 50
57.5324797721
 51
90.9939989935
  0
ARC
  5
276
100
AcDbEntity
  8
0
100
AcDbCircle
 62
7
  6
CONTINUOUS
 10
12.9801923427
 20
10.4841695021
 40
0.02
100
AcDbArc
 50
270.0
 51
360.0
  0
ARC
  5
277
100
AcDbEntity
  8
0
100
AcDbCircle
 62
7
  6
CONTINUOUS
 10
12.926826739
 20
10.4441695021
 40
0.02
100
AcDbArc
 50
90.0
 51
122.4675202279
  0
ARC
  5
278
100
AcDbEntity
  8
0
100
AcDbCircle
 62
7
  6
CONTINUOUS
 10
11.0301923427
 20
13.6631695021
 40
2.75
100
AcDbArc
 50
270.0
 51
280.96
  0
ARC
  5
279
100
AcDbEntity
  8
0
100
AcDbCircle
 62
7
  6
CONTINUOUS
 10
12.4005136653
 20
12.1141460804
 40
1.79
100
AcDbArc
 50
259.04
 51
270.9820362042
  0
ARC
  5
27A
100
AcDbEntity
  8
0
100
AcDbCircle
 62
7
  6
CONTINUOUS
 10
12.4463715671
 20
11.1992773274
 40
0.875
100
AcDbArc
 50
269.0060010065
 51
302.4675202279
  0
ARC
  5
27B
100
AcDbEntity
  8
0
100
AcDbCircle
 62
7
  6
CONTINUOUS
 10
12.5451923427
 20
10.7091695021
 40
0.495
100
AcDbArc
 50
336.80823049
 51
23.19176951
  0
ARC
  5
27C
100
AcDbEntity
  8
0
100
AcDbCircle
 62
7
  6
CONTINUOUS
 10
12.9801923427
 20
10.9341695021
 40
0.02
100
AcDbArc
 50
0.0
 51
90.0
  0
ARC
  5
27D
100
AcDbEntity
  8
0
100
AcDbCircle
 62
7
  6
CONTINUOUS
 10
12.926826739
 20
10.9741695021
 40
0.02
100
AcDbArc
 50
237.5324797721
 51
270.0
  0
SPLINE
  5
27E
100
AcDbEntity
  8
0
100
AcDbSpline
 62
9
  6
CONTINUOUS
 70
0
 71
3
 72
57
 73
53
 74
0
 42
0.0000001
 43
0.0000001
 44
0.0000000001
 40
0.0
 40
0.0
 40
0.0
 40
0.0
 40
0.0000101019
 40
0.0000400446
 40
0.0000897908
 40
0.0001593031
 40
0.0003574764
 40
0.000634266
 40
0.0009893735
 40
0.0014225014
 40
0.0019333527
 40
0.0025216307
 40
0.0039292833
 40
0.0056430984
 40
0.0076607236
 40
0.009979816
 40
0.0125973817
 40
0.0155078145
 40
0.0221824987
 40
0.0299551642
 40
0.0387784923
 40
0.0486033992
 40
0.0593700828
 40
0.0710198512
 40
0.083499349
 40
0.1107250165
 40
0.1406143555
 40
0.1728590699
 40
0.207127811
 40
0.24327612
 40
0.2810792374
 40
0.3202471093
 40
0.3605376984
 40
0.4016021348
 40
0.4432257071
 40
0.5273172305
 40
0.6115768847
 40
0.6949420842
 40
0.7762019016
 40
0.8155149891
 40
0.8535010172
 40
0.8896847354
 40
0.9232857225
 40
0.9532334562
 40
0.9662494201
 40
0.9776038236
 40
0.9870082843
 40
0.9940898655
 40
0.9966409868
 40
0.9984909766
 40
0.9996179445
 40
1.0
 40
1.0
 40
1.0
 40
1.0
 10
10.2093061289
 20
10.2108993037
 30
0.0
 10
10.2093042249
 20
10.2108999067
 30
0.0
 10
10.2092987988
 20
10.210906314
 30
0.0
 10
10.2092841418
 20
10.2109159146
 30
0.0
 10
10.2092614873
 20
10.2109350954
 30
0.0
 10
10.209212169
 20
10.2109737402
 30
0.0
 10
10.2091283093
 20
10.211041359
 30
0.0
 10
10.2090002431
 20
10.2111439194
 30
0.0
 10
10.2088362891
 20
10.2112760621
 30
0.0
 10
10.2086364965
 20
10.2114374484
 30
0.0
 10
10.2084011576
 20
10.2116282028
 30
0.0
 10
10.2080166153
 20
10.2119408553
 30
0.0
 10
10.2074486708
 20
10.2124049395
 30
0.0
 10
10.2066638736
 20
10.2130502391
 30
0.0
 10
10.2057422488
 20
10.2138128466
 30
0.0
 10
10.2046856913
 20
10.2146926479
 30
0.0
 10
10.2034966594
 20
10.2156891968
 30
0.0
 10
10.2016547992
 20
10.217247386
 30
0.0
 10
10.1990545478
 20
10.2194870731
 30
0.0
 10
10.1956116142
 20
10.2225390881
 30
0.0
 10
10.1917593618
 20
10.226067314
 30
0.0
 10
10.1875418954
 20
10.2300720274
 30
0.0
 10
10.1830208393
 20
10.2345664778
 30
0.0
 10
10.1782600253
 20
10.2395612009
 30
0.0
 10
10.1714809217
 20
10.2471212352
 30
0.0
 10
10.1628340632
 20
10.2578434162
 30
0.0
 10
10.1530347094
 20
10.2725811392
 30
0.0
 10
10.1443159744
 20
10.2895812198
 30
0.0
 10
10.1374368845
 20
10.3087490338
 30
0.0
 10
10.1332247202
 20
10.3297996355
 30
0.0
 10
10.1317546624
 20
10.3521772557
 30
0.0
 10
10.1331321777
 20
10.3753701046
 30
0.0
 10
10.1368957301
 20
10.3989293037
 30
0.0
 10
10.1426178338
 20
10.4225808591
 30
0.0
 10
10.1523682898
 20
10.4540960544
 30
0.0
 10
10.1674710978
 20
10.4928155933
 30
0.0
 10
10.188304248
 20
10.5380275636
 30
0.0
 10
10.2106513418
 20
10.5818767118
 30
0.0
 10
10.2299272696
 20
10.6172941019
 30
0.0
 10
10.2453114151
 20
10.6446079328
 30
0.0
 10
10.2564815176
 20
10.6640661918
 30
0.0
 10
10.2672157295
 20
10.682471816
 30
0.0
 10
10.2772464821
 20
10.699447539
 30
0.0
 10
10.2850090323
 20
10.7124429966
 30
0.0
 10
10.2905421182
 20
10.7216468767
 30
0.0
 10
10.2939914986
 20
10.7273644479
 30
0.0
 10
10.2968413069
 20
10.7320734865
 30
0.0
 10
10.2987928446
 20
10.7352917818
 30
0.0
 10
10.2999717561
 20
10.7372318693
 30
0.0
 10
10.3005383043
 20
10.7381665064
 30
0.0
 10
10.3008850549
 20
10.7387328766
 30
0.0
 10
10.3010382517
 20
10.7389889079
 30
0.0
 10
10.30107829
 20
10.739052958
 30
0.0
  0
LINE
  5
27F
100
AcDbEntity
  8
0
100
AcDbLine
 62
9
  6
CONTINUOUS
 10
10.0734438391
 20
10.138833325
 11
10.1148705579
 21
10.1391662333
  0
SPLINE
  5
280
100
AcDbEntity
  8
0
100
AcDbSpline
 62
9
  6
CONTINUOUS
 70
0
 71
3
 72
15
 73
11
 74
0
 42
0.0000001
 43
0.0000001
 44
0.0000000001
 40
0.0
 40
0.0
 40
0.0
 40
0.0
 40
0.1277246436
 40
0.2598543788
 40
0.3937821897
 40
0.5263484704
 40
0.6548129355
 40
0.7772713321
 40
0.892346599
 40
1.0
 40
1.0
 40
1.0
 40
1.0
 10
10.1256135767
 20
10.2170403802
 30
0.0
 10
10.1256135399
 20
10.2127483438
 30
0.0
 10
10.1250250222
 20
10.204006341
 30
0.0
 10
10.1223602988
 20
10.1910006659
 30
0.0
 10
10.1177428156
 20
10.1783729254
 30
0.0
 10
10.111330742
 20
10.1666861804
 30
0.0
 10
10.1032655832
 20
10.1565546119
 30
0.0
 10
10.0940238487
 20
10.1483373361
 30
0.0
 10
10.0840123392
 20
10.142349784
 30
0.0
 10
10.0769404509
 20
10.1397460265
 30
0.0
 10
10.0734398909
 20
10.1388334133
 30
0.0
  0
SPLINE
  5
281
100
AcDbEntity
  8
0
100
AcDbSpline
 62
9
  6
CONTINUOUS
 70
0
 71
3
 72
53
 73
49
 74
0
 42
0.0000001
 43
0.0000001
 44
0.0000000001
 40
0.0
 40
0.0
 40
0.0
 40
0.0
 40
0.0303116822
 40
0.0622634042
 40
0.0955321351
 40
0.1298183767
 40
0.1648460986
 40
0.2003775945
 40
0.2721956997
 40
0.3442928708
 40
0.3802804414
 40
0.4161653213
 40
0.4519242438
 40
0.4875304183
 40
0.5581941877
 40
0.6279496442
 40
0.6624013003
 40
0.6965041995
 40
0.730197253
 40
0.763397287
 40
0.7959985299
 40
0.8278569636
 40
0.858772995
 40
0.8884700064
 40
0.9027421922
 40
0.9165446822
 40
0.9297968223
 40
0.9424008506
 40
0.9542330784
 40
0.9651477811
 40
0.9749650473
 40
0.9793993344
 40
0.983479725
 40
0.9871775497
 40
0.990462873
 40
0.9933052396
 40
0.9956754763
 40
0.9966759649
 40
0.9975495842
 40
0.9982934971
 40
0.9989050336
 40
0.9993826063
 40
0.9995707954
 40
0.9997250607
 40
0.999845258
 40
0.9999312431
 40
0.9999828718
 40
1.0
 40
1.0
 40
1.0
 40
1.0
 10
10.1256123993
 20
10.2170403802
 30
0.0
 10
10.1226334387
 20
10.222400524
 30
0.0
 10
10.1167733888
 20
10.2335575736
 30
0.0
 10
10.1086999315
 20
10.2511282757
 30
0.0
 10
10.1013746423
 20
10.2698927928
 30
0.0
 10
10.0950490683
 20
10.289673513
 30
0.0
 10
10.0899052309
 20
10.3102672613
 30
0.0
 10
10.0847286687
 20
10.3386200863
 30
0.0
 10
10.0815269195
 20
10.3748692636
 30
0.0
 10
10.0820397265
 20
10.4113106525
 30
0.0
 10
10.0841753271
 20
10.4403630977
 30
0.0
 10
10.0865144901
 20
10.4620159778
 30
0.0
 10
10.0894873356
 20
10.4835116575
 30
0.0
 10
10.0941472383
 20
10.511867531
 30
0.0
 10
10.1010858361
 20
10.5468066444
 30
0.0
 10
10.1091206001
 20
10.5812648293
 30
0.0
 10
10.1159914929
 20
10.6083899688
 30
0.0
 10
10.1212947154
 20
10.6283846263
 30
0.0
 10
10.126725105
 20
10.6480824474
 30
0.0
 10
10.1322424037
 20
10.6674403411
 30
0.0
 10
10.1378022439
 20
10.6863995172
 30
0.0
 10
10.1433567387
 20
10.7048782321
 30
0.0
 10
10.1488484716
 20
10.7227619105
 30
0.0
 10
10.1533715563
 20
10.7372209692
 30
0.0
 10
10.156899921
 20
10.7483633936
 30
0.0
 10
10.1594409499
 20
10.7563286866
 30
0.0
 10
10.1618944845
 20
10.7639676336
 30
0.0
 10
10.164239289
 20
10.7712228324
 30
0.0
 10
10.1664498939
 20
10.7780244243
 30
0.0
 10
10.1684956066
 20
10.7842867834
 30
0.0
 10
10.1700831635
 20
10.7891243006
 30
0.0
 10
10.1712428013
 20
10.7926470548
 30
0.0
 10
10.1720165226
 20
10.794993477
 30
0.0
 10
10.1727183404
 20
10.7971188527
 30
0.0
 10
10.1733423508
 20
10.7990061547
 30
0.0
 10
10.1738826548
 20
10.8006382538
 30
0.0
 10
10.174278113
 20
10.8018313812
 30
0.0
 10
10.1745484797
 20
10.802646385
 30
0.0
 10
10.174715308
 20
10.8031490474
 30
0.0
 10
10.1748574562
 20
10.8035770961
 30
0.0
 10
10.1749742497
 20
10.8039288435
 30
0.0
 10
10.1750559669
 20
10.8041744908
 30
0.0
 10
10.1751079113
 20
10.8043312829
 30
0.0
 10
10.1751381983
 20
10.8044214595
 30
0.0
 10
10.1751591853
 20
10.8044871621
 30
0.0
 10
10.1751801605
 20
10.8045445954
 30
0.0
 10
10.1751820522
 20
10.8045603897
 30
0.0
 10
10.175194644
 20
10.8045879753
 30
0.0
 10
10.1751923427
 20
10.8045853846
 30
0.0
  0
SPLINE
  5
282
100
AcDbEntity
  8
0
100
AcDbSpline
 62
9
  6
CONTINUOUS
 70
0
 71
3
 72
25
 73
21
 74
0
 42
0.0000001
 43
0.0000001
 44
0.0000000001
 40
0.0
 40
0.0
 40
0.0
 40
0.0
 40
0.0014839994
 40
0.0033208958
 40
0.0058780768
 40
0.0131243535
 40
0.0231649508
 40
0.0359419898
 40
0.051397592
 40
0.0694738787
 40
0.0901129714
 40
0.1387284022
 40
0.1961820898
 40
0.2612923526
 40
0.3328775292
 40
0.4097483164
 40
0.4906848552
 40
0.6598472724
 40
0.8314282989
 40
1.0
 40
1.0
 40
1.0
 40
1.0
 10
10.1842049526
 20
10.1822562538
 30
0.0
 10
10.1841745701
 20
10.1822708521
 30
0.0
 10
10.1841111658
 20
10.1823121979
 30
0.0
 10
10.1839946468
 20
10.1823772552
 30
0.0
 10
10.183766361
 20
10.182510739
 30
0.0
 10
10.1833758567
 20
10.1827357781
 30
0.0
 10
10.1827850217
 20
10.1830781981
 30
0.0
 10
10.1820325101
 20
10.1835134774
 30
0.0
 10
10.1811220851
 20
10.1840403047
 30
0.0
 10
10.180057012
 20
10.1846564261
 30
0.0
 10
10.1783399148
 20
10.185649598
 30
0.0
 10
10.1758484321
 20
10.1870903344
 30
0.0
 10
10.1724829739
 20
10.1890375397
 30
0.0
 10
10.1686669121
 20
10.1912477436
 30
0.0
 10
10.1644707158
 20
10.1936816056
 30
0.0
 10
10.1599656477
 20
10.196299427
 30
0.0
 10
10.1535511158
 20
10.2000425857
 30
0.0
 10
10.1452987214
 20
10.2049045852
 30
0.0
 10
10.135387752
 20
10.2108720425
 30
0.0
 10
10.1288339826
 20
10.2149651486
 30
0.0
 10
10.1256123113
 20
10.2170343652
 30
0.0
  0
ENDSEC
  0
SECTION
  2
OBJECTS
  0
DICTIONARY
  5
C
100
AcDbDictionary
280
0
281
1
  3
ACAD_GROUP
350
D
  3
ACAD_MLINESTYLE
350
17
  3
ACAD_LAYOUT
350
1A
  3
ACAD_PLOTSETTINGS
350
19
  3
ACAD_PLOTSTYLENAME
350
E
  0
DICTIONARY
  5
D
102
{ACAD_REACTORS
330
C
102
}
100
AcDbDictionary
280
0
281
1
  0
ACDBDICTIONARYWDFLT
  5
E
102
{ACAD_REACTORS
330
C
102
}
100
AcDbDictionary
281
1
  3
Normal
350
F
100
AcDbDictionaryWithDefault
340
F
  0
DICTIONARY
  5
17
102
{ACAD_REACTORS
330
C
102
}
100
AcDbDictionary
280
0
281
1
  3
Standard
350
18
  0
DICTIONARY
  5
19
102
{ACAD_REACTORS
330
C
102
}
100
AcDbDictionary
281
1
  0
DICTIONARY
  5
1A
102
{ACAD_REACTORS
330
C
102
}
100
AcDbDictionary
281
1
  3
Model
350
283
  3
Layout1
350
284
  0
ACDBPLACEHOLDER
  5
F
102
{ACAD_REACTORS
330
E
102
}
  0
MLINESTYLE
  5
18
102
{ACAD_REACTORS
330
17
102
}
100
AcDbMlineStyle
  2
STANDARD
 70
0
  3

 62
256
 51
90.0
 52
90.0
 71
2
 49
0.5
 62
256
  6
BYLAYER
 49
-0.5
 62
256
  6
BYLAYER
  0
LAYOUT
  5
283
102
{ACAD_REACTORS
330
1A
102
}
100
AcDbPlotSettings
  1

  2
none_device
  4
ANSI_C_(22.00_x_17.00_Inches)
  6

 40
0.0
 41
0.0
 42
0.0
 43
0.0
 44
558.8
 45
431.8
 46
0.0
 47
0.0
 48
0.0
 49
0.0
140
0.0
141
0.0
142
1.0
143
1.0
 70
1024
 72
0
 73
0
 74
0
  7

 75
0
147
1.0
148
0.0
149
0.0
100
AcDbLayout
  1
Model
 70
0
 71
0
 10
0.0
 20
0.0
 11
22.0
 21
17.0
 12
0.0
 22
0.0
 32
0.0
 14
0.0
 24
0.0
 34
0.0
 15
0.0
 25
0.0
 35
0.0
146
0.0
 13
0.0
 23
0.0
 33
0.0
 16
1.0
 26
0.0
 36
0.0
 17
0.0
 27
1.0
 37
0.0
 76
0
330
202
345
0
346
0
  0
LAYOUT
  5
284
102
{ACAD_REACTORS
330
1A
102
}
100
AcDbPlotSettings
  1

  2
none_device
  4
ANSI_C_(22.00_x_17.00_Inches)
  6

 40
0.0
 41
0.0
 42
0.0
 43
0.0
 44
558.8
 45
431.8
 46
0.0
 47
0.0
 48
0.0
 49
0.0
140
0.0
141
0.0
142
1.0
143
1.0
 70
0
 72
0
 73
0
 74
0
  7

 75
0
147
1.0
148
0.0
149
0.0
100
AcDbLayout
  1
Layout1
 70
0
 71
1
 10
0.0
 20
0.0
 11
22.0
 21
17.0
 12
0.0
 22
0.0
 32
0.0
 14
0.0
 24
0.0
 34
0.0
 15
0.0
 25
0.0
 35
0.0
146
0.0
 13
0.0
 23
0.0
 33
0.0
 16
1.0
 26
0.0
 36
0.0
 17
0.0
 27
1.0
 37
0.0
 76
0
330
203
345
0
346
0
  0
ENDSEC
  0
EOF
