999
DXF file: E:\BT Custom\CADOUTPUT\_RIGHT.dxf
999
Pro/ENGINEER 2018400 by Parametric Technology Corporation
  0
SECTION
  2
HEADER
  9
$ACADVER
  1
AC1018
  9
$DWGCODEPAGE
  3
ANSI_1252
  9
$EXTMAX
 10
22.0
 20
17.0
 30
0.0
  9
$EXTMIN
 10
0.0
 20
0.0
 30
0.0
  9
$LIMMIN
 10
0.0
 20
0.0
  9
$LIMMAX
 10
22.0
 20
17.0
  9
$VIEWCTR
 10
11.0
 20
8.5
  9
$VIEWSIZE
 40
17.0
  9
$CLAYER
  8
0
  9
$LTSCALE
 40
1.21
  9
$CELTYPE
  6
BYLAYER
  9
$DIMSCALE
 40
1.0
  9
$DIMASZ
 40
0.1
  9
$DIMEXO
 40
0.0625
  9
$DIMDLI
 40
0.836
  9
$DIMEXE
 40
0.125
  9
$DIMCEN
 40
0.198
  9
$DIMLFAC
 40
1.0
  9
$DIMBLK
  1
_FILLED
  9
$DIMALT
 70
1
  9
$DIMALTD
 70
2
  9
$DIMALTTD
 70
2
  9
$DIMALTF
 40
25.4
  9
$DIMTXT
 40
0.08
  9
$DIMTOL
 70
1
  9
$DIMLIM
 70
0
  9
$DIMTFAC
 40
1.0
  9
$DIMTP
 40
0.001
  9
$DIMTM
 40
0.001
  9
$DIMGAP
 40
0.09
  9
$DIMDSEP
 70
46
  9
$AUNITS
 70
0
  9
$PDMODE
 70
3
  9
$PDSIZE
 40
0.06
  9
$HANDSEED
  5
26C
  9
$TILEMODE
 70
1
  9
$MEASUREMENT
 70
0
  9
$INSUNITS
 70
1
  0
ENDSEC
  0
SECTION
  2
CLASSES
  0
CLASS
  1
ACDBDICTIONARYWDFLT
  2
AcDbDictionaryWithDefault
  3
AutoCAD 2000
 90
0
 91
1
280
0
281
0
  0
CLASS
  1
ACDBPLACEHOLDER
  2
AcDbPlaceHolder
  3
AutoCAD 2000
 90
0
 91
1
280
0
281
0
  0
CLASS
  1
LAYOUT
  2
AcDbLayout
  3
AutoCAD 2000
 90
0
 91
0
280
0
281
0
  0
ENDSEC
  0
SECTION
  2
TABLES
  0
TABLE
  2
VPORT
  5
8
100
AcDbSymbolTable
 70
2
  0
VPORT
  5
1F4
100
AcDbSymbolTableRecord
100
AcDbViewportTableRecord
  2
*ACTIVE
 70
0
 10
0.0
 20
0.0
 11
1.0
 21
1.0
 12
11.0
 22
8.5
 13
0.0
 23
0.0
 14
1.0
 24
1.0
 15
0.0
 25
0.0
 16
0.0
 26
0.0
 36
1.0
 17
0.0
 27
0.0
 37
0.0
 40
17.0
 41
1.2941176471
 42
50.0
 43
0.0
 44
0.0
 50
0.0
 51
0.0
 71
0
 72
100
 73
1
 74
1
 75
0
 76
0
 77
0
 78
0
  0
ENDTAB
  0
TABLE
  2
LTYPE
  5
5
100
AcDbSymbolTable
 70
6
  0
LTYPE
  5
14
100
AcDbSymbolTableRecord
100
AcDbLinetypeTableRecord
  2
BYBLOCK
 70
0
  3

 72
65
 73
0
 40
0.0
  0
LTYPE
  5
15
100
AcDbSymbolTableRecord
100
AcDbLinetypeTableRecord
  2
BYLAYER
 70
0
  3

 72
65
 73
0
 40
0.0
  0
LTYPE
  5
16
100
AcDbSymbolTableRecord
100
AcDbLinetypeTableRecord
  2
CONTINUOUS
 70
64
  3
Solid line
 72
65
 73
0
 40
0.0
  0
LTYPE
  5
1F5
100
AcDbSymbolTableRecord
100
AcDbLinetypeTableRecord
  2
CENTER
 70
64
  3
____ _ ____ _ ____ _ ____ _ ____ _ ____ _ ____
 72
65
 73
4
 40
0.6
 49
0.375
 74
0
 49
-0.075
 74
0
 49
0.075
 74
0
 49
-0.075
 74
0
  0
LTYPE
  5
1F6
100
AcDbSymbolTableRecord
100
AcDbLinetypeTableRecord
  2
HIDDEN
 70
64
  3
- - - - - - - - - - - - - - - - - - - -
 72
65
 73
2
 40
0.2
 49
0.1
 74
0
 49
-0.1
 74
0
  0
LTYPE
  5
1F7
100
AcDbSymbolTableRecord
100
AcDbLinetypeTableRecord
  2
PHANTOM
 70
64
  3
_____ _ _ _____ _ _ _____ _ _ _____
 72
65
 73
6
 40
0.8
 49
0.45
 74
0
 49
-0.05
 74
0
 49
0.1
 74
0
 49
-0.05
 74
0
 49
0.1
 74
0
 49
-0.05
 74
0
  0
LTYPE
  5
1F8
100
AcDbSymbolTableRecord
100
AcDbLinetypeTableRecord
  2
DOT
 70
64
  3
. . . . . . . . . . . . . . . . . . . .
 72
65
 73
2
 40
0.2
 49
0.1
 74
0
 49
-0.1
 74
0
  0
LTYPE
  5
1F9
100
AcDbSymbolTableRecord
100
AcDbLinetypeTableRecord
  2
DASHED
 70
64
  3
- - - - - - - - - - - - - - - - - - - -
 72
65
 73
2
 40
0.2
 49
0.1
 74
0
 49
-0.1
 74
0
  0
ENDTAB
  0
TABLE
  2
LAYER
  5
2
100
AcDbSymbolTable
 70
36
  0
LAYER
  5
10
100
AcDbSymbolTableRecord
100
AcDbLayerTableRecord
  2
0
 70
0
 62
7
  6
CONTINUOUS
370
-3
390
F
  0
LAYER
  5
1FA
100
AcDbSymbolTableRecord
100
AcDbLayerTableRecord
  2
DEFAULT_1
 70
0
 62
7
  6
CENTER
370
-3
390
F
  0
LAYER
  5
1FB
100
AcDbSymbolTableRecord
100
AcDbLayerTableRecord
  2
DEFAULT_2
 70
0
 62
8
  6
HIDDEN
370
-3
390
F
  0
LAYER
  5
1FC
100
AcDbSymbolTableRecord
100
AcDbLayerTableRecord
  2
DEFAULT_3
 70
0
 62
7
  6
PHANTOM
370
-3
390
F
  0
LAYER
  5
1FD
100
AcDbSymbolTableRecord
100
AcDbLayerTableRecord
  2
ALL_FEATURES
 70
0
 62
7
  6
CONTINUOUS
370
-3
390
F
  0
LAYER
  5
1FE
100
AcDbSymbolTableRecord
100
AcDbLayerTableRecord
  2
AXES_FEATURES
 70
0
 62
7
  6
CONTINUOUS
370
-3
390
F
  0
LAYER
  5
1FF
100
AcDbSymbolTableRecord
100
AcDbLayerTableRecord
  2
DIMENSIONS
 70
0
 62
7
  6
CONTINUOUS
370
-3
390
F
  0
ENDTAB
  0
TABLE
  2
STYLE
  5
3
100
AcDbSymbolTable
 70
1
  0
STYLE
  5
11
100
AcDbSymbolTableRecord
100
AcDbTextStyleTableRecord
  2
STANDARD
 70
0
 40
0.0
 41
0.8
 50
0.0
 71
0
 42
0.2
  3
txt
  4

  0
STYLE
  5
200
100
AcDbSymbolTableRecord
100
AcDbTextStyleTableRecord
  2
TEXTSTYLE_1
 70
0
 40
0.0
 41
0.8
 50
0.0
 71
0
 42
0.2
  3
gdt
  4

  0
ENDTAB
  0
TABLE
  2
VIEW
  5
6
100
AcDbSymbolTable
 70
0
  0
ENDTAB
  0
TABLE
  2
UCS
  5
7
100
AcDbSymbolTable
 70
0
  0
ENDTAB
  0
TABLE
  2
APPID
  5
9
100
AcDbSymbolTable
 70
1
  0
APPID
  5
201
100
AcDbSymbolTableRecord
100
AcDbRegAppTableRecord
  2
ACAD
 70
0
  0
ENDTAB
  0
TABLE
  2
BLOCK_RECORD
  5
1
100
AcDbSymbolTable
 70
0
  0
BLOCK_RECORD
  5
202
100
AcDbSymbolTableRecord
100
AcDbBlockTableRecord
  2
*Model_Space
  0
BLOCK_RECORD
  5
203
100
AcDbSymbolTableRecord
100
AcDbBlockTableRecord
  2
*Paper_Space
  0
BLOCK_RECORD
  5
204
100
AcDbSymbolTableRecord
100
AcDbBlockTableRecord
  2
_FILLED
  0
ENDTAB
  0
TABLE
  2
DIMSTYLE
  5
A
100
AcDbSymbolTable
 70
1
100
AcDbDimStyleTable
 71
0
  0
DIMSTYLE
105
205
100
AcDbSymbolTableRecord
100
AcDbDimStyleTableRecord
  2
STANDARD
 70
0
  3

  4

 40
1.0
 41
0.1
 42
0.0625
 43
0.38
 44
0.125
 45
0.0
 46
0.0
 47
0.001
 48
0.001
140
0.08
141
0.09
142
0.0
143
25.4
144
1.0
145
0.0
146
1.0
147
0.09
 71
1.0
 72
0.0
 73
1
 74
1
 75
0
 76
0
 77
0
 78
4
 79
1
170
1
171
2
172
0
173
0
174
0
175
0
176
0
177
0
178
0
270
2
179
3
271
3
272
3
273
2
274
2
275
0
280
0
281
0
282
0
283
1
284
4
285
0
286
0
287
3
288
0
340
11
278
46
341
204
342
204
343
204
344
204
  0
ENDTAB
  0
ENDSEC
  0
SECTION
  2
BLOCKS
  0
BLOCK
  5
20
100
AcDbEntity
  8
0
100
AcDbBlockBegin
  2
*Model_Space
 70
0
 10
0.0
 20
0.0
 30
0.0
  3
*Model_Space
  1

  0
ENDBLK
  5
21
100
AcDbEntity
  8
0
100
AcDbBlockEnd
  0
BLOCK
  5
1C
100
AcDbEntity
  8
0
100
AcDbBlockBegin
  2
*Paper_Space
 70
0
 10
0.0
 20
0.0
 30
0.0
  3
*Paper_Space
  1

  0
ENDBLK
  5
1D
100
AcDbEntity
  8
0
100
AcDbBlockEnd
  0
BLOCK
  5
206
100
AcDbEntity
  8
0
100
AcDbBlockBegin
  2
_FILLED
 70
64
 10
0.0
 20
0.0
  3
_FILLED
  1

  0
SOLID
  5
207
100
AcDbEntity
  8
0
  6
BYBLOCK
 62
0
100
AcDbTrace
 10
0.0
 20
0.0
 11
-1.0
 21
0.2
 12
-1.0
 22
-0.2
 13
-1.0
 23
-0.2
  0
ENDBLK
  5
208
100
AcDbEntity
  8
0
  6
BYBLOCK
 62
0
100
AcDbBlockEnd
  0
ENDSEC
  0
SECTION
  2
ENTITIES
  0
LINE
  5
209
100
AcDbEntity
  8
0
100
AcDbLine
 62
7
  6
CONTINUOUS
 10
9.6549845903
 20
7.129391804
 11
11.7649823879
 21
7.129391804
  0
LINE
  5
20A
100
AcDbEntity
  8
0
100
AcDbLine
 62
9
  6
CONTINUOUS
 10
11.7649834891
 20
7.209391804
 11
9.6549834891
 21
7.209391804
  0
LINE
  5
20B
100
AcDbEntity
  8
0
100
AcDbLine
 62
7
  6
CONTINUOUS
 10
11.5949692123
 20
7.379391804
 11
9.824997766
 21
7.379391804
  0
LINE
  5
20C
100
AcDbEntity
  8
0
100
AcDbLine
 62
7
  6
CONTINUOUS
 10
11.5599834891
 20
7.449391804
 11
9.8599834891
 21
7.449391804
  0
LINE
  5
20D
100
AcDbEntity
  8
0
100
AcDbLine
 62
7
  6
CONTINUOUS
 10
10.0929834891
 20
7.5484327608
 11
11.3269834891
 21
7.5484327608
  0
LINE
  5
20E
100
AcDbEntity
  8
0
100
AcDbLine
 62
7
  6
CONTINUOUS
 10
10.045000524
 20
7.579391804
 11
11.3749664543
 21
7.579391804
  0
LINE
  5
20F
100
AcDbEntity
  8
0
100
AcDbLine
 62
7
  6
CONTINUOUS
 10
11.3749834891
 20
7.651391804
 11
10.0449834891
 21
7.651391804
  0
LINE
  5
210
100
AcDbEntity
  8
0
100
AcDbLine
 62
7
  6
CONTINUOUS
 10
10.0449834891
 20
7.807391804
 11
11.3749834891
 21
7.807391804
  0
LINE
  5
211
100
AcDbEntity
  8
0
100
AcDbLine
 62
7
  6
CONTINUOUS
 10
9.6549834891
 20
7.209391804
 11
9.6549834891
 21
7.129391804
  0
LINE
  5
212
100
AcDbEntity
  8
0
100
AcDbLine
 62
7
  6
CONTINUOUS
 10
11.3749664543
 20
7.879391804
 11
10.045000524
 21
7.879391804
  0
LINE
  5
213
100
AcDbEntity
  8
0
100
AcDbLine
 62
9
  6
CONTINUOUS
 10
10.1499834891
 20
7.909391804
 11
11.2699834891
 21
7.909391804
  0
LINE
  5
214
100
AcDbEntity
  8
0
100
AcDbLine
 62
7
  6
CONTINUOUS
 10
9.8599834891
 20
7.449391804
 11
9.8599834891
 21
7.379391804
  0
LINE
  5
215
100
AcDbEntity
  8
0
100
AcDbLine
 62
7
  6
CONTINUOUS
 10
10.0449834891
 20
7.879391804
 11
10.0449834891
 21
7.807391804
  0
LINE
  5
216
100
AcDbEntity
  8
0
100
AcDbLine
 62
7
  6
CONTINUOUS
 10
10.0449834891
 20
7.651391804
 11
10.0449834891
 21
7.579391804
  0
LINE
  5
217
100
AcDbEntity
  8
0
100
AcDbLine
 62
7
  6
CONTINUOUS
 10
10.0929834891
 20
7.5484327608
 11
10.0929834891
 21
7.579391804
  0
LINE
  5
218
100
AcDbEntity
  8
0
100
AcDbLine
 62
7
  6
CONTINUOUS
 10
10.1499834891
 20
9.580087819
 11
10.1499834891
 21
7.909391804
  0
LINE
  5
219
100
AcDbEntity
  8
0
100
AcDbLine
 62
7
  6
CONTINUOUS
 10
10.3529834891
 20
10.8012693423
 11
10.3529834891
 21
10.7512693423
  0
LINE
  5
21A
100
AcDbEntity
  8
0
100
AcDbLine
 62
7
  6
CONTINUOUS
 10
10.3529834891
 20
10.631391804
 11
10.3529834891
 21
10.5913728395
  0
LINE
  5
21B
100
AcDbEntity
  8
0
100
AcDbLine
 62
7
  6
CONTINUOUS
 10
10.4099834891
 20
10.8121133869
 11
10.4099834891
 21
10.8112693423
  0
LINE
  5
21C
100
AcDbEntity
  8
0
100
AcDbLine
 62
7
  6
CONTINUOUS
 10
10.4249834891
 20
9.9592626822
 11
10.4249834891
 21
10.1958551147
  0
LINE
  5
21D
100
AcDbEntity
  8
0
100
AcDbLine
 62
7
  6
CONTINUOUS
 10
10.4999834891
 20
9.839391804
 11
10.4999834891
 21
9.866391804
  0
LINE
  5
21E
100
AcDbEntity
  8
0
100
AcDbLine
 62
9
  6
CONTINUOUS
 10
10.7099834927
 20
9.9531216056
 11
10.7099853723
 21
9.88138864
  0
LINE
  5
21F
100
AcDbEntity
  8
0
100
AcDbLine
 62
7
  6
CONTINUOUS
 10
10.9199834891
 20
9.839391804
 11
10.9199834891
 21
9.866391804
  0
LINE
  5
220
100
AcDbEntity
  8
0
100
AcDbLine
 62
7
  6
CONTINUOUS
 10
10.9949834891
 20
9.9592626822
 11
10.9949834891
 21
10.1958551147
  0
LINE
  5
221
100
AcDbEntity
  8
0
100
AcDbLine
 62
7
  6
CONTINUOUS
 10
11.0099834891
 20
10.8121133869
 11
11.0099834891
 21
10.8112693423
  0
LINE
  5
222
100
AcDbEntity
  8
0
100
AcDbLine
 62
7
  6
CONTINUOUS
 10
11.0669834891
 20
10.8012693423
 11
11.0669834891
 21
10.7512693423
  0
LINE
  5
223
100
AcDbEntity
  8
0
100
AcDbLine
 62
7
  6
CONTINUOUS
 10
11.0669834891
 20
10.631391804
 11
11.0669834891
 21
10.5913728395
  0
LINE
  5
224
100
AcDbEntity
  8
0
100
AcDbLine
 62
7
  6
CONTINUOUS
 10
11.2699834891
 20
9.580087819
 11
11.2699834891
 21
7.909391804
  0
LINE
  5
225
100
AcDbEntity
  8
0
100
AcDbLine
 62
9
  6
CONTINUOUS
 10
11.2699834891
 20
9.580087819
 11
10.1499834891
 21
9.580087819
  0
LINE
  5
226
100
AcDbEntity
  8
0
100
AcDbLine
 62
9
  6
CONTINUOUS
 10
11.2514059229
 20
9.6000371719
 11
10.1685610554
 21
9.6000371719
  0
LINE
  5
227
100
AcDbEntity
  8
0
100
AcDbLine
 62
7
  6
CONTINUOUS
 10
11.3269834891
 20
7.5484327608
 11
11.3269834891
 21
7.579391804
  0
LINE
  5
228
100
AcDbEntity
  8
0
100
AcDbLine
 62
7
  6
CONTINUOUS
 10
11.3749834891
 20
7.879391804
 11
11.3749834891
 21
7.807391804
  0
LINE
  5
229
100
AcDbEntity
  8
0
100
AcDbLine
 62
7
  6
CONTINUOUS
 10
11.3749834891
 20
7.651391804
 11
11.3749834891
 21
7.579391804
  0
LINE
  5
22A
100
AcDbEntity
  8
0
100
AcDbLine
 62
7
  6
CONTINUOUS
 10
11.5599834891
 20
7.449391804
 11
11.5599834891
 21
7.379391804
  0
LINE
  5
22B
100
AcDbEntity
  8
0
100
AcDbLine
 62
9
  6
CONTINUOUS
 10
11.0166156287
 20
9.8219372308
 11
10.4033513496
 21
9.8219372308
  0
LINE
  5
22C
100
AcDbEntity
  8
0
100
AcDbLine
 62
7
  6
CONTINUOUS
 10
10.9967769258
 20
9.839391804
 11
10.4231900524
 21
9.839391804
  0
LINE
  5
22D
100
AcDbEntity
  8
0
100
AcDbLine
 62
9
  6
CONTINUOUS
 10
10.9199834891
 20
9.866391804
 11
10.4999834891
 21
9.866391804
  0
LINE
  5
22E
100
AcDbEntity
  8
0
100
AcDbLine
 62
9
  6
CONTINUOUS
 10
10.4881413839
 20
9.8810556269
 11
10.584952258
 21
9.8810556269
  0
LINE
  5
22F
100
AcDbEntity
  8
0
100
AcDbLine
 62
9
  6
CONTINUOUS
 10
10.8350148316
 20
9.8810556269
 11
10.9318255944
 21
9.8810556269
  0
LINE
  5
230
100
AcDbEntity
  8
0
100
AcDbLine
 62
9
  6
CONTINUOUS
 10
10.7080124224
 20
9.8813885352
 11
10.7099834891
 21
9.8813885696
  0
LINE
  5
231
100
AcDbEntity
  8
0
100
AcDbLine
 62
9
  6
CONTINUOUS
 10
10.4249834891
 20
9.9592626822
 11
10.5493522439
 21
9.9592626822
  0
LINE
  5
232
100
AcDbEntity
  8
0
100
AcDbLine
 62
9
  6
CONTINUOUS
 10
10.8706145129
 20
9.9592626822
 11
10.9949834891
 21
9.9592626822
  0
LINE
  5
233
100
AcDbEntity
  8
0
100
AcDbLine
 62
7
  6
CONTINUOUS
 10
11.7649834891
 20
7.209391804
 11
11.7649834891
 21
7.129391804
  0
LINE
  5
234
100
AcDbEntity
  8
0
100
AcDbLine
 62
7
  6
CONTINUOUS
 10
11.0669834891
 20
10.631391804
 11
11.0480609796
 21
10.631391804
  0
LINE
  5
235
100
AcDbEntity
  8
0
100
AcDbLine
 62
7
  6
CONTINUOUS
 10
10.3719059987
 20
10.631391804
 11
10.3529834891
 21
10.631391804
  0
LINE
  5
236
100
AcDbEntity
  8
0
100
AcDbLine
 62
7
  6
CONTINUOUS
 10
10.3529834891
 20
10.7512693423
 11
10.4714989918
 21
10.7512693423
  0
LINE
  5
237
100
AcDbEntity
  8
0
100
AcDbLine
 62
7
  6
CONTINUOUS
 10
10.9484679865
 20
10.7512693423
 11
11.0669834891
 21
10.7512693423
  0
LINE
  5
238
100
AcDbEntity
  8
0
100
AcDbLine
 62
9
  6
CONTINUOUS
 10
11.0669834891
 20
10.8012693423
 11
10.8652551137
 21
10.8012693423
  0
LINE
  5
239
100
AcDbEntity
  8
0
100
AcDbLine
 62
9
  6
CONTINUOUS
 10
10.5547118646
 20
10.8012693423
 11
10.3529834891
 21
10.8012693423
  0
LINE
  5
23A
100
AcDbEntity
  8
0
100
AcDbLine
 62
7
  6
CONTINUOUS
 10
11.0569698344
 20
10.8112693423
 11
10.8427947459
 21
10.8112693423
  0
LINE
  5
23B
100
AcDbEntity
  8
0
100
AcDbLine
 62
7
  6
CONTINUOUS
 10
10.5771722323
 20
10.8112693423
 11
10.3629971439
 21
10.8112693423
  0
LINE
  5
23C
100
AcDbEntity
  8
0
100
AcDbLine
 62
9
  6
CONTINUOUS
 10
11.0099834891
 20
10.8121133869
 11
10.8408989907
 21
10.8121133869
  0
LINE
  5
23D
100
AcDbEntity
  8
0
100
AcDbLine
 62
9
  6
CONTINUOUS
 10
10.5790679876
 20
10.8121133869
 11
10.4099834891
 21
10.8121133869
  0
LINE
  5
23E
100
AcDbEntity
  8
0
100
AcDbLine
 62
9
  6
CONTINUOUS
 10
10.4155219507
 20
10.8210629498
 11
10.6080616067
 21
10.8210629498
  0
LINE
  5
23F
100
AcDbEntity
  8
0
100
AcDbLine
 62
9
  6
CONTINUOUS
 10
10.8119053716
 20
10.8210629498
 11
11.0044450276
 21
10.8210629498
  0
ARC
  5
240
100
AcDbEntity
  8
0
100
AcDbCircle
 62
7
  6
CONTINUOUS
 10
9.85599543
 20
7.7823679224
 40
0.333
100
AcDbArc
 50
270.6861994637
 51
315.3714314577
  0
ARC
  5
241
100
AcDbEntity
  8
0
100
AcDbCircle
 62
7
  6
CONTINUOUS
 10
9.8249834891
 20
7.209391804
 40
0.17
100
AcDbArc
 50
90.0
 51
180.0
  0
ARC
  5
242
100
AcDbEntity
  8
0
100
AcDbCircle
 62
7
  6
CONTINUOUS
 10
10.1253576143
 20
7.729391804
 40
0.112
100
AcDbArc
 50
135.8588345181
 51
224.1411654819
  0
ARC
  5
243
100
AcDbEntity
  8
0
100
AcDbCircle
 62
7
  6
CONTINUOUS
 10
10.1199834891
 20
7.909391804
 40
0.03
100
AcDbArc
 50
270.0
 51
360.0
  0
ARC
  5
244
100
AcDbEntity
  8
0
100
AcDbCircle
 62
7
  6
CONTINUOUS
 10
10.1504250254
 20
9.8543914218
 40
0.255
100
AcDbArc
 50
274.078415706
 51
352.6880583707
  0
ARC
  5
245
100
AcDbEntity
  8
0
100
AcDbCircle
 62
7
  6
CONTINUOUS
 10
10.5049834891
 20
9.9592626822
 40
0.08
100
AcDbArc
 50
180.0
 51
257.8468025309
  0
ARC
  5
246
100
AcDbEntity
  8
0
100
AcDbCircle
 62
7
  6
CONTINUOUS
 10
10.3891407008
 20
10.6913305732
 40
0.07
100
AcDbArc
 50
121.0998839863
 51
238.9001160137
  0
ARC
  5
247
100
AcDbEntity
  8
0
100
AcDbCircle
 62
7
  6
CONTINUOUS
 10
10.4231887084
 20
9.819391804
 40
0.02
100
AcDbArc
 50
90.0
 51
172.6880583708
  0
ARC
  5
248
100
AcDbEntity
  8
0
100
AcDbCircle
 62
7
  6
CONTINUOUS
 10
10.1699834891
 20
9.580087819
 40
0.02
100
AcDbArc
 50
94.078415706
 51
180.0
  0
ARC
  5
249
100
AcDbEntity
  8
0
100
AcDbCircle
 62
7
  6
CONTINUOUS
 10
10.4849834891
 20
9.866391804
 40
0.015
100
AcDbArc
 50
0.0
 51
77.846802531
  0
ARC
  5
24A
100
AcDbEntity
  8
0
100
AcDbCircle
 62
7
  6
CONTINUOUS
 10
10.4199834891
 20
10.8121133869
 40
0.01
100
AcDbArc
 50
116.4971851677
 51
180.0
  0
ARC
  5
24B
100
AcDbEntity
  8
0
100
AcDbCircle
 62
7
  6
CONTINUOUS
 10
10.3629834891
 20
10.8012693423
 40
0.01
100
AcDbArc
 50
90.0
 51
180.0
  0
ARC
  5
24C
100
AcDbEntity
  8
0
100
AcDbCircle
 62
7
  6
CONTINUOUS
 10
11.5639715483
 20
7.7823679224
 40
0.333
100
AcDbArc
 50
224.6285685423
 51
269.3138005363
  0
ARC
  5
24D
100
AcDbEntity
  8
0
100
AcDbCircle
 62
7
  6
CONTINUOUS
 10
11.5949834891
 20
7.209391804
 40
0.17
100
AcDbArc
 50
0.0
 51
90.0
  0
ARC
  5
24E
100
AcDbEntity
  8
0
100
AcDbCircle
 62
7
  6
CONTINUOUS
 10
11.2946093639
 20
7.729391804
 40
0.112
100
AcDbArc
 50
315.8588345181
 51
44.1411654819
  0
ARC
  5
24F
100
AcDbEntity
  8
0
100
AcDbCircle
 62
7
  6
CONTINUOUS
 10
11.2999834891
 20
7.909391804
 40
0.03
100
AcDbArc
 50
180.0
 51
270.0
  0
ARC
  5
250
100
AcDbEntity
  8
0
100
AcDbCircle
 62
7
  6
CONTINUOUS
 10
10.7099834891
 20
10.230391804
 40
0.66
100
AcDbArc
 50
63.5028148323
 51
116.4971851677
  0
CIRCLE
  5
251
100
AcDbEntity
  8
0
100
AcDbCircle
 62
7
  6
CONTINUOUS
 10
10.7099834891
 20
10.451391804
 40
0.3850234217
  0
CIRCLE
  5
252
100
AcDbEntity
  8
0
100
AcDbCircle
 62
7
  6
CONTINUOUS
 10
10.7099834891
 20
10.451391804
 40
0.3848921748
  0
ARC
  5
253
100
AcDbEntity
  8
0
100
AcDbCircle
 62
7
  6
CONTINUOUS
 10
11.2695419529
 20
9.8543914218
 40
0.255
100
AcDbArc
 50
187.3119416293
 51
265.921584294
  0
ARC
  5
254
100
AcDbEntity
  8
0
100
AcDbCircle
 62
9
  6
CONTINUOUS
 10
10.7099834891
 20
10.451391804
 40
0.2481260821
100
AcDbArc
 50
0.0
 51
359.7947609591
  0
ARC
  5
255
100
AcDbEntity
  8
0
100
AcDbCircle
 62
9
  6
CONTINUOUS
 10
10.7099834891
 20
10.451391804
 40
0.2481260821
100
AcDbArc
 50
359.7947609591
 51
360.0
  0
CIRCLE
  5
256
100
AcDbEntity
  8
0
100
AcDbCircle
 62
7
  6
CONTINUOUS
 10
10.7099834891
 20
10.451391804
 40
0.245
  0
CIRCLE
  5
257
100
AcDbEntity
  8
0
100
AcDbCircle
 62
9
  6
CONTINUOUS
 10
10.7099834891
 20
10.451391804
 40
0.225
  0
CIRCLE
  5
258
100
AcDbEntity
  8
0
100
AcDbCircle
 62
7
  6
CONTINUOUS
 10
10.7099834891
 20
10.451391804
 40
0.1949358869
  0
ARC
  5
259
100
AcDbEntity
  8
0
100
AcDbCircle
 62
7
  6
CONTINUOUS
 10
10.9149834891
 20
9.9592626822
 40
0.08
100
AcDbArc
 50
282.1531974691
 51
360.0
  0
ARC
  5
25A
100
AcDbEntity
  8
0
100
AcDbCircle
 62
7
  6
CONTINUOUS
 10
11.0308262775
 20
10.6913305732
 40
0.07
100
AcDbArc
 50
301.0998839863
 51
58.9001160137
  0
ARC
  5
25B
100
AcDbEntity
  8
0
100
AcDbCircle
 62
7
  6
CONTINUOUS
 10
10.9967782699
 20
9.819391804
 40
0.02
100
AcDbArc
 50
7.3119416292
 51
90.0
  0
ARC
  5
25C
100
AcDbEntity
  8
0
100
AcDbCircle
 62
7
  6
CONTINUOUS
 10
11.2499834891
 20
9.580087819
 40
0.02
100
AcDbArc
 50
0.0
 51
85.921584294
  0
ARC
  5
25D
100
AcDbEntity
  8
0
100
AcDbCircle
 62
7
  6
CONTINUOUS
 10
10.9349834891
 20
9.866391804
 40
0.015
100
AcDbArc
 50
102.153197469
 51
180.0
  0
ARC
  5
25E
100
AcDbEntity
  8
0
100
AcDbCircle
 62
7
  6
CONTINUOUS
 10
10.9999834891
 20
10.8121133869
 40
0.01
100
AcDbArc
 50
0.0
 51
63.5028148323
  0
ARC
  5
25F
100
AcDbEntity
  8
0
100
AcDbCircle
 62
7
  6
CONTINUOUS
 10
11.0569834891
 20
10.8012693423
 40
0.01
100
AcDbArc
 50
0.0
 51
90.0
  0
SPLINE
  5
260
100
AcDbEntity
  8
0
100
AcDbSpline
 62
9
  6
CONTINUOUS
 70
0
 71
3
 72
15
 73
11
 74
0
 42
0.0000001
 43
0.0000001
 44
0.0000000001
 40
0.0
 40
0.0
 40
0.0
 40
0.0
 40
0.1294997815
 40
0.2585471898
 40
0.386613029
 40
0.5131432237
 40
0.6377015611
 40
0.7601367232
 40
0.8806984863
 40
1.0
 40
1.0
 40
1.0
 40
1.0
 10
10.920800395
 20
10.1312566256
 30
0.0
 10
10.9207640047
 20
10.1233723782
 30
0.0
 10
10.9203252313
 20
10.1076298433
 30
0.0
 10
10.9184102132
 20
10.0841570256
 30
0.0
 10
10.9150518343
 20
10.0610241592
 30
0.0
 10
10.9100592275
 20
10.0384616295
 30
0.0
 10
10.9032576761
 20
10.0167282725
 30
0.0
 10
10.8945148549
 20
9.9960854685
 30
0.0
 10
10.8837574725
 20
9.9767784504
 30
0.0
 10
10.8752020373
 20
9.9648940268
 30
0.0
 10
10.8706145129
 20
9.9592626822
 30
0.0
  0
SPLINE
  5
261
100
AcDbEntity
  8
0
100
AcDbSpline
 62
9
  6
CONTINUOUS
 70
0
 71
3
 72
15
 73
11
 74
0
 42
0.0000001
 43
0.0000001
 44
0.0000000001
 40
0.0
 40
0.0
 40
0.0
 40
0.0
 40
0.095033989
 40
0.197950589
 40
0.3103566403
 40
0.4326272704
 40
0.564586221
 40
0.7046431933
 40
0.8507453464
 40
1.0
 40
1.0
 40
1.0
 40
1.0
 10
10.8706117401
 20
9.9592590423
 30
0.0
 10
10.8658084029
 20
9.9571534379
 30
0.0
 10
10.8557416379
 20
9.9529056539
 30
0.0
 10
10.8397255367
 20
9.9468244922
 30
0.0
 10
10.8220397183
 20
9.9409464498
 30
0.0
 10
10.8025353134
 20
9.9355284065
 30
0.0
 10
10.7812668696
 20
9.9308778733
 30
0.0
 10
10.7584617994
 20
9.9272679422
 30
0.0
 10
10.7345241596
 20
9.9250104188
 30
0.0
 10
10.7182203136
 20
9.9244818483
 30
0.0
 10
10.7099834928
 20
9.9244814981
 30
0.0
  0
SPLINE
  5
262
100
AcDbEntity
  8
0
100
AcDbSpline
 62
9
  6
CONTINUOUS
 70
0
 71
3
 72
24
 73
20
 74
0
 42
0.0000001
 43
0.0000001
 44
0.0000000001
 40
0.0
 40
0.0
 40
0.0
 40
0.0
 40
0.0668775563
 40
0.1333213859
 40
0.1988636179
 40
0.2631597642
 40
0.3260013653
 40
0.3872921254
 40
0.4471522597
 40
0.5058654058
 40
0.5639172767
 40
0.6219964862
 40
0.6808720048
 40
0.741142806
 40
0.7719738042
 40
0.8033124929
 40
0.8674135855
 40
0.9331268381
 40
1.0
 40
1.0
 40
1.0
 40
1.0
 10
10.7099834891
 20
9.9531216056
 30
0.0
 10
10.7036782683
 20
9.9531217453
 30
0.0
 10
10.6911048235
 20
9.9535307556
 30
0.0
 10
10.6724331518
 20
9.9553707208
 30
0.0
 10
10.65416809
 20
9.9584381336
 30
0.0
 10
10.6365018706
 20
9.9627424899
 30
0.0
 10
10.61960618
 20
9.9682959913
 30
0.0
 10
10.603632771
 20
9.9751218778
 30
0.0
 10
10.5887264984
 20
9.9832674356
 30
0.0
 10
10.5750201252
 20
9.9927856026
 30
0.0
 10
10.562644403
 20
10.0037367463
 30
0.0
 10
10.55173825
 20
10.0161805944
 30
0.0
 10
10.542441636
 20
10.0301192595
 30
0.0
 10
10.5361079088
 20
10.0428032377
 30
0.0
 10
10.5318825237
 20
10.053551512
 30
0.0
 10
10.5281597265
 20
10.0648651684
 30
0.0
 10
10.5245384587
 20
10.0796469443
 30
0.0
 10
10.5216970696
 20
10.0979899903
 30
0.0
 10
10.5206975304
 20
10.1104613891
 30
0.0
 10
10.5203849297
 20
10.1167584413
 30
0.0
  0
LINE
  5
263
100
AcDbEntity
  8
0
100
AcDbLine
 62
9
  6
CONTINUOUS
 10
10.7099834891
 20
9.8813885696
 11
10.8350148316
 21
9.8810556269
  0
LINE
  5
264
100
AcDbEntity
  8
0
100
AcDbLine
 62
9
  6
CONTINUOUS
 10
10.584952258
 20
9.8810556269
 11
10.7080124224
 21
9.8813885352
  0
SPLINE
  5
265
100
AcDbEntity
  8
0
100
AcDbSpline
 62
9
  6
CONTINUOUS
 70
0
 71
3
 72
24
 73
20
 74
0
 42
0.0000001
 43
0.0000001
 44
0.0000000001
 40
0.0
 40
0.0
 40
0.0
 40
0.0
 40
0.0668734872
 40
0.1325871725
 40
0.1966888502
 40
0.2280278638
 40
0.2588591819
 40
0.3191304733
 40
0.3780062523
 40
0.4360854612
 40
0.4941370982
 40
0.5528498668
 40
0.6127095744
 40
0.6739999551
 40
0.7368412864
 40
0.8011371432
 40
0.8666788619
 40
0.9331221957
 40
1.0
 40
1.0
 40
1.0
 40
1.0
 10
10.8995825455
 20
10.1167684849
 30
0.0
 10
10.8992701404
 20
10.1104711681
 30
0.0
 10
10.8982709969
 20
10.0979992213
 30
0.0
 10
10.895430187
 20
10.0796552915
 30
0.0
 10
10.8918093702
 20
10.0648727203
 30
0.0
 10
10.888086914
 20
10.0535583849
 30
0.0
 10
10.8838618529
 20
10.0428094278
 30
0.0
 10
10.8775284537
 20
10.0301246093
 30
0.0
 10
10.8682321091
 20
10.0161849619
 30
0.0
 10
10.8573260793
 20
10.0037402149
 30
0.0
 10
10.8449503288
 20
9.9927882977
 30
0.0
 10
10.8312438119
 20
9.9832694644
 30
0.0
 10
10.8163372863
 20
9.975123338
 30
0.0
 10
10.8003635136
 20
9.9682969836
 30
0.0
 10
10.7834673682
 20
9.9627431199
 30
0.0
 10
10.7658006546
 20
9.9584384874
 30
0.0
 10
10.7475350837
 20
9.9553708687
 30
0.0
 10
10.7288628256
 20
9.9535307779
 30
0.0
 10
10.7162889573
 20
9.9531217477
 30
0.0
 10
10.7099834891
 20
9.9531216055
 30
0.0
  0
SPLINE
  5
266
100
AcDbEntity
  8
0
100
AcDbSpline
 62
9
  6
CONTINUOUS
 70
0
 71
3
 72
17
 73
13
 74
0
 42
0.0000001
 43
0.0000001
 44
0.0000000001
 40
0.0
 40
0.0
 40
0.0
 40
0.0
 40
0.142299373
 40
0.2880597968
 40
0.4326500499
 40
0.5029319669
 40
0.5710054889
 40
0.6985229598
 40
0.7574642213
 40
0.8128451683
 40
0.9127173844
 40
1.0
 40
1.0
 40
1.0
 40
1.0
 10
10.5493555652
 20
9.9592626821
 30
0.0
 10
10.5493554905
 20
9.9549757859
 30
0.0
 10
10.549752492
 20
9.9462928783
 30
0.0
 10
10.5515493797
 20
9.9333636634
 30
0.0
 10
10.5541679503
 20
9.9227945573
 30
0.0
 10
10.5569229886
 20
9.914722879
 30
0.0
 10
10.5599803825
 20
9.907315851
 30
0.0
 10
10.563627303
 20
9.9005324233
 30
0.0
 10
10.5678287744
 20
9.8945708
 30
0.0
 10
10.5719952379
 20
9.8896341199
 30
0.0
 10
10.5774912723
 20
9.8847401074
 30
0.0
 10
10.5824902864
 20
9.8819943786
 30
0.0
 10
10.5849465047
 20
9.8810557152
 30
0.0
  0
SPLINE
  5
267
100
AcDbEntity
  8
0
100
AcDbSpline
 62
9
  6
CONTINUOUS
 70
0
 71
3
 72
17
 73
13
 74
0
 42
0.0000001
 43
0.0000001
 44
0.0000000001
 40
0.0
 40
0.0
 40
0.0
 40
0.0
 40
0.1422993674
 40
0.2880598691
 40
0.4326502289
 40
0.5029322162
 40
0.5710058118
 40
0.6985233512
 40
0.7574646111
 40
0.8128455467
 40
0.9127176204
 40
1.0
 40
1.0
 40
1.0
 40
1.0
 10
10.8706099829
 20
9.9592626821
 30
0.0
 10
10.8706100651
 20
9.9549757883
 30
0.0
 10
10.8702130799
 20
9.9462928824
 30
0.0
 10
10.8684162306
 20
9.9333636638
 30
0.0
 10
10.8657976977
 20
9.9227945464
 30
0.0
 10
10.8630426899
 20
9.9147228544
 30
0.0
 10
10.8599853298
 20
9.9073158101
 30
0.0
 10
10.856338442
 20
9.9005323643
 30
0.0
 10
10.8521369983
 20
9.8945707239
 30
0.0
 10
10.8479705638
 20
9.88963403
 30
0.0
 10
10.8424745617
 20
9.8847400032
 30
0.0
 10
10.8374755644
 20
9.8819942714
 30
0.0
 10
10.8350193551
 20
9.8810556084
 30
0.0
  0
SPLINE
  5
268
100
AcDbEntity
  8
0
100
AcDbSpline
 62
9
  6
CONTINUOUS
 70
0
 71
3
 72
15
 73
11
 74
0
 42
0.0000001
 43
0.0000001
 44
0.0000000001
 40
0.0
 40
0.0
 40
0.0
 40
0.0
 40
0.1192992718
 40
0.2398583305
 40
0.3622939815
 40
0.486854304
 40
0.613385913
 40
0.7414526668
 40
0.8705009401
 40
1.0
 40
1.0
 40
1.0
 40
1.0
 10
10.5493522439
 20
9.9592626822
 30
0.0
 10
10.5447655196
 20
9.9648931374
 30
0.0
 10
10.5362114596
 20
9.9767755314
 30
0.0
 10
10.5254552897
 20
9.9960792048
 30
0.0
 10
10.5167128115
 20
10.0167185881
 30
0.0
 10
10.5099113241
 20
10.0384487343
 30
0.0
 10
10.5049180889
 20
10.061007933
 30
0.0
 10
10.501558775
 20
10.0841374287
 30
0.0
 10
10.4996431463
 20
10.1076068183
 30
0.0
 10
10.4992035378
 20
10.12334704
 30
0.0
 10
10.4991667844
 20
10.1312300929
 30
0.0
  0
SPLINE
  5
269
100
AcDbEntity
  8
0
100
AcDbSpline
 62
9
  6
CONTINUOUS
 70
0
 71
3
 72
15
 73
11
 74
0
 42
0.0000001
 43
0.0000001
 44
0.0000000001
 40
0.0
 40
0.0
 40
0.0
 40
0.0
 40
0.1492576854
 40
0.2953512317
 40
0.4354091372
 40
0.5673722442
 40
0.6896407571
 40
0.8020433753
 40
0.9049616481
 40
1.0
 40
1.0
 40
1.0
 40
1.0
 10
10.7099834931
 20
9.9244785557
 30
0.0
 10
10.7017464229
 20
9.9244789357
 30
0.0
 10
10.6854427184
 20
9.9250074458
 30
0.0
 10
10.6615051153
 20
9.927265206
 30
0.0
 10
10.6387000262
 20
9.9308751989
 30
0.0
 10
10.6174311537
 20
9.9355255397
 30
0.0
 10
10.597926565
 20
9.9409434006
 30
0.0
 10
10.5802407775
 20
9.9468214533
 30
0.0
 10
10.5642244114
 20
9.9529028041
 30
0.0
 10
10.5541572793
 20
9.9571508586
 30
0.0
 10
10.5493537117
 20
9.9592566671
 30
0.0
  0
ENDSEC
  0
SECTION
  2
OBJECTS
  0
DICTIONARY
  5
C
100
AcDbDictionary
280
0
281
1
  3
ACAD_GROUP
350
D
  3
ACAD_MLINESTYLE
350
17
  3
ACAD_LAYOUT
350
1A
  3
ACAD_PLOTSETTINGS
350
19
  3
ACAD_PLOTSTYLENAME
350
E
  0
DICTIONARY
  5
D
102
{ACAD_REACTORS
330
C
102
}
100
AcDbDictionary
280
0
281
1
  0
ACDBDICTIONARYWDFLT
  5
E
102
{ACAD_REACTORS
330
C
102
}
100
AcDbDictionary
281
1
  3
Normal
350
F
100
AcDbDictionaryWithDefault
340
F
  0
DICTIONARY
  5
17
102
{ACAD_REACTORS
330
C
102
}
100
AcDbDictionary
280
0
281
1
  3
Standard
350
18
  0
DICTIONARY
  5
19
102
{ACAD_REACTORS
330
C
102
}
100
AcDbDictionary
281
1
  0
DICTIONARY
  5
1A
102
{ACAD_REACTORS
330
C
102
}
100
AcDbDictionary
281
1
  3
Model
350
26A
  3
Layout1
350
26B
  0
ACDBPLACEHOLDER
  5
F
102
{ACAD_REACTORS
330
E
102
}
  0
MLINESTYLE
  5
18
102
{ACAD_REACTORS
330
17
102
}
100
AcDbMlineStyle
  2
STANDARD
 70
0
  3

 62
256
 51
90.0
 52
90.0
 71
2
 49
0.5
 62
256
  6
BYLAYER
 49
-0.5
 62
256
  6
BYLAYER
  0
LAYOUT
  5
26A
102
{ACAD_REACTORS
330
1A
102
}
100
AcDbPlotSettings
  1

  2
none_device
  4
ANSI_C_(22.00_x_17.00_Inches)
  6

 40
0.0
 41
0.0
 42
0.0
 43
0.0
 44
558.8
 45
431.8
 46
0.0
 47
0.0
 48
0.0
 49
0.0
140
0.0
141
0.0
142
1.0
143
1.0
 70
1024
 72
0
 73
0
 74
0
  7

 75
0
147
1.0
148
0.0
149
0.0
100
AcDbLayout
  1
Model
 70
0
 71
0
 10
0.0
 20
0.0
 11
22.0
 21
17.0
 12
0.0
 22
0.0
 32
0.0
 14
0.0
 24
0.0
 34
0.0
 15
0.0
 25
0.0
 35
0.0
146
0.0
 13
0.0
 23
0.0
 33
0.0
 16
1.0
 26
0.0
 36
0.0
 17
0.0
 27
1.0
 37
0.0
 76
0
330
202
345
0
346
0
  0
LAYOUT
  5
26B
102
{ACAD_REACTORS
330
1A
102
}
100
AcDbPlotSettings
  1

  2
none_device
  4
ANSI_C_(22.00_x_17.00_Inches)
  6

 40
0.0
 41
0.0
 42
0.0
 43
0.0
 44
558.8
 45
431.8
 46
0.0
 47
0.0
 48
0.0
 49
0.0
140
0.0
141
0.0
142
1.0
143
1.0
 70
0
 72
0
 73
0
 74
0
  7

 75
0
147
1.0
148
0.0
149
0.0
100
AcDbLayout
  1
Layout1
 70
0
 71
1
 10
0.0
 20
0.0
 11
22.0
 21
17.0
 12
0.0
 22
0.0
 32
0.0
 14
0.0
 24
0.0
 34
0.0
 15
0.0
 25
0.0
 35
0.0
146
0.0
 13
0.0
 23
0.0
 33
0.0
 16
1.0
 26
0.0
 36
0.0
 17
0.0
 27
1.0
 37
0.0
 76
0
330
203
345
0
346
0
  0
ENDSEC
  0
EOF
