999
DXF file: E:\BT Custom\CADOUTPUT\_FRONT.dxf
999
Pro/ENGINEER 2018400 by Parametric Technology Corporation
  0
SECTION
  2
HEADER
  9
$ACADVER
  1
AC1018
  9
$DWGCODEPAGE
  3
ANSI_1252
  9
$EXTMAX
 10
22.0
 20
17.0
 30
0.0
  9
$EXTMIN
 10
0.0
 20
0.0
 30
0.0
  9
$LIMMIN
 10
0.0
 20
0.0
  9
$LIMMAX
 10
22.0
 20
17.0
  9
$VIEWCTR
 10
11.0
 20
8.5
  9
$VIEWSIZE
 40
17.0
  9
$CLAYER
  8
0
  9
$LTSCALE
 40
1.21
  9
$CELTYPE
  6
BYLAYER
  9
$DIMSCALE
 40
1.0
  9
$DIMASZ
 40
0.1
  9
$DIMEXO
 40
0.0625
  9
$DIMDLI
 40
0.836
  9
$DIMEXE
 40
0.125
  9
$DIMCEN
 40
0.198
  9
$DIMLFAC
 40
1.0
  9
$DIMBLK
  1
_FILLED
  9
$DIMALT
 70
1
  9
$DIMALTD
 70
2
  9
$DIMALTTD
 70
2
  9
$DIMALTF
 40
25.4
  9
$DIMTXT
 40
0.08
  9
$DIMTOL
 70
1
  9
$DIMLIM
 70
0
  9
$DIMTFAC
 40
1.0
  9
$DIMTP
 40
0.001
  9
$DIMTM
 40
0.001
  9
$DIMGAP
 40
0.09
  9
$DIMDSEP
 70
46
  9
$AUNITS
 70
0
  9
$PDMODE
 70
3
  9
$PDSIZE
 40
0.06
  9
$HANDSEED
  5
2F6
  9
$TILEMODE
 70
1
  9
$MEASUREMENT
 70
0
  9
$INSUNITS
 70
1
  0
ENDSEC
  0
SECTION
  2
CLASSES
  0
CLASS
  1
ACDBDICTIONARYWDFLT
  2
AcDbDictionaryWithDefault
  3
AutoCAD 2000
 90
0
 91
1
280
0
281
0
  0
CLASS
  1
ACDBPLACEHOLDER
  2
AcDbPlaceHolder
  3
AutoCAD 2000
 90
0
 91
1
280
0
281
0
  0
CLASS
  1
LAYOUT
  2
AcDbLayout
  3
AutoCAD 2000
 90
0
 91
0
280
0
281
0
  0
ENDSEC
  0
SECTION
  2
TABLES
  0
TABLE
  2
VPORT
  5
8
100
AcDbSymbolTable
 70
2
  0
VPORT
  5
1F4
100
AcDbSymbolTableRecord
100
AcDbViewportTableRecord
  2
*ACTIVE
 70
0
 10
0.0
 20
0.0
 11
1.0
 21
1.0
 12
11.0
 22
8.5
 13
0.0
 23
0.0
 14
1.0
 24
1.0
 15
0.0
 25
0.0
 16
0.0
 26
0.0
 36
1.0
 17
0.0
 27
0.0
 37
0.0
 40
17.0
 41
1.2941176471
 42
50.0
 43
0.0
 44
0.0
 50
0.0
 51
0.0
 71
0
 72
100
 73
1
 74
1
 75
0
 76
0
 77
0
 78
0
  0
ENDTAB
  0
TABLE
  2
LTYPE
  5
5
100
AcDbSymbolTable
 70
6
  0
LTYPE
  5
14
100
AcDbSymbolTableRecord
100
AcDbLinetypeTableRecord
  2
BYBLOCK
 70
0
  3

 72
65
 73
0
 40
0.0
  0
LTYPE
  5
15
100
AcDbSymbolTableRecord
100
AcDbLinetypeTableRecord
  2
BYLAYER
 70
0
  3

 72
65
 73
0
 40
0.0
  0
LTYPE
  5
16
100
AcDbSymbolTableRecord
100
AcDbLinetypeTableRecord
  2
CONTINUOUS
 70
64
  3
Solid line
 72
65
 73
0
 40
0.0
  0
LTYPE
  5
1F5
100
AcDbSymbolTableRecord
100
AcDbLinetypeTableRecord
  2
CENTER
 70
64
  3
____ _ ____ _ ____ _ ____ _ ____ _ ____ _ ____
 72
65
 73
4
 40
0.6
 49
0.375
 74
0
 49
-0.075
 74
0
 49
0.075
 74
0
 49
-0.075
 74
0
  0
LTYPE
  5
1F6
100
AcDbSymbolTableRecord
100
AcDbLinetypeTableRecord
  2
HIDDEN
 70
64
  3
- - - - - - - - - - - - - - - - - - - -
 72
65
 73
2
 40
0.2
 49
0.1
 74
0
 49
-0.1
 74
0
  0
LTYPE
  5
1F7
100
AcDbSymbolTableRecord
100
AcDbLinetypeTableRecord
  2
PHANTOM
 70
64
  3
_____ _ _ _____ _ _ _____ _ _ _____
 72
65
 73
6
 40
0.8
 49
0.45
 74
0
 49
-0.05
 74
0
 49
0.1
 74
0
 49
-0.05
 74
0
 49
0.1
 74
0
 49
-0.05
 74
0
  0
LTYPE
  5
1F8
100
AcDbSymbolTableRecord
100
AcDbLinetypeTableRecord
  2
DOT
 70
64
  3
. . . . . . . . . . . . . . . . . . . .
 72
65
 73
2
 40
0.2
 49
0.1
 74
0
 49
-0.1
 74
0
  0
LTYPE
  5
1F9
100
AcDbSymbolTableRecord
100
AcDbLinetypeTableRecord
  2
DASHED
 70
64
  3
- - - - - - - - - - - - - - - - - - - -
 72
65
 73
2
 40
0.2
 49
0.1
 74
0
 49
-0.1
 74
0
  0
ENDTAB
  0
TABLE
  2
LAYER
  5
2
100
AcDbSymbolTable
 70
36
  0
LAYER
  5
10
100
AcDbSymbolTableRecord
100
AcDbLayerTableRecord
  2
0
 70
0
 62
7
  6
CONTINUOUS
370
-3
390
F
  0
LAYER
  5
1FA
100
AcDbSymbolTableRecord
100
AcDbLayerTableRecord
  2
DEFAULT_1
 70
0
 62
7
  6
CENTER
370
-3
390
F
  0
LAYER
  5
1FB
100
AcDbSymbolTableRecord
100
AcDbLayerTableRecord
  2
DEFAULT_2
 70
0
 62
8
  6
HIDDEN
370
-3
390
F
  0
LAYER
  5
1FC
100
AcDbSymbolTableRecord
100
AcDbLayerTableRecord
  2
DEFAULT_3
 70
0
 62
7
  6
PHANTOM
370
-3
390
F
  0
LAYER
  5
1FD
100
AcDbSymbolTableRecord
100
AcDbLayerTableRecord
  2
ALL_FEATURES
 70
0
 62
7
  6
CONTINUOUS
370
-3
390
F
  0
LAYER
  5
1FE
100
AcDbSymbolTableRecord
100
AcDbLayerTableRecord
  2
AXES_FEATURES
 70
0
 62
7
  6
CONTINUOUS
370
-3
390
F
  0
LAYER
  5
1FF
100
AcDbSymbolTableRecord
100
AcDbLayerTableRecord
  2
DIMENSIONS
 70
0
 62
7
  6
CONTINUOUS
370
-3
390
F
  0
ENDTAB
  0
TABLE
  2
STYLE
  5
3
100
AcDbSymbolTable
 70
1
  0
STYLE
  5
11
100
AcDbSymbolTableRecord
100
AcDbTextStyleTableRecord
  2
STANDARD
 70
0
 40
0.0
 41
0.8
 50
0.0
 71
0
 42
0.2
  3
txt
  4

  0
STYLE
  5
200
100
AcDbSymbolTableRecord
100
AcDbTextStyleTableRecord
  2
TEXTSTYLE_1
 70
0
 40
0.0
 41
0.8
 50
0.0
 71
0
 42
0.2
  3
gdt
  4

  0
ENDTAB
  0
TABLE
  2
VIEW
  5
6
100
AcDbSymbolTable
 70
0
  0
ENDTAB
  0
TABLE
  2
UCS
  5
7
100
AcDbSymbolTable
 70
0
  0
ENDTAB
  0
TABLE
  2
APPID
  5
9
100
AcDbSymbolTable
 70
1
  0
APPID
  5
201
100
AcDbSymbolTableRecord
100
AcDbRegAppTableRecord
  2
ACAD
 70
0
  0
ENDTAB
  0
TABLE
  2
BLOCK_RECORD
  5
1
100
AcDbSymbolTable
 70
0
  0
BLOCK_RECORD
  5
202
100
AcDbSymbolTableRecord
100
AcDbBlockTableRecord
  2
*Model_Space
  0
BLOCK_RECORD
  5
203
100
AcDbSymbolTableRecord
100
AcDbBlockTableRecord
  2
*Paper_Space
  0
BLOCK_RECORD
  5
204
100
AcDbSymbolTableRecord
100
AcDbBlockTableRecord
  2
_FILLED
  0
ENDTAB
  0
TABLE
  2
DIMSTYLE
  5
A
100
AcDbSymbolTable
 70
1
100
AcDbDimStyleTable
 71
0
  0
DIMSTYLE
105
205
100
AcDbSymbolTableRecord
100
AcDbDimStyleTableRecord
  2
STANDARD
 70
0
  3

  4

 40
1.0
 41
0.1
 42
0.0625
 43
0.38
 44
0.125
 45
0.0
 46
0.0
 47
0.001
 48
0.001
140
0.08
141
0.09
142
0.0
143
25.4
144
1.0
145
0.0
146
1.0
147
0.09
 71
1.0
 72
0.0
 73
1
 74
1
 75
0
 76
0
 77
0
 78
4
 79
1
170
1
171
2
172
0
173
0
174
0
175
0
176
0
177
0
178
0
270
2
179
3
271
3
272
3
273
2
274
2
275
0
280
0
281
0
282
0
283
1
284
4
285
0
286
0
287
3
288
0
340
11
278
46
341
204
342
204
343
204
344
204
  0
ENDTAB
  0
ENDSEC
  0
SECTION
  2
BLOCKS
  0
BLOCK
  5
20
100
AcDbEntity
  8
0
100
AcDbBlockBegin
  2
*Model_Space
 70
0
 10
0.0
 20
0.0
 30
0.0
  3
*Model_Space
  1

  0
ENDBLK
  5
21
100
AcDbEntity
  8
0
100
AcDbBlockEnd
  0
BLOCK
  5
1C
100
AcDbEntity
  8
0
100
AcDbBlockBegin
  2
*Paper_Space
 70
0
 10
0.0
 20
0.0
 30
0.0
  3
*Paper_Space
  1

  0
ENDBLK
  5
1D
100
AcDbEntity
  8
0
100
AcDbBlockEnd
  0
BLOCK
  5
206
100
AcDbEntity
  8
0
100
AcDbBlockBegin
  2
_FILLED
 70
64
 10
0.0
 20
0.0
  3
_FILLED
  1

  0
SOLID
  5
207
100
AcDbEntity
  8
0
  6
BYBLOCK
 62
0
100
AcDbTrace
 10
0.0
 20
0.0
 11
-1.0
 21
0.2
 12
-1.0
 22
-0.2
 13
-1.0
 23
-0.2
  0
ENDBLK
  5
208
100
AcDbEntity
  8
0
  6
BYBLOCK
 62
0
100
AcDbBlockEnd
  0
ENDSEC
  0
SECTION
  2
ENTITIES
  0
LINE
  5
209
100
AcDbEntity
  8
0
100
AcDbLine
 62
7
  6
CONTINUOUS
 10
8.8369899013
 20
7.5006022017
 11
8.8369899013
 21
7.4706022025
  0
LINE
  5
20A
100
AcDbEntity
  8
0
100
AcDbLine
 62
9
  6
CONTINUOUS
 10
8.8569798947
 20
7.4706022025
 11
8.8569798947
 21
7.500602201
  0
LINE
  5
20B
100
AcDbEntity
  8
0
100
AcDbLine
 62
7
  6
CONTINUOUS
 10
9.4556847679
 20
10.764448626
 11
9.3702948836
 21
10.6186961893
  0
LINE
  5
20C
100
AcDbEntity
  8
0
100
AcDbLine
 62
9
  6
CONTINUOUS
 10
9.370591521
 20
10.587353891
 11
9.4616764738
 21
10.7428272698
  0
LINE
  5
20D
100
AcDbEntity
  8
0
100
AcDbLine
 62
7
  6
CONTINUOUS
 10
9.0395583263
 20
7.7814012382
 11
9.0382689384
 21
7.7728480034
  0
LINE
  5
20E
100
AcDbEntity
  8
0
100
AcDbLine
 62
9
  6
CONTINUOUS
 10
9.4745509039
 20
10.2620569637
 11
9.4786364238
 21
10.2816352299
  0
LINE
  5
20F
100
AcDbEntity
  8
0
100
AcDbLine
 62
7
  6
CONTINUOUS
 10
8.8369899013
 20
7.4706022025
 11
11.1363130932
 21
7.4706022025
  0
LINE
  5
210
100
AcDbEntity
  8
0
100
AcDbLine
 62
7
  6
CONTINUOUS
 10
8.8569798947
 20
7.5006022048
 11
11.1163230999
 21
7.5006022048
  0
LINE
  5
211
100
AcDbEntity
  8
0
100
AcDbLine
 62
7
  6
CONTINUOUS
 10
9.3675514871
 20
10.4302504248
 11
9.3675514871
 21
10.6085863112
  0
LINE
  5
212
100
AcDbEntity
  8
0
100
AcDbLine
 62
9
  6
CONTINUOUS
 10
9.370591521
 20
10.587353891
 11
9.370591521
 21
10.4519437846
  0
LINE
  5
213
100
AcDbEntity
  8
0
100
AcDbLine
 62
9
  6
CONTINUOUS
 10
9.4616764788
 20
10.2816352476
 11
9.4616764738
 21
10.7428272698
  0
LINE
  5
214
100
AcDbEntity
  8
0
100
AcDbLine
 62
9
  6
CONTINUOUS
 10
9.4786364238
 20
10.2816352299
 11
9.4786364399
 21
10.7428272698
  0
LWPOLYLINE
  5
215
100
AcDbEntity
  8
0
100
AcDbPolyline
 62
7
  6
CONTINUOUS
 90
3
 70
0
 10
9.0455622541
 20
7.8203859006
 10
9.0398473932
 20
7.7969598266
 10
9.0395615412
 20
7.781404868
  0
LINE
  5
216
100
AcDbEntity
  8
0
100
AcDbLine
 62
9
  6
CONTINUOUS
 10
9.0106443304
 20
7.7354150985
 11
10.9626588022
 21
7.7354164506
  0
LINE
  5
217
100
AcDbEntity
  8
0
100
AcDbLine
 62
9
  6
CONTINUOUS
 10
10.9795074448
 20
7.7354160079
 11
10.9814257804
 21
7.7353009545
  0
LINE
  5
218
100
AcDbEntity
  8
0
100
AcDbLine
 62
9
  6
CONTINUOUS
 10
9.4796796238
 20
10.7546086015
 11
9.478877367
 21
10.7745925622
  0
LINE
  5
219
100
AcDbEntity
  8
0
100
AcDbLine
 62
9
  6
CONTINUOUS
 10
8.9918823832
 20
7.7353086172
 11
8.9937957123
 21
7.7354160388
  0
LINE
  5
21A
100
AcDbEntity
  8
0
100
AcDbLine
 62
9
  6
CONTINUOUS
 10
9.0541365077
 20
7.8336364227
 11
9.0520598289
 21
7.8336364329
  0
LINE
  5
21B
100
AcDbEntity
  8
0
100
AcDbLine
 62
9
  6
CONTINUOUS
 10
10.9212496261
 20
7.8336382808
 11
10.9191655795
 21
7.8336382367
  0
LINE
  5
21C
100
AcDbEntity
  8
0
100
AcDbLine
 62
9
  6
CONTINUOUS
 10
10.9020947226
 20
7.8336413485
 11
9.0712072267
 21
7.8336412728
  0
LINE
  5
21D
100
AcDbEntity
  8
0
100
AcDbLine
 62
7
  6
CONTINUOUS
 10
9.7336514871
 20
10.0012022025
 11
9.7336514871
 21
9.9702022025
  0
LINE
  5
21E
100
AcDbEntity
  8
0
100
AcDbLine
 62
7
  6
CONTINUOUS
 10
9.4404139234
 20
8.6396013692
 11
9.3306502177
 21
8.3694149005
  0
LINE
  5
21F
100
AcDbEntity
  8
0
100
AcDbLine
 62
7
  6
CONTINUOUS
 10
9.3306502177
 20
8.3694149005
 11
9.199695311
 21
8.0977687563
  0
LINE
  5
220
100
AcDbEntity
  8
0
100
AcDbLine
 62
7
  6
CONTINUOUS
 10
9.0520743158
 20
7.833665976
 11
9.0455622541
 21
7.8203859006
  0
LINE
  5
221
100
AcDbEntity
  8
0
100
AcDbLine
 62
7
  6
CONTINUOUS
 10
9.199695311
 20
8.0977687563
 11
9.0520526141
 21
7.8336364329
  0
LINE
  5
222
100
AcDbEntity
  8
0
100
AcDbLine
 62
7
  6
CONTINUOUS
 10
9.3695817361
 20
10.4214704448
 11
9.4403488754
 21
10.2766332293
  0
LWPOLYLINE
  5
223
100
AcDbEntity
  8
0
100
AcDbPolyline
 62
7
  6
CONTINUOUS
 90
4
 70
0
 10
8.9918822774
 20
7.73530861
 10
8.9441396312
 20
7.6604181761
 10
8.8889779905
 20
7.5769678221
 10
8.8366767335
 20
7.5006022027
  0
LWPOLYLINE
  5
224
100
AcDbEntity
  8
0
100
AcDbPolyline
 62
7
  6
CONTINUOUS
 90
3
 70
0
 10
9.0382689384
 20
7.7728480034
 10
9.0339886809
 20
7.7661389513
 10
9.0274411611
 20
7.761634416
  0
LINE
  5
225
100
AcDbEntity
  8
0
100
AcDbLine
 62
9
  6
CONTINUOUS
 10
9.4529573692
 20
10.283367801
 11
9.370591521
 21
10.4519437846
  0
LINE
  5
226
100
AcDbEntity
  8
0
100
AcDbLine
 62
7
  6
CONTINUOUS
 10
10.2396514871
 20
10.0012022025
 11
10.2396514871
 21
9.9702022025
  0
LINE
  5
227
100
AcDbEntity
  8
0
100
AcDbLine
 62
7
  6
CONTINUOUS
 10
10.5591775752
 20
8.5701453079
 11
10.5329198407
 21
8.6395196406
  0
LINE
  5
228
100
AcDbEntity
  8
0
100
AcDbLine
 62
7
  6
CONTINUOUS
 10
10.5329198407
 20
8.6395196406
 11
10.5329170988
 21
8.6395270717
  0
LINE
  5
229
100
AcDbEntity
  8
0
100
AcDbLine
 62
9
  6
CONTINUOUS
 10
10.5851513483
 20
10.3438296282
 11
10.5851515608
 21
10.8166484838
  0
LWPOLYLINE
  5
22A
100
AcDbEntity
  8
0
100
AcDbPolyline
 62
7
  6
CONTINUOUS
 90
7
 70
0
 10
12.9031978482
 20
10.3173842238
 10
12.9057019033
 20
10.3183395181
 10
12.9081580952
 20
10.3196862852
 10
12.9104960843
 20
10.3214445782
 10
12.9126184832
 20
10.323602714
 10
12.9144421639
 20
10.3261405123
 10
12.9151775877
 20
10.3274644872
  0
LINE
  5
22B
100
AcDbEntity
  8
0
100
AcDbLine
 62
9
  6
CONTINUOUS
 10
10.5873861729
 20
10.3239540137
 11
10.5851514871
 21
10.3438287639
  0
LINE
  5
22C
100
AcDbEntity
  8
0
100
AcDbLine
 62
9
  6
CONTINUOUS
 10
11.1163230999
 20
7.5006022086
 11
11.1163230999
 21
7.4706022025
  0
LINE
  5
22D
100
AcDbEntity
  8
0
100
AcDbLine
 62
7
  6
CONTINUOUS
 10
11.1363130932
 20
7.4706022025
 11
11.1363130932
 21
7.5006022025
  0
LWPOLYLINE
  5
22E
100
AcDbEntity
  8
0
100
AcDbPolyline
 62
7
  6
CONTINUOUS
 90
4
 70
0
 10
9.0191359609
 20
7.7586160899
 10
9.0060881867
 20
7.7509624519
 10
8.9953402962
 20
7.7402514628
 10
8.9918813138
 20
7.7353023304
  0
LINE
  5
22F
100
AcDbEntity
  8
0
100
AcDbLine
 62
7
  6
CONTINUOUS
 10
12.9008556049
 20
10.3168178246
 11
12.9031978482
 21
10.3173842238
  0
LINE
  5
230
100
AcDbEntity
  8
0
100
AcDbLine
 62
7
  6
CONTINUOUS
 10
9.7066513445
 20
9.9702022025
 11
10.2666516026
 21
9.9702022025
  0
LINE
  5
231
100
AcDbEntity
  8
0
100
AcDbLine
 62
7
  6
CONTINUOUS
 10
9.7116514918
 20
10.0012022025
 11
10.2616514848
 21
10.0012022025
  0
LINE
  5
232
100
AcDbEntity
  8
0
100
AcDbLine
 62
7
  6
CONTINUOUS
 10
9.0274411611
 20
7.761634416
 11
9.0191359609
 21
7.7586160899
  0
LINE
  5
233
100
AcDbEntity
  8
0
100
AcDbLine
 62
7
  6
CONTINUOUS
 10
12.8991007869
 20
10.3165824851
 11
12.9009074664
 21
10.3168271791
  0
LINE
  5
234
100
AcDbEntity
  8
0
100
AcDbLine
 62
9
  6
CONTINUOUS
 10
10.5828424814
 20
10.3435685747
 11
10.5851513483
 21
10.3438296282
  0
LINE
  5
235
100
AcDbEntity
  8
0
100
AcDbLine
 62
7
  6
CONTINUOUS
 10
10.5851431396
 20
10.3237012791
 11
10.5873861729
 21
10.3239540137
  0
LWPOLYLINE
  5
236
100
AcDbEntity
  8
0
100
AcDbPolyline
 62
7
  6
CONTINUOUS
 90
4
 70
0
 10
10.5873932231
 20
10.3238212204
 10
10.9411932367
 20
10.3426051088
 10
11.3371370192
 20
10.3507154658
 10
11.7726514871
 20
10.3479783357
  0
LWPOLYLINE
  5
237
100
AcDbEntity
  8
0
100
AcDbPolyline
 62
7
  6
CONTINUOUS
 90
4
 70
0
 10
12.897245796
 20
10.3164828965
 10
12.8977325176
 20
10.3164995607
 10
12.8982371546
 20
10.3165218038
 10
12.8990948134
 20
10.3165819468
  0
LINE
  5
238
100
AcDbEntity
  8
0
100
AcDbLine
 62
7
  6
CONTINUOUS
 10
12.8954542757
 20
10.3164327284
 11
12.897245796
 21
10.3164828965
  0
LINE
  5
239
100
AcDbEntity
  8
0
100
AcDbLine
 62
9
  6
CONTINUOUS
 10
9.4616764763
 20
10.2816352235
 11
9.4786364399
 21
10.2816352235
  0
LWPOLYLINE
  5
23A
100
AcDbEntity
  8
0
100
AcDbPolyline
 62
7
  6
CONTINUOUS
 90
3
 70
0
 10
11.7726616866
 20
10.3479778342
 10
12.2590818344
 20
10.3279907355
 10
12.8951964282
 20
10.3164275937
  0
LINE
  5
23B
100
AcDbEntity
  8
0
100
AcDbLine
 62
9
  6
CONTINUOUS
 10
13.0355350486
 20
10.5957603199
 11
12.9146546234
 21
10.3572915429
  0
LINE
  5
23C
100
AcDbEntity
  8
0
100
AcDbLine
 62
7
  6
CONTINUOUS
 10
12.9151772554
 20
10.3274638316
 11
13.036519571
 21
10.56684381
  0
LINE
  5
23D
100
AcDbEntity
  8
0
100
AcDbLine
 62
7
  6
CONTINUOUS
 10
12.9141374508
 20
10.3257164795
 11
12.9151776398
 21
10.32746459
  0
LINE
  5
23E
100
AcDbEntity
  8
0
100
AcDbLine
 62
9
  6
CONTINUOUS
 10
13.0355350486
 20
10.5957603198
 11
13.0380126219
 21
10.5958446739
  0
LINE
  5
23F
100
AcDbEntity
  8
0
100
AcDbLine
 62
9
  6
CONTINUOUS
 10
9.3675514871
 20
10.4519437846
 11
9.370591521
 21
10.4519437846
  0
LINE
  5
240
100
AcDbEntity
  8
0
100
AcDbLine
 62
9
  6
CONTINUOUS
 10
9.4796796233
 20
10.7546086014
 11
9.4616074789
 21
10.7577105331
  0
LINE
  5
241
100
AcDbEntity
  8
0
100
AcDbLine
 62
7
  6
CONTINUOUS
 10
12.8706141151
 20
11.064455751
 11
12.5414875261
 21
11.0142930449
  0
LINE
  5
242
100
AcDbEntity
  8
0
100
AcDbLine
 62
9
  6
CONTINUOUS
 10
13.0311683373
 20
10.7968688792
 11
13.028690764
 21
10.7967845251
  0
LINE
  5
243
100
AcDbEntity
  8
0
100
AcDbLine
 62
9
  6
CONTINUOUS
 10
9.370591521
 20
10.5873538912
 11
9.3675514871
 21
10.5873538912
  0
LINE
  5
244
100
AcDbEntity
  8
0
100
AcDbLine
 62
9
  6
CONTINUOUS
 10
9.4786364399
 20
10.7428272698
 11
9.4616764763
 21
10.7428272698
  0
LINE
  5
245
100
AcDbEntity
  8
0
100
AcDbLine
 62
7
  6
CONTINUOUS
 10
12.8706136366
 20
11.0644529047
 11
12.8706141151
 21
11.064455751
  0
LINE
  5
246
100
AcDbEntity
  8
0
100
AcDbLine
 62
7
  6
CONTINUOUS
 10
12.5414875261
 20
11.0142930449
 11
12.1746641182
 21
10.9674945561
  0
LINE
  5
247
100
AcDbEntity
  8
0
100
AcDbLine
 62
7
  6
CONTINUOUS
 10
12.1746641182
 20
10.9674945561
 11
11.7726514871
 21
10.9253786645
  0
LINE
  5
248
100
AcDbEntity
  8
0
100
AcDbLine
 62
7
  6
CONTINUOUS
 10
10.5851515608
 20
10.8166481505
 11
10.5867491006
 21
10.8167576022
  0
LINE
  5
249
100
AcDbEntity
  8
0
100
AcDbLine
 62
9
  6
CONTINUOUS
 10
12.8912533509
 20
11.0275157014
 11
12.8735370445
 21
11.0268966609
  0
LINE
  5
24A
100
AcDbEntity
  8
0
100
AcDbLine
 62
7
  6
CONTINUOUS
 10
12.9146546234
 20
10.3572915429
 11
12.8912534296
 21
11.0275157061
  0
LINE
  5
24B
100
AcDbEntity
  8
0
100
AcDbLine
 62
7
  6
CONTINUOUS
 10
12.8952251253
 20
10.3565970433
 11
12.8735370445
 21
11.0268966609
  0
LINE
  5
24C
100
AcDbEntity
  8
0
100
AcDbLine
 62
9
  6
CONTINUOUS
 10
13.0355350486
 20
10.5957603199
 11
13.028690764
 21
10.7967845251
  0
LINE
  5
24D
100
AcDbEntity
  8
0
100
AcDbLine
 62
7
  6
CONTINUOUS
 10
13.0305119891
 20
10.8161465524
 11
13.0386689701
 21
10.5765670007
  0
LINE
  5
24E
100
AcDbEntity
  8
0
100
AcDbLine
 62
7
  6
CONTINUOUS
 10
12.8706141163
 20
11.0644557512
 11
12.8706250239
 21
11.0644049158
  0
LWPOLYLINE
  5
24F
100
AcDbEntity
  8
0
100
AcDbPolyline
 62
7
  6
CONTINUOUS
 90
3
 70
0
 10
12.8856873322
 20
11.0609349152
 10
12.8784195554
 20
11.0642323866
 10
12.8706004483
 20
11.0644532773
  0
LINE
  5
250
100
AcDbEntity
  8
0
100
AcDbLine
 62
7
  6
CONTINUOUS
 10
12.8910932309
 20
11.0550479487
 11
12.8856873322
 21
11.0609349152
  0
LINE
  5
251
100
AcDbEntity
  8
0
100
AcDbLine
 62
7
  6
CONTINUOUS
 10
12.8910798271
 20
11.0550625452
 11
12.8904666179
 21
11.0560241271
  0
LINE
  5
252
100
AcDbEntity
  8
0
100
AcDbLine
 62
9
  6
CONTINUOUS
 10
12.8912534296
 20
11.0275157061
 11
13.028690764
 21
10.7967845251
  0
LINE
  5
253
100
AcDbEntity
  8
0
100
AcDbLine
 62
7
  6
CONTINUOUS
 10
13.0277062417
 20
10.8257010349
 11
12.8911672145
 21
11.0549241287
  0
ARC
  5
254
100
AcDbEntity
  8
0
100
AcDbCircle
 62
9
  6
CONTINUOUS
 10
4.4783461347
 20
10.6019759035
 40
5.3627324325
100
AcDbArc
 50
324.6728620987
 51
327.6877106326
  0
ARC
  5
255
100
AcDbEntity
  8
0
100
AcDbCircle
 62
9
  6
CONTINUOUS
 10
4.4969406774
 20
10.5685626326
 40
5.3149247209
100
AcDbArc
 50
324.749053632
 51
327.7878998884
  0
ARC
  5
256
100
AcDbEntity
  8
0
100
AcDbCircle
 62
7
  6
CONTINUOUS
 10
9.1315025524
 20
7.7871928977
 40
0.0902374916
100
AcDbArc
 50
149.0877420798
 51
183.7290631777
  0
ARC
  5
257
100
AcDbEntity
  8
0
100
AcDbCircle
 62
9
  6
CONTINUOUS
 10
9.0444673886
 20
7.703488619
 40
0.0598891148
100
AcDbArc
 50
106.6563329194
 51
147.7932089485
  0
ARC
  5
258
100
AcDbEntity
  8
0
100
AcDbCircle
 62
7
  6
CONTINUOUS
 10
9.0216586821
 20
7.7797401039
 40
0.0197016929
100
AcDbArc
 50
286.6487202004
 51
301.1861127788
  0
ARC
  5
259
100
AcDbEntity
  8
0
100
AcDbCircle
 62
7
  6
CONTINUOUS
 10
8.8569842817
 20
7.5148807006
 40
0.0142785003
100
AcDbArc
 50
256.3077045081
 51
269.9823959493
  0
ARC
  5
25A
100
AcDbEntity
  8
0
100
AcDbCircle
 62
9
  6
CONTINUOUS
 10
9.8665779489
 20
10.3986413558
 40
0.4988423454
100
AcDbArc
 50
173.8661066686
 51
174.7386017042
  0
ARC
  5
25B
100
AcDbEntity
  8
0
100
AcDbCircle
 62
7
  6
CONTINUOUS
 10
9.3774363643
 20
9.7923729388
 40
0.4796305122
100
AcDbArc
 50
80.5304877793
 51
80.6837269683
  0
ARC
  5
25C
100
AcDbEntity
  8
0
100
AcDbCircle
 62
7
  6
CONTINUOUS
 10
9.3787603697
 20
9.8001961308
 40
0.4716960578
100
AcDbArc
 50
80.0679212404
 51
80.2818776355
  0
ARC
  5
25D
100
AcDbEntity
  8
0
100
AcDbCircle
 62
7
  6
CONTINUOUS
 10
9.3792784722
 20
9.8033010553
 40
0.4685483345
100
AcDbArc
 50
79.308393556
 51
80.6896848312
  0
ARC
  5
25E
100
AcDbEntity
  8
0
100
AcDbCircle
 62
9
  6
CONTINUOUS
 10
9.3660273012
 20
9.8230846754
 40
0.4684201025
100
AcDbArc
 50
78.2176039803
 51
79.3049676369
  0
ARC
  5
25F
100
AcDbEntity
  8
0
100
AcDbCircle
 62
7
  6
CONTINUOUS
 10
9.3802663273
 20
9.8087173616
 40
0.4630427872
100
AcDbArc
 50
79.3041687185
 51
80.0696090934
  0
ARC
  5
260
100
AcDbEntity
  8
0
100
AcDbCircle
 62
7
  6
CONTINUOUS
 10
9.383171142
 20
9.8240231011
 40
0.4474638457
100
AcDbArc
 50
78.2163311285
 51
79.305920206
  0
ARC
  5
261
100
AcDbEntity
  8
0
100
AcDbCircle
 62
9
  6
CONTINUOUS
 10
9.7346489983
 20
10.6252722909
 40
0.3660268458
100
AcDbArc
 50
184.7667051231
 51
185.9462007427
  0
ARC
  5
262
100
AcDbEntity
  8
0
100
AcDbCircle
 62
9
  6
CONTINUOUS
 10
9.7002002497
 20
10.4141432907
 40
0.3317441702
100
AcDbArc
 50
174.7696606669
 51
175.8717433642
  0
ARC
  5
263
100
AcDbEntity
  8
0
100
AcDbCircle
 62
7
  6
CONTINUOUS
 10
9.3821006989
 20
9.9711645641
 40
0.3298237065
100
AcDbArc
 50
17.6246295794
 51
21.1158102527
  0
ARC
  5
264
100
AcDbEntity
  8
0
100
AcDbCircle
 62
7
  6
CONTINUOUS
 10
9.4241179531
 20
9.9586276391
 40
0.3064641298
100
AcDbArc
 50
63.2137559533
 51
67.4474493801
  0
ARC
  5
265
100
AcDbEntity
  8
0
100
AcDbCircle
 62
7
  6
CONTINUOUS
 10
9.4413666659
 20
9.9985411414
 40
0.2644279127
100
AcDbArc
 50
29.485650763
 51
34.8080686184
  0
ARC
  5
266
100
AcDbEntity
  8
0
100
AcDbCircle
 62
7
  6
CONTINUOUS
 10
9.4499290229
 20
10.003009688
 40
0.2550282878
100
AcDbArc
 50
48.9811938909
 51
55.1514980017
  0
ARC
  5
267
100
AcDbEntity
  8
0
100
AcDbCircle
 62
9
  6
CONTINUOUS
 10
9.6206959673
 20
10.6159726841
 40
0.2516952374
100
AcDbArc
 50
183.3676100098
 51
184.8126685944
  0
ARC
  5
268
100
AcDbEntity
  8
0
100
AcDbCircle
 62
7
  6
CONTINUOUS
 10
9.453023462
 20
10.0068478742
 40
0.2501152104
100
AcDbArc
 50
34.7699593104
 51
42.2501046858
  0
ARC
  5
269
100
AcDbEntity
  8
0
100
AcDbCircle
 62
7
  6
CONTINUOUS
 10
9.4537011078
 20
10.0073731658
 40
0.2492604252
100
AcDbArc
 50
42.2654590288
 51
48.9771107045
  0
ARC
  5
26A
100
AcDbEntity
  8
0
100
AcDbCircle
 62
7
  6
CONTINUOUS
 10
9.4583186263
 20
10.2854132094
 40
0.02
100
AcDbArc
 50
206.0400311517
 51
260.6836508274
  0
ARC
  5
26B
100
AcDbEntity
  8
0
100
AcDbCircle
 62
7
  6
CONTINUOUS
 10
9.4729413714
 20
10.7543387478
 40
0.02
100
AcDbArc
 50
92.2877844816
 51
149.6358554502
  0
ARC
  5
26C
100
AcDbEntity
  8
0
100
AcDbCircle
 62
7
  6
CONTINUOUS
 10
9.3875514871
 20
10.4302504248
 40
0.02
100
AcDbArc
 50
180.0
 51
206.04003111
  0
ARC
  5
26D
100
AcDbEntity
  8
0
100
AcDbCircle
 62
7
  6
CONTINUOUS
 10
9.3875514871
 20
10.6085863112
 40
0.02
100
AcDbArc
 50
149.6358554741
 51
180.0
  0
ARC
  5
26E
100
AcDbEntity
  8
0
100
AcDbCircle
 62
9
  6
CONTINUOUS
 10
8.0865632147
 20
45.4572770952
 40
34.7306202521
100
AcDbArc
 50
272.2988679579
 51
274.1255335329
  0
ARC
  5
26F
100
AcDbEntity
  8
0
100
AcDbCircle
 62
7
  6
CONTINUOUS
 10
8.0865607822
 20
45.4573183045
 40
34.7106613995
100
AcDbArc
 50
272.2877441237
 51
274.1279139645
  0
ARC
  5
270
100
AcDbEntity
  8
0
100
AcDbCircle
 62
9
  6
CONTINUOUS
 10
11.2312434596
 20
10.8762299737
 40
0.6472325252
100
AcDbArc
 50
184.5925321078
 51
185.2721844905
  0
ARC
  5
271
100
AcDbEntity
  8
0
100
AcDbCircle
 62
7
  6
CONTINUOUS
 10
10.6215609188
 20
9.8641334829
 40
0.4596834122
100
AcDbArc
 50
105.3079163734
 51
108.2814819666
  0
ARC
  5
272
100
AcDbEntity
  8
0
100
AcDbCircle
 62
9
  6
CONTINUOUS
 10
12.6660773393
 20
10.8181884399
 40
0.3632445779
100
AcDbArc
 50
356.6219323444
 51
357.6700859891
  0
ARC
  5
273
100
AcDbEntity
  8
0
100
AcDbCircle
 62
7
  6
CONTINUOUS
 10
10.6157408836
 20
10.0036413221
 40
0.3527117694
100
AcDbArc
 50
163.2476180079
 51
167.3598201988
  0
ARC
  5
274
100
AcDbEntity
  8
0
100
AcDbCircle
 62
9
  6
CONTINUOUS
 10
12.697876737
 20
10.5524283614
 40
0.3404273697
100
AcDbArc
 50
6.1725359588
 51
7.3128429711
  0
ARC
  5
275
100
AcDbEntity
  8
0
100
AcDbCircle
 62
7
  6
CONTINUOUS
 10
10.5495303476
 20
10.027797336
 40
0.28210252
100
AcDbArc
 50
149.1114334324
 51
155.0590105335
  0
ARC
  5
276
100
AcDbEntity
  8
0
100
AcDbCircle
 62
7
  6
CONTINUOUS
 10
10.5395628556
 20
10.0321439538
 40
0.2714773783
100
AcDbArc
 50
128.3015571426
 51
134.6341092144
  0
ARC
  5
277
100
AcDbEntity
  8
0
100
AcDbCircle
 62
7
  6
CONTINUOUS
 10
10.5365338419
 20
10.0352768995
 40
0.2671198385
100
AcDbArc
 50
134.6439040861
 51
141.6965471365
  0
ARC
  5
278
100
AcDbEntity
  8
0
100
AcDbCircle
 62
7
  6
CONTINUOUS
 10
10.5356417861
 20
10.0359885761
 40
0.2659786916
100
AcDbArc
 50
141.6977450093
 51
149.0897807708
  0
ARC
  5
279
100
AcDbEntity
  8
0
100
AcDbCircle
 62
9
  6
CONTINUOUS
 10
12.7762314148
 20
10.8135623259
 40
0.2529935396
100
AcDbArc
 50
357.7027306577
 51
359.0016785119
  0
ARC
  5
27A
100
AcDbEntity
  8
0
100
AcDbCircle
 62
9
  6
CONTINUOUS
 10
12.8025026957
 20
10.5635655597
 40
0.2352105315
100
AcDbArc
 50
4.810990487
 51
6.2156630782
  0
ARC
  5
27B
100
AcDbEntity
  8
0
100
AcDbCircle
 62
9
  6
CONTINUOUS
 10
10.8416835174
 20
7.7871691228
 40
0.0903493714
100
AcDbArc
 50
356.2905101835
 51
30.8959839063
  0
ARC
  5
27C
100
AcDbEntity
  8
0
100
AcDbCircle
 62
7
  6
CONTINUOUS
 10
10.8438806316
 20
7.787518182
 40
0.0900715778
100
AcDbArc
 50
356.1081947215
 51
30.8278277289
  0
ARC
  5
27D
100
AcDbEntity
  8
0
100
AcDbCircle
 62
7
  6
CONTINUOUS
 10
10.930032178
 20
7.7029627318
 40
0.0607232097
100
AcDbArc
 50
33.3964445995
 51
45.8002321708
  0
ARC
  5
27E
100
AcDbEntity
  8
0
100
AcDbCircle
 62
7
  6
CONTINUOUS
 10
10.9286833565
 20
7.7033578878
 40
0.0600897741
100
AcDbArc
 50
32.2425197949
 51
45.430754583
  0
ARC
  5
27F
100
AcDbEntity
  8
0
100
AcDbCircle
 62
7
  6
CONTINUOUS
 10
10.9305409441
 20
7.7033952136
 40
0.060060646
100
AcDbArc
 50
45.8605548223
 51
73.1824549333
  0
ARC
  5
280
100
AcDbEntity
  8
0
100
AcDbCircle
 62
7
  6
CONTINUOUS
 10
10.9288594182
 20
7.7035215163
 40
0.0598496508
100
AcDbArc
 50
45.4408995464
 51
73.3685064482
  0
ARC
  5
281
100
AcDbEntity
  8
0
100
AcDbCircle
 62
7
  6
CONTINUOUS
 10
10.9319998883
 20
7.7043387929
 40
0.058323017
100
AcDbArc
 50
32.0899487097
 51
33.3318389121
  0
ARC
  5
282
100
AcDbEntity
  8
0
100
AcDbCircle
 62
7
  6
CONTINUOUS
 10
10.9519833709
 20
7.7800368629
 40
0.0201777267
100
AcDbArc
 50
176.3079375472
 51
200.3719946366
  0
ARC
  5
283
100
AcDbEntity
  8
0
100
AcDbCircle
 62
7
  6
CONTINUOUS
 10
13.0186805521
 20
10.5758864537
 40
0.02
100
AcDbArc
 50
333.1194347011
 51
1.95
  0
ARC
  5
284
100
AcDbEntity
  8
0
100
AcDbCircle
 62
7
  6
CONTINUOUS
 10
13.010523571
 20
10.8154660054
 40
0.02
100
AcDbArc
 50
1.95
 51
30.7805653001
  0
ARC
  5
285
100
AcDbEntity
  8
0
100
AcDbCircle
 62
7
  6
CONTINUOUS
 10
10.9517803901
 20
7.7799578501
 40
0.0199586161
100
AcDbArc
 50
200.3622046358
 51
238.7979737319
  0
ARC
  5
286
100
AcDbEntity
  8
0
100
AcDbCircle
 62
7
  6
CONTINUOUS
 10
10.9532902077
 20
7.7786065567
 40
0.0185142379
100
AcDbArc
 50
247.8360785753
 51
253.1367031062
  0
ARC
  5
287
100
AcDbEntity
  8
0
100
AcDbCircle
 62
7
  6
CONTINUOUS
 10
11.1163069282
 20
7.5149693256
 40
0.0143671262
100
AcDbArc
 50
270.0644921773
 51
283.6545638598
  0
ARC
  5
288
100
AcDbEntity
  8
0
100
AcDbCircle
 62
9
  6
CONTINUOUS
 10
12.6211700574
 20
18.2967723915
 40
7.9449033559
100
AcDbArc
 50
271.9768165044
 51
272.1169865574
  0
ARC
  5
289
100
AcDbEntity
  8
0
100
AcDbCircle
 62
7
  6
CONTINUOUS
 10
15.9160609464
 20
10.8297891614
 40
5.8246443225
100
AcDbArc
 50
212.0916453996
 51
214.8593659332
  0
ARC
  5
28A
100
AcDbEntity
  8
0
100
AcDbCircle
 62
7
  6
CONTINUOUS
 10
15.5143083547
 20
10.5939311307
 40
5.3605529565
100
AcDbArc
 50
212.2253116552
 51
215.1391476143
  0
ARC
  5
28B
100
AcDbEntity
  8
0
100
AcDbCircle
 62
9
  6
CONTINUOUS
 10
15.474838846
 20
10.5885365783
 40
5.3385462765
100
AcDbArc
 50
212.404052517
 51
215.3343108235
  0
ARC
  5
28C
100
AcDbEntity
  8
0
100
AcDbCircle
 62
7
  6
CONTINUOUS
 10
15.2744354418
 20
10.439791932
 40
5.0736826325
100
AcDbArc
 50
205.6915493157
 51
210.8976481364
  0
ARC
  5
28D
100
AcDbEntity
  8
0
100
AcDbCircle
 62
7
  6
CONTINUOUS
 10
15.0380307571
 20
10.3218865824
 40
4.8095351005
100
AcDbArc
 50
205.2605801618
 51
205.6467360829
  0
ARC
  5
28E
100
AcDbEntity
  8
0
100
AcDbCircle
 62
7
  6
CONTINUOUS
 10
14.9119041361
 20
10.263185388
 40
4.6704193256
100
AcDbArc
 50
201.6749065953
 51
205.269594118
  0
ARC
  5
28F
100
AcDbEntity
  8
0
100
AcDbCircle
 62
7
  6
CONTINUOUS
 10
14.7438951796
 20
10.1940625495
 40
4.4887602561
100
AcDbArc
 50
201.2091901632
 51
201.6470412308
  0
ARC
  5
290
100
AcDbEntity
  8
0
100
AcDbCircle
 62
7
  6
CONTINUOUS
 10
14.7164111495
 20
10.1833902164
 40
4.4592768613
100
AcDbArc
 50
200.8435461534
 51
201.2091074125
  0
ARC
  5
291
100
AcDbEntity
  8
0
100
AcDbCircle
 62
7
  6
CONTINUOUS
 10
14.6841936914
 20
10.1711476508
 40
4.4248117409
100
AcDbArc
 50
200.2516251779
 51
200.8438332692
  0
ARC
  5
292
100
AcDbEntity
  8
0
100
AcDbCircle
 62
7
  6
CONTINUOUS
 10
14.6077845863
 20
10.1461435303
 40
4.3443757062
100
AcDbArc
 50
193.2008391409
 51
196.0008648486
  0
LINE
  5
293
100
AcDbEntity
  8
0
100
AcDbLine
 62
7
  6
CONTINUOUS
 10
10.9212496956
 20
7.8336381645
 11
10.920779484
 21
7.834425306
  0
LINE
  5
294
100
AcDbEntity
  8
0
100
AcDbLine
 62
7
  6
CONTINUOUS
 10
10.5335805107
 20
8.6377233631
 11
10.5328579031
 21
8.6397001847
  0
SPLINE
  5
295
100
AcDbEntity
  8
0
100
AcDbSpline
 62
7
  6
CONTINUOUS
 70
0
 71
3
 72
13
 73
9
 74
0
 42
0.0000001
 43
0.0000001
 44
0.0000000001
 40
0.0
 40
0.0
 40
0.0
 40
0.0
 40
0.1275596714
 40
0.2547228128
 40
0.381287964
 40
0.5071042368
 40
0.755833324
 40
1.0
 40
1.0
 40
1.0
 40
1.0
 10
10.2666517635
 20
9.9702022224
 30
0.0
 10
10.269378855
 20
9.9123582948
 30
0.0
 10
10.2769791825
 20
9.7969399146
 30
0.0
 10
10.2948343232
 20
9.6247313113
 30
0.0
 10
10.3191084444
 20
9.4541035684
 30
0.0
 10
10.3597766081
 20
9.2302308103
 30
0.0
 10
10.4258775985
 20
8.9569488404
 30
0.0
 10
10.4948267942
 20
8.7438263109
 30
0.0
 10
10.5328518639
 20
8.639708463
 30
0.0
  0
SPLINE
  5
296
100
AcDbEntity
  8
0
100
AcDbSpline
 62
7
  6
CONTINUOUS
 70
0
 71
3
 72
11
 73
7
 74
0
 42
0.0000001
 43
0.0000001
 44
0.0000000001
 40
0.0
 40
0.0
 40
0.0
 40
0.0
 40
0.2497931491
 40
0.4996888563
 40
0.7497769486
 40
1.0
 40
1.0
 40
1.0
 40
1.0
 10
11.7726407725
 20
10.925377809
 30
0.0
 10
11.8641749844
 20
10.9337534734
 30
0.0
 10
12.0471797664
 20
10.9516512315
 30
0.0
 10
12.3213142706
 20
10.9829095795
 30
0.0
 10
12.5949384353
 20
11.0196067934
 30
0.0
 10
12.7768118033
 20
11.0482987972
 30
0.0
 10
12.8675643887
 20
11.0638467176
 30
0.0
  0
SPLINE
  5
297
100
AcDbEntity
  8
0
100
AcDbSpline
 62
7
  6
CONTINUOUS
 70
0
 71
3
 72
16
 73
12
 74
0
 42
0.0000001
 43
0.0000001
 44
0.0000000001
 40
0.0
 40
0.0
 40
0.0
 40
0.0
 40
0.1275449054
 40
0.2546831392
 40
0.3812320665
 40
0.4442325477
 40
0.5070218214
 40
0.6319054538
 40
0.7557747655
 40
0.8785069494
 40
1.0
 40
1.0
 40
1.0
 40
1.0
 10
9.7066511474
 20
9.9702022605
 30
0.0
 10
9.7039239091
 20
9.9123553847
 30
0.0
 10
9.6963194066
 20
9.7969358002
 30
0.0
 10
9.678460725
 20
9.6247248664
 30
0.0
 10
9.6582149509
 20
9.482327869
 30
0.0
 10
9.6388117779
 20
9.3694034009
 30
0.0
 10
9.6173634739
 20
9.2576193042
 30
0.0
 10
9.5867111085
 20
9.1194878471
 30
0.0
 10
9.5439270878
 20
8.9562920662
 30
0.0
 10
9.4954605465
 20
8.7963025756
 30
0.0
 10
9.4593405344
 20
8.6914290384
 30
0.0
 10
9.440415388
 20
8.6396136922
 30
0.0
  0
SPLINE
  5
298
100
AcDbEntity
  8
0
100
AcDbSpline
 62
7
  6
CONTINUOUS
 70
0
 71
3
 72
9
 73
5
 74
0
 42
0.0000001
 43
0.0000001
 44
0.0000000001
 40
0.0
 40
0.0
 40
0.0
 40
0.0
 40
0.5083407323
 40
1.0
 40
1.0
 40
1.0
 40
1.0
 10
10.9414408614
 20
7.7628866214
 30
0.0
 10
10.9421635789
 20
7.7624488274
 30
0.0
 10
10.9436412285
 20
7.7616758569
 30
0.0
 10
10.9452065693
 20
7.7611024285
 30
0.0
 10
10.9459893408
 20
7.7608675618
 30
0.0
  0
SPLINE
  5
299
100
AcDbEntity
  8
0
100
AcDbSpline
 62
7
  6
CONTINUOUS
 70
0
 71
3
 72
9
 73
5
 74
0
 42
0.0000001
 43
0.0000001
 44
0.0000000001
 40
0.0
 40
0.0
 40
0.0
 40
0.0
 40
0.2415188845
 40
1.0
 40
1.0
 40
1.0
 40
1.0
 10
10.9337449147
 20
7.7814002909
 30
0.0
 10
10.9337083838
 20
7.7808662588
 30
0.0
 10
10.933659051
 20
7.7786488818
 30
0.0
 10
10.933992023
 20
7.7764266979
 30
0.0
 10
10.9344316515
 20
7.7748041751
 30
0.0
  0
SPLINE
  5
29A
100
AcDbEntity
  8
0
100
AcDbSpline
 62
7
  6
CONTINUOUS
 70
0
 71
3
 72
9
 73
5
 74
0
 42
0.0000001
 43
0.0000001
 44
0.0000000001
 40
0.0
 40
0.0
 40
0.0
 40
0.0
 40
0.2487743343
 40
1.0
 40
1.0
 40
1.0
 40
1.0
 10
10.9344316515
 20
7.7748041751
 30
0.0
 10
10.9345743827
 20
7.7742774017
 30
0.0
 10
10.9352287626
 20
7.7721831936
 30
0.0
 10
10.9362148146
 20
7.7701878748
 30
0.0
 10
10.9371374167
 20
7.7688222605
 30
0.0
  0
SPLINE
  5
29B
100
AcDbEntity
  8
0
100
AcDbSpline
 62
7
  6
CONTINUOUS
 70
0
 71
3
 72
10
 73
6
 74
0
 42
0.0000001
 43
0.0000001
 44
0.0000000001
 40
0.0
 40
0.0
 40
0.0
 40
0.0
 40
0.254770003
 40
0.633664427
 40
1.0
 40
1.0
 40
1.0
 40
1.0
 10
10.9371374167
 20
7.7688222605
 30
0.0
 10
10.9377033524
 20
7.7679845757
 30
0.0
 10
10.9392897096
 20
7.7660180878
 30
0.0
 10
10.9423385645
 20
7.7634321756
 30
0.0
 10
10.9449591462
 20
7.7620082786
 30
0.0
 10
10.9463055688
 20
7.7614603669
 30
0.0
  0
SPLINE
  5
29C
100
AcDbEntity
  8
0
100
AcDbSpline
 62
7
  6
CONTINUOUS
 70
0
 71
3
 72
9
 73
5
 74
0
 42
0.0000001
 43
0.0000001
 44
0.0000000001
 40
0.0
 40
0.0
 40
0.0
 40
0.0
 40
0.5119976049
 40
1.0
 40
1.0
 40
1.0
 40
1.0
 10
9.0414565168
 20
7.7813350841
 30
0.0
 10
9.0415496052
 20
7.7798947416
 30
0.0
 10
9.0413983285
 20
7.7770549073
 30
0.0
 10
9.0407043233
 20
7.7743031523
 30
0.0
 10
9.0402337272
 20
7.7730104419
 30
0.0
  0
SPLINE
  5
29D
100
AcDbEntity
  8
0
100
AcDbSpline
 62
7
  6
CONTINUOUS
 70
0
 71
3
 72
11
 73
7
 74
0
 42
0.0000001
 43
0.0000001
 44
0.0000000001
 40
0.0
 40
0.0
 40
0.0
 40
0.0
 40
0.2856319916
 40
0.5437084233
 40
0.7798456133
 40
1.0
 40
1.0
 40
1.0
 40
1.0
 10
9.0402337272
 20
7.7730104419
 30
0.0
 10
9.0397981479
 20
7.7718139213
 30
0.0
 10
9.0387393438
 20
7.7696114131
 30
0.0
 10
9.0366534139
 20
7.7668100049
 30
0.0
 10
9.0343661995
 20
7.7645764571
 30
0.0
 10
9.0327003492
 20
7.7633935016
 30
0.0
 10
9.0318606062
 20
7.7628855068
 30
0.0
  0
LINE
  5
29E
100
AcDbEntity
  8
0
100
AcDbLine
 62
7
  6
CONTINUOUS
 10
12.8572800672
 20
11.0620034092
 11
12.8675748976
 21
11.0637943087
  0
LINE
  5
29F
100
AcDbEntity
  8
0
100
AcDbLine
 62
7
  6
CONTINUOUS
 10
8.8372784853
 20
7.5010080198
 11
8.8369898999
 21
7.5006022021
  0
LINE
  5
2A0
100
AcDbEntity
  8
0
100
AcDbLine
 62
7
  6
CONTINUOUS
 10
10.945989262
 20
7.7608674873
 11
10.9476830266
 21
7.7608860345
  0
LINE
  5
2A1
100
AcDbEntity
  8
0
100
AcDbLine
 62
7
  6
CONTINUOUS
 10
10.9476830266
 20
7.7608860345
 11
10.9479184713
 21
7.7608887268
  0
LINE
  5
2A2
100
AcDbEntity
  8
0
100
AcDbLine
 62
7
  6
CONTINUOUS
 10
11.1360244805
 20
7.5010082573
 11
11.1306805193
 21
7.5085891723
  0
LINE
  5
2A3
100
AcDbEntity
  8
0
100
AcDbLine
 62
7
  6
CONTINUOUS
 10
11.1363130932
 20
7.5006022025
 11
11.1360244818
 21
7.5010082583
  0
SPLINE
  5
2A4
100
AcDbEntity
  8
0
100
AcDbSpline
 62
7
  6
CONTINUOUS
 70
0
 71
3
 72
9
 73
5
 74
0
 42
0.0000001
 43
0.0000001
 44
0.0000000001
 40
0.0
 40
0.0
 40
0.0
 40
0.0
 40
0.7942237686
 40
1.0
 40
1.0
 40
1.0
 40
1.0
 10
10.261651485
 20
10.0012022247
 30
0.0
 10
10.262451173
 20
10.0225638606
 30
0.0
 10
10.2650972039
 20
10.0493190367
 30
0.0
 10
10.2703745894
 20
10.075475186
 30
0.0
 10
10.2715775972
 20
10.0808243811
 30
0.0
  0
SPLINE
  5
2A5
100
AcDbEntity
  8
0
100
AcDbSpline
 62
7
  6
CONTINUOUS
 70
0
 71
3
 72
9
 73
5
 74
0
 42
0.0000001
 43
0.0000001
 44
0.0000000001
 40
0.0
 40
0.0
 40
0.0
 40
0.0
 40
0.4850669604
 40
1.0
 40
1.0
 40
1.0
 40
1.0
 10
10.2779984208
 20
10.1053055791
 30
0.0
 10
10.2800767841
 20
10.1121948896
 30
0.0
 10
10.2848114528
 20
10.1262363633
 30
0.0
 10
10.2905284705
 20
10.1398698624
 30
0.0
 10
10.2937359829
 20
10.1467556259
 30
0.0
  0
SPLINE
  5
2A6
100
AcDbEntity
  8
0
100
AcDbSpline
 62
7
  6
CONTINUOUS
 70
0
 71
3
 72
9
 73
5
 74
0
 42
0.0000001
 43
0.0000001
 44
0.0000000001
 40
0.0
 40
0.0
 40
0.0
 40
0.0
 40
0.9782099638
 40
1.0
 40
1.0
 40
1.0
 40
1.0
 10
10.3713010789
 20
10.2451884126
 30
0.0
 10
10.3814691962
 20
10.2532372398
 30
0.0
 10
10.3924506926
 20
10.2607733702
 30
0.0
 10
10.4038942163
 20
10.2675988189
 30
0.0
 10
10.4041437891
 20
10.2677472089
 30
0.0
  0
SPLINE
  5
2A7
100
AcDbEntity
  8
0
100
AcDbSpline
 62
7
  6
CONTINUOUS
 70
0
 71
3
 72
9
 73
5
 74
0
 42
0.0000001
 43
0.0000001
 44
0.0000000001
 40
0.0
 40
0.0
 40
0.0
 40
0.0
 40
0.6600684144
 40
1.0
 40
1.0
 40
1.0
 40
1.0
 10
10.428674192
 20
10.2809533329
 30
0.0
 10
10.4390355795
 20
10.2859954619
 30
0.0
 10
10.4551471879
 20
10.2928868818
 30
0.0
 10
10.4716950403
 20
10.2987395277
 30
0.0
 10
10.4773648589
 20
10.3006152531
 30
0.0
  0
LINE
  5
2A8
100
AcDbEntity
  8
0
100
AcDbLine
 62
7
  6
CONTINUOUS
 10
9.0253749568
 20
7.7608846146
 11
9.0273014109
 21
7.760863486
  0
SPLINE
  5
2A9
100
AcDbEntity
  8
0
100
AcDbSpline
 62
7
  6
CONTINUOUS
 70
0
 71
3
 72
14
 73
10
 74
0
 42
0.0000001
 43
0.0000001
 44
0.0000000001
 40
0.0
 40
0.0
 40
0.0
 40
0.0
 40
0.25
 40
0.375
 40
0.5
 40
0.625
 40
0.75
 40
0.875
 40
1.0
 40
1.0
 40
1.0
 40
1.0
 10
10.5851431222
 20
10.3237014248
 30
0.0
 10
10.5424131916
 20
10.3185918093
 30
0.0
 10
10.4790544925
 20
10.3051891797
 30
0.0
 10
10.4022339759
 20
10.2690669818
 30
0.0
 10
10.351537005
 20
10.2313485035
 30
0.0
 10
10.311077958
 20
10.1830793195
 30
0.0
 10
10.2829172114
 20
10.1265420103
 30
0.0
 10
10.2666536359
 20
10.0650597709
 30
0.0
 10
10.2624510698
 20
10.0225623455
 30
0.0
 10
10.2616514812
 20
10.0012022248
 30
0.0
  0
SPLINE
  5
2AA
100
AcDbEntity
  8
0
100
AcDbSpline
 62
7
  6
CONTINUOUS
 70
0
 71
3
 72
13
 73
9
 74
0
 42
0.0000001
 43
0.0000001
 44
0.0000000001
 40
0.0
 40
0.0
 40
0.0
 40
0.0
 40
0.25
 40
0.375
 40
0.5
 40
0.625
 40
0.75
 40
1.0
 40
1.0
 40
1.0
 40
1.0
 10
9.711651501
 20
10.0012022042
 30
0.0
 10
9.7074636596
 20
10.0330867413
 30
0.0
 10
9.6963741489
 20
10.0801404017
 30
0.0
 10
9.6683108828
 20
10.1369707031
 30
0.0
 10
9.6402046398
 20
10.1749936309
 30
0.0
 10
9.6054370323
 20
10.206972935
 30
0.0
 10
9.5518193717
 20
10.2405095527
 30
0.0
 10
9.505955689
 20
10.2555035124
 30
0.0
 10
9.4745508929
 20
10.2620569502
 30
0.0
  0
SPLINE
  5
2AB
100
AcDbEntity
  8
0
100
AcDbSpline
 62
7
  6
CONTINUOUS
 70
0
 71
3
 72
12
 73
8
 74
0
 42
0.0000001
 43
0.0000001
 44
0.0000000001
 40
0.0
 40
0.0
 40
0.0
 40
0.0
 40
0.1283842823
 40
0.2557998764
 40
0.5076845451
 40
0.7557110415
 40
1.0
 40
1.0
 40
1.0
 40
1.0
 10
9.440415388
 20
8.6396136922
 30
0.0
 10
9.427397191
 20
8.6039710414
 30
0.0
 10
9.4005523737
 20
8.5332815962
 30
0.0
 10
9.3437582164
 20
8.394379192
 30
0.0
 10
9.267301036
 20
8.2253752282
 30
0.0
 10
9.1673073041
 20
8.0293798458
 30
0.0
 10
9.0954165938
 20
7.9028061489
 30
0.0
 10
9.0584201329
 20
7.8408020888
 30
0.0
  0
LINE
  5
2AC
100
AcDbEntity
  8
0
100
AcDbLine
 62
7
  6
CONTINUOUS
 10
9.0584201329
 20
7.8408020888
 11
9.0541367037
 21
7.833636744
  0
SPLINE
  5
2AD
100
AcDbEntity
  8
0
100
AcDbSpline
 62
7
  6
CONTINUOUS
 70
0
 71
3
 72
8
 73
4
 74
0
 42
0.0000001
 43
0.0000001
 44
0.0000000001
 40
0.0
 40
0.0
 40
0.0
 40
0.0
 40
1.0
 40
1.0
 40
1.0
 40
1.0
 10
9.4745508903
 20
10.2620569381
 30
0.0
 10
9.4975857707
 20
10.2572500991
 30
0.0
 10
9.5201761173
 20
10.2505906862
 30
0.0
 10
9.5416563359
 20
10.2416558911
 30
0.0
  0
SPLINE
  5
2AE
100
AcDbEntity
  8
0
100
AcDbSpline
 62
7
  6
CONTINUOUS
 70
0
 71
3
 72
9
 73
5
 74
0
 42
0.0000001
 43
0.0000001
 44
0.0000000001
 40
0.0
 40
0.0
 40
0.0
 40
0.0
 40
0.06813045
 40
1.0
 40
1.0
 40
1.0
 40
1.0
 10
9.5622300677
 20
10.232206342
 30
0.0
 10
9.5630209659
 20
10.2318065043
 30
0.0
 10
9.5746010974
 20
10.2258860371
 30
0.0
 10
9.5857555555
 20
10.219200778
 30
0.0
 10
9.5956543497
 20
10.2123026806
 30
0.0
  0
SPLINE
  5
2AF
100
AcDbEntity
  8
0
100
AcDbSpline
 62
7
  6
CONTINUOUS
 70
0
 71
3
 72
8
 73
4
 74
0
 42
0.0000001
 43
0.0000001
 44
0.0000000001
 40
0.0
 40
0.0
 40
0.0
 40
0.0
 40
1.0
 40
1.0
 40
1.0
 40
1.0
 10
9.6964426788
 20
10.0710284567
 30
0.0
 10
9.7036293185
 20
10.0484407448
 30
0.0
 10
9.7085303449
 20
10.0249652781
 30
0.0
 10
9.7116515042
 20
10.0012022045
 30
0.0
  0
SPLINE
  5
2B0
100
AcDbEntity
  8
0
100
AcDbSpline
 62
7
  6
CONTINUOUS
 70
0
 71
3
 72
11
 73
7
 74
0
 42
0.0000001
 43
0.0000001
 44
0.0000000001
 40
0.0
 40
0.0
 40
0.0
 40
0.0
 40
0.2557925856
 40
0.5076846759
 40
0.7557286893
 40
1.0
 40
1.0
 40
1.0
 40
1.0
 10
10.5328518639
 20
8.639708463
 30
0.0
 10
10.5587941422
 20
8.5686749528
 30
0.0
 10
10.6138955585
 20
8.4289826048
 30
0.0
 10
10.7060111464
 20
8.2253422718
 30
0.0
 10
10.8060347518
 20
8.0292909846
 30
0.0
 10
10.8779524491
 20
7.9026900449
 30
0.0
 10
10.9149580788
 20
7.8406756618
 30
0.0
  0
LINE
  5
2B1
100
AcDbEntity
  8
0
100
AcDbLine
 62
7
  6
CONTINUOUS
 10
10.9149580788
 20
7.8406756618
 11
10.9192000979
 21
7.833580016
  0
SPLINE
  5
2B2
100
AcDbEntity
  8
0
100
AcDbSpline
 62
7
  6
CONTINUOUS
 70
0
 71
3
 72
13
 73
9
 74
0
 42
0.0000001
 43
0.0000001
 44
0.0000000001
 40
0.0
 40
0.0
 40
0.0
 40
0.0
 40
0.1205137475
 40
0.2452936449
 40
0.4997835895
 40
0.7543952805
 40
0.8793095249
 40
1.0
 40
1.0
 40
1.0
 40
1.0
 10
12.8911672409
 20
11.0549240843
 30
0.0
 10
12.8906748456
 20
11.0557507273
 30
0.0
 10
12.8895366113
 20
11.0573558354
 30
0.0
 10
12.8867801258
 20
11.0602528847
 30
0.0
 10
12.882521489
 20
11.0631479533
 30
0.0
 10
12.8775564754
 20
11.0645182334
 30
0.0
 10
12.873560396
 20
11.0647424252
 30
0.0
 10
12.8715977419
 20
11.0645695161
 30
0.0
 10
12.8706476567
 20
11.0644087454
 30
0.0
  0
SPLINE
  5
2B3
100
AcDbEntity
  8
0
100
AcDbSpline
 62
7
  6
CONTINUOUS
 70
0
 71
3
 72
10
 73
6
 74
0
 42
0.0000001
 43
0.0000001
 44
0.0000000001
 40
0.0
 40
0.0
 40
0.0
 40
0.0
 40
0.5005024403
 40
0.7505992403
 40
1.0
 40
1.0
 40
1.0
 40
1.0
 10
10.5851514975
 20
10.8367022033
 30
0.0
 10
10.7833061013
 20
10.8510034394
 30
0.0
 10
11.0805801985
 20
10.8709960822
 30
0.0
 10
11.4764481727
 20
10.9001912056
 30
0.0
 10
11.6740493646
 20
10.9165406253
 30
0.0
 10
11.7726514871
 20
10.9253786645
 30
0.0
  0
SPLINE
  5
2B4
100
AcDbEntity
  8
0
100
AcDbSpline
 62
7
  6
CONTINUOUS
 70
0
 71
3
 72
11
 73
7
 74
0
 42
0.0000001
 43
0.0000001
 44
0.0000000001
 40
0.0
 40
0.0
 40
0.0
 40
0.0
 40
0.2502285276
 40
0.500316398
 40
0.7502193498
 40
1.0
 40
1.0
 40
1.0
 40
1.0
 10
10.5851514874
 20
10.8367022029
 30
0.0
 10
10.6842484918
 20
10.8434427223
 30
0.0
 10
10.8824006962
 20
10.856713345
 30
0.0
 10
11.179482911
 20
10.8772864461
 30
0.0
 10
11.4762630589
 20
10.8995954754
 30
0.0
 10
11.673905057
 20
10.9163431847
 30
0.0
 10
11.7726407725
 20
10.925377809
 30
0.0
  0
SPLINE
  5
2B5
100
AcDbEntity
  8
0
100
AcDbSpline
 62
9
  6
CONTINUOUS
 70
0
 71
3
 72
15
 73
11
 74
0
 42
0.0000001
 43
0.0000001
 44
0.0000000001
 40
0.0
 40
0.0
 40
0.0
 40
0.0
 40
0.0820160021
 40
0.1746169471
 40
0.2812394941
 40
0.4032600456
 40
0.5405293411
 40
0.6894604134
 40
0.844630216
 40
1.0
 40
1.0
 40
1.0
 40
1.0
 10
10.9192000979
 20
7.833580016
 30
0.0
 10
10.9189402218
 20
7.8340054747
 30
0.0
 10
10.9181932859
 20
7.8347979334
 30
0.0
 10
10.916671102
 20
7.835618427
 30
0.0
 10
10.9147676644
 20
7.8361164854
 30
0.0
 10
10.9125365277
 20
7.8362592795
 30
0.0
 10
10.9100588086
 20
7.8360212387
 30
0.0
 10
10.9074295485
 20
7.8354671252
 30
0.0
 10
10.9047555858
 20
7.8346500404
 30
0.0
 10
10.902996559
 20
7.8339591498
 30
0.0
 10
10.9021316286
 20
7.8335798524
 30
0.0
  0
SPLINE
  5
2B6
100
AcDbEntity
  8
0
100
AcDbSpline
 62
9
  6
CONTINUOUS
 70
0
 71
3
 72
15
 73
11
 74
0
 42
0.0000001
 43
0.0000001
 44
0.0000000001
 40
0.0
 40
0.0
 40
0.0
 40
0.0
 40
0.0807337403
 40
0.1714967838
 40
0.2757070869
 40
0.3955542431
 40
0.5318899797
 40
0.6815701165
 40
0.8394936561
 40
1.0
 40
1.0
 40
1.0
 40
1.0
 10
10.979507136
 20
7.7354160285
 30
0.0
 10
10.9792458449
 20
7.7358244981
 30
0.0
 10
10.9785233994
 20
7.7365899848
 30
0.0
 10
10.9770647217
 20
7.7374113968
 30
0.0
 10
10.9752305621
 20
7.7379285326
 30
0.0
 10
10.9730606845
 20
7.7380970188
 30
0.0
 10
10.970624322
 20
7.7378835692
 30
0.0
 10
10.9680085886
 20
7.7373443594
 30
0.0
 10
10.9653167158
 20
7.7365210839
 30
0.0
 10
10.963538285
 20
7.7358106539
 30
0.0
 10
10.9626588479
 20
7.7354158008
 30
0.0
  0
SPLINE
  5
2B7
100
AcDbEntity
  8
0
100
AcDbSpline
 62
9
  6
CONTINUOUS
 70
0
 71
3
 72
9
 73
5
 74
0
 42
0.0000001
 43
0.0000001
 44
0.0000000001
 40
0.0
 40
0.0
 40
0.0
 40
0.0
 40
0.5037224591
 40
1.0
 40
1.0
 40
1.0
 40
1.0
 10
10.9459893408
 20
7.7608675618
 30
0.0
 10
10.9453927193
 20
7.76104455
 30
0.0
 10
10.9441701681
 20
7.7612772709
 30
0.0
 10
10.942927578
 20
7.7612781237
 30
0.0
 10
10.9423166266
 20
7.7612265774
 30
0.0
  0
LINE
  5
2B8
100
AcDbEntity
  8
0
100
AcDbLine
 62
9
  6
CONTINUOUS
 10
10.9423166266
 20
7.7612265774
 11
10.9403016095
 21
7.7608676434
  0
SPLINE
  5
2B9
100
AcDbEntity
  8
0
100
AcDbSpline
 62
9
  6
CONTINUOUS
 70
0
 71
3
 72
19
 73
15
 74
0
 42
0.0000001
 43
0.0000001
 44
0.0000000001
 40
0.0
 40
0.0
 40
0.0
 40
0.0
 40
0.0072480038
 40
0.0133385022
 40
0.0214224578
 40
0.0441022649
 40
0.0761260957
 40
0.1179575158
 40
0.1692548157
 40
0.2980140306
 40
0.4566182784
 40
0.6341647396
 40
0.8187961174
 40
1.0
 40
1.0
 40
1.0
 40
1.0
 10
10.9318467269
 20
7.7813362385
 30
0.0
 10
10.9318408552
 20
7.7812883191
 30
0.0
 10
10.9317579703
 20
7.7812232076
 30
0.0
 10
10.9316315231
 20
7.7811682249
 30
0.0
 10
10.9313945263
 20
7.7810942379
 30
0.0
 10
10.9309838275
 20
7.7810192618
 30
0.0
 10
10.9303443104
 20
7.7809445777
 30
0.0
 10
10.9295128326
 20
7.7808854312
 30
0.0
 10
10.9280360437
 20
7.7808212687
 30
0.0
 10
10.9257799782
 20
7.7807960815
 30
0.0
 10
10.9226834151
 20
7.7808395399
 30
0.0
 10
10.9192161288
 20
7.7809486945
 30
0.0
 10
10.915600525
 20
7.7811162241
 30
0.0
 10
10.9131678492
 20
7.7812585438
 30
0.0
 10
10.9119633754
 20
7.7813361353
 30
0.0
  0
LINE
  5
2BA
100
AcDbEntity
  8
0
100
AcDbLine
 62
9
  6
CONTINUOUS
 10
10.9337452208
 20
7.781404773
 11
10.9318458998
 21
7.781323581
  0
LINE
  5
2BB
100
AcDbEntity
  8
0
100
AcDbLine
 62
9
  6
CONTINUOUS
 10
10.9626588135
 20
7.7354164557
 11
10.9675574795
 21
7.727681631
  0
SPLINE
  5
2BC
100
AcDbEntity
  8
0
100
AcDbSpline
 62
7
  6
CONTINUOUS
 70
0
 71
3
 72
16
 73
12
 74
0
 42
0.0000001
 43
0.0000001
 44
0.0000000001
 40
0.0
 40
0.0
 40
0.0
 40
0.0
 40
0.1786017199
 40
0.3493354835
 40
0.5069572659
 40
0.6471845507
 40
0.7672802869
 40
0.8652800451
 40
0.9060737451
 40
0.941759549
 40
1.0
 40
1.0
 40
1.0
 40
1.0
 10
11.1196985415
 20
7.5010082629
 30
0.0
 10
11.120671696
 20
7.5012441059
 30
0.0
 10
11.1225854165
 20
7.5016642707
 30
0.0
 10
11.1253878692
 20
7.5021448272
 30
0.0
 10
11.127999048
 20
7.5024476731
 30
0.0
 10
11.1303420953
 20
7.5025574753
 30
0.0
 10
11.1323522392
 20
7.5024773856
 30
0.0
 10
11.1337910447
 20
7.5022408775
 30
0.0
 10
11.1347234297
 20
7.5019348888
 30
0.0
 10
11.1354056055
 20
7.5016130765
 30
0.0
 10
11.1358356903
 20
7.50127467
 30
0.0
 10
11.1360244818
 20
7.5010082583
 30
0.0
  0
SPLINE
  5
2BD
100
AcDbEntity
  8
0
100
AcDbSpline
 62
9
  6
CONTINUOUS
 70
0
 71
3
 72
13
 73
9
 74
0
 42
0.0000001
 43
0.0000001
 44
0.0000000001
 40
0.0
 40
0.0
 40
0.0
 40
0.0
 40
0.1016960883
 40
0.2020440974
 40
0.4173833334
 40
0.541120081
 40
0.6786290416
 40
1.0
 40
1.0
 40
1.0
 40
1.0
 10
12.8911672145
 20
11.0549241287
 30
0.0
 10
12.8912750105
 20
11.054743157
 30
0.0
 10
12.8914504454
 20
11.0543582967
 30
0.0
 10
12.8916137939
 20
11.0535015148
 30
0.0
 10
12.8914589222
 20
11.0525758106
 30
0.0
 10
12.8910724842
 20
11.0516666811
 30
0.0
 10
12.8904613729
 20
11.0506223528
 30
0.0
 10
12.8898527175
 20
11.0498844134
 30
0.0
 10
12.8894001427
 20
11.0493962784
 30
0.0
  0
SPLINE
  5
2BE
100
AcDbEntity
  8
0
100
AcDbSpline
 62
9
  6
CONTINUOUS
 70
0
 71
3
 72
15
 73
11
 74
0
 42
0.0000001
 43
0.0000001
 44
0.0000000001
 40
0.0
 40
0.0
 40
0.0
 40
0.0
 40
0.1275330231
 40
0.2546711348
 40
0.3812220354
 40
0.5070267884
 40
0.6319223797
 40
0.7557831619
 40
0.878505243
 40
1.0
 40
1.0
 40
1.0
 40
1.0
 10
9.7266292514
 20
9.9702022244
 30
0.0
 10
9.7239053548
 20
9.9120444006
 30
0.0
 10
9.7162699635
 20
9.7959994646
 30
0.0
 10
9.6982328214
 20
9.6228598034
 30
0.0
 10
9.6736492545
 20
9.4513214474
 30
0.0
 10
9.6425967713
 20
9.2818761918
 30
0.0
 10
9.6052139813
 20
9.1149730901
 30
0.0
 10
9.5617784126
 20
8.9509985959
 30
0.0
 10
9.5125875244
 20
8.79028417
 30
0.0
 10
9.4759304957
 20
8.6849597743
 30
0.0
 10
9.4567273605
 20
8.6329251373
 30
0.0
  0
SPLINE
  5
2BF
100
AcDbEntity
  8
0
100
AcDbSpline
 62
9
  6
CONTINUOUS
 70
0
 71
3
 72
11
 73
7
 74
0
 42
0.0000001
 43
0.0000001
 44
0.0000000001
 40
0.0
 40
0.0
 40
0.0
 40
0.0
 40
0.2557889014
 40
0.5076825238
 40
0.7557214819
 40
1.0
 40
1.0
 40
1.0
 40
1.0
 10
9.4567273605
 20
8.6329251373
 30
0.0
 10
9.4304931513
 20
8.5618384352
 30
0.0
 10
9.3748257017
 20
8.4220472494
 30
0.0
 10
9.2818327893
 20
8.218315257
 30
0.0
 10
9.1809454716
 20
8.0222094961
 30
0.0
 10
9.1084559337
 20
7.8955980147
 30
0.0
 10
9.0711704198
 20
7.8335799907
 30
0.0
  0
SPLINE
  5
2C0
100
AcDbEntity
  8
0
100
AcDbSpline
 62
9
  6
CONTINUOUS
 70
0
 71
3
 72
15
 73
11
 74
0
 42
0.0000001
 43
0.0000001
 44
0.0000000001
 40
0.0
 40
0.0
 40
0.0
 40
0.0
 40
0.1678146694
 40
0.3309494834
 40
0.4835938882
 40
0.6204018338
 40
0.7381458733
 40
0.8384954173
 40
0.9245056587
 40
1.0
 40
1.0
 40
1.0
 40
1.0
 10
9.0711704198
 20
7.8335799907
 30
0.0
 10
9.0702358623
 20
7.8339898044
 30
0.0
 10
9.0683569514
 20
7.8347186704
 30
0.0
 10
9.0655315685
 20
7.8355472315
 30
0.0
 10
9.0628253862
 20
7.8360721028
 30
0.0
 10
9.0603484924
 20
7.8362626321
 30
0.0
 10
9.058186759
 20
7.8360703252
 30
0.0
 10
9.0564004306
 20
7.8355362237
 30
0.0
 10
9.0550142005
 20
7.8347166952
 30
0.0
 10
9.0543420709
 20
7.8339718208
 30
0.0
 10
9.0541027547
 20
7.8335800609
 30
0.0
  0
SPLINE
  5
2C1
100
AcDbEntity
  8
0
100
AcDbSpline
 62
9
  6
CONTINUOUS
 70
0
 71
3
 72
16
 73
12
 74
0
 42
0.0000001
 43
0.0000001
 44
0.0000000001
 40
0.0
 40
0.0
 40
0.0
 40
0.0
 40
0.1275383447
 40
0.2546702515
 40
0.3812168345
 40
0.4442188618
 40
0.5070118322
 40
0.6319058515
 40
0.7557830738
 40
0.8785128431
 40
1.0
 40
1.0
 40
1.0
 40
1.0
 10
10.2466737611
 20
9.9702022156
 30
0.0
 10
10.2493991005
 20
9.9120428147
 30
0.0
 10
10.2570422063
 20
9.7960000468
 30
0.0
 10
10.2750836883
 20
9.6228669816
 30
0.0
 10
10.2955833647
 20
9.4797179755
 30
0.0
 10
10.3152494651
 20
9.36620475
 30
0.0
 10
10.3369980194
 20
9.2538404029
 30
0.0
 10
10.368093287
 20
9.1150077226
 30
0.0
 10
10.4115119103
 20
8.9510213329
 30
0.0
 10
10.4607149416
 20
8.790304385
 30
0.0
 10
10.4973865298
 20
8.6849867985
 30
0.0
 10
10.5165906015
 20
8.6329570041
 30
0.0
  0
SPLINE
  5
2C2
100
AcDbEntity
  8
0
100
AcDbSpline
 62
9
  6
CONTINUOUS
 70
0
 71
3
 72
11
 73
7
 74
0
 42
0.0000001
 43
0.0000001
 44
0.0000000001
 40
0.0
 40
0.0
 40
0.0
 40
0.0
 40
0.2557508947
 40
0.5076527021
 40
0.7556937606
 40
1.0
 40
1.0
 40
1.0
 40
1.0
 10
10.5165906015
 20
8.6329570041
 30
0.0
 10
10.5428227587
 20
8.5618859431
 30
0.0
 10
10.5984724678
 20
8.4221067275
 30
0.0
 10
10.6914239139
 20
8.2183776628
 30
0.0
 10
10.7923223969
 20
8.0222781315
 30
0.0
 10
10.864808774
 20
7.8956641029
 30
0.0
 10
10.9020946721
 20
7.8336413262
 30
0.0
  0
LINE
  5
2C3
100
AcDbEntity
  8
0
100
AcDbLine
 62
9
  6
CONTINUOUS
 10
12.8706476504
 20
11.0644087445
 11
12.8675643867
 21
11.0638466879
  0
SPLINE
  5
2C4
100
AcDbEntity
  8
0
100
AcDbSpline
 62
9
  6
CONTINUOUS
 70
0
 71
3
 72
11
 73
7
 74
0
 42
0.0000001
 43
0.0000001
 44
0.0000000001
 40
0.0
 40
0.0
 40
0.0
 40
0.0
 40
0.3068309426
 40
0.5614314021
 40
0.7819533744
 40
1.0
 40
1.0
 40
1.0
 40
1.0
 10
12.9137352621
 20
10.3316316717
 30
0.0
 10
12.9140899428
 20
10.3313014696
 30
0.0
 10
12.914699903
 20
10.3306506059
 30
0.0
 10
12.9153300978
 20
10.3295699982
 30
0.0
 10
12.9155302486
 20
10.3284630372
 30
0.0
 10
12.9153333335
 20
10.3277717487
 30
0.0
 10
12.9151776362
 20
10.3274645827
 30
0.0
  0
LINE
  5
2C5
100
AcDbEntity
  8
0
100
AcDbLine
 62
9
  6
CONTINUOUS
 10
12.8929705703
 20
10.3363231199
 11
12.9060423263
 21
10.3331959121
  0
LINE
  5
2C6
100
AcDbEntity
  8
0
100
AcDbLine
 62
9
  6
CONTINUOUS
 10
12.9060423263
 20
10.3331959121
 11
12.9137352569
 21
10.3316317194
  0
SPLINE
  5
2C7
100
AcDbEntity
  8
0
100
AcDbSpline
 62
9
  6
CONTINUOUS
 70
0
 71
3
 72
9
 73
5
 74
0
 42
0.0000001
 43
0.0000001
 44
0.0000000001
 40
0.0
 40
0.0
 40
0.0
 40
0.0
 40
0.5012732984
 40
1.0
 40
1.0
 40
1.0
 40
1.0
 10
12.9146546234
 20
10.3572915429
 30
0.0
 10
12.9152026312
 20
10.353022464
 30
0.0
 10
12.9155692195
 20
10.3443992524
 30
0.0
 10
12.914559902
 20
10.3358337625
 30
0.0
 10
12.9137352621
 20
10.3316316717
 30
0.0
  0
SPLINE
  5
2C8
100
AcDbEntity
  8
0
100
AcDbSpline
 62
9
  6
CONTINUOUS
 70
0
 71
3
 72
9
 73
5
 74
0
 42
0.0000001
 43
0.0000001
 44
0.0000000001
 40
0.0
 40
0.0
 40
0.0
 40
0.0
 40
0.2488020068
 40
1.0
 40
1.0
 40
1.0
 40
1.0
 10
12.8952303093
 20
10.3565973107
 30
0.0
 10
12.8952852363
 20
10.3549032419
 30
0.0
 10
12.895243086
 20
10.3480868128
 30
0.0
 10
12.8942071928
 20
10.3412889429
 30
0.0
 10
12.8929705564
 20
10.3363230829
 30
0.0
  0
SPLINE
  5
2C9
100
AcDbEntity
  8
0
100
AcDbSpline
 62
9
  6
CONTINUOUS
 70
0
 71
3
 72
15
 73
11
 74
0
 42
0.0000001
 43
0.0000001
 44
0.0000000001
 40
0.0
 40
0.0
 40
0.0
 40
0.0
 40
0.1244898713
 40
0.2492269955
 40
0.374122
 40
0.4991406382
 40
0.6242596101
 40
0.7494465422
 40
0.8747109776
 40
1.0
 40
1.0
 40
1.0
 40
1.0
 10
12.8929705674
 20
10.3363232699
 30
0.0
 10
12.7971384162
 20
10.334821772
 30
0.0
 10
12.6052199425
 20
10.3355420141
 30
0.0
 10
12.3172990168
 20
10.3440684708
 30
0.0
 10
12.0291184678
 20
10.3563675085
 30
0.0
 10
11.7406495858
 20
10.3687725646
 30
0.0
 10
11.4518103186
 20
10.3776175691
 30
0.0
 10
11.1626178948
 20
10.3792748096
 30
0.0
 10
10.8734022419
 20
10.3701226678
 30
0.0
 10
10.6810134001
 20
10.3545459398
 30
0.0
 10
10.58515123
 20
10.3438306862
 30
0.0
  0
SPLINE
  5
2CA
100
AcDbEntity
  8
0
100
AcDbSpline
 62
7
  6
CONTINUOUS
 70
0
 71
3
 72
11
 73
7
 74
0
 42
0.0000001
 43
0.0000001
 44
0.0000000001
 40
0.0
 40
0.0
 40
0.0
 40
0.0
 40
0.2498586408
 40
0.4996366117
 40
0.7495839191
 40
1.0
 40
1.0
 40
1.0
 40
1.0
 10
10.5867491471
 20
10.8167567035
 30
0.0
 10
10.7775900664
 20
10.8292967654
 30
0.0
 10
11.1592353659
 20
10.8539943459
 30
0.0
 10
11.7313252386
 20
10.8982280218
 30
0.0
 10
12.3025895117
 20
10.9569553918
 30
0.0
 10
12.6818586891
 20
11.0115670059
 30
0.0
 10
12.8707550344
 20
11.044110406
 30
0.0
  0
SPLINE
  5
2CB
100
AcDbEntity
  8
0
100
AcDbSpline
 62
9
  6
CONTINUOUS
 70
0
 71
3
 72
9
 73
5
 74
0
 42
0.0000001
 43
0.0000001
 44
0.0000000001
 40
0.0
 40
0.0
 40
0.0
 40
0.0
 40
0.2516400787
 40
1.0
 40
1.0
 40
1.0
 40
1.0
 10
12.8707550253
 20
11.0441107715
 30
0.0
 10
12.8711549952
 20
11.0427018466
 30
0.0
 10
12.8725935666
 20
11.0370623982
 30
0.0
 10
12.8733931124
 20
11.0312499862
 30
0.0
 10
12.8735375622
 20
11.0268967726
 30
0.0
  0
LINE
  5
2CC
100
AcDbEntity
  8
0
100
AcDbLine
 62
7
  6
CONTINUOUS
 10
10.5851515608
 20
10.8166481505
 11
10.5837126762
 21
10.8365983959
  0
SPLINE
  5
2CD
100
AcDbEntity
  8
0
100
AcDbSpline
 62
9
  6
CONTINUOUS
 70
0
 71
3
 72
14
 73
10
 74
0
 42
0.0000001
 43
0.0000001
 44
0.0000000001
 40
0.0
 40
0.0
 40
0.0
 40
0.0
 40
0.1214295325
 40
0.2475263721
 40
0.3758384234
 40
0.5043975323
 40
0.7578620829
 40
0.881431375
 40
1.0
 40
1.0
 40
1.0
 40
1.0
 10
12.9137352554
 20
10.331631723
 30
0.0
 10
12.9134969388
 20
10.3306279348
 30
0.0
 10
12.9128357913
 20
10.328620489
 30
0.0
 10
12.9113862209
 20
10.3257628866
 30
0.0
 10
12.9094860303
 20
10.3231047304
 30
0.0
 10
12.9064151933
 20
10.3200169161
 30
0.0
 10
12.9025846818
 20
10.3178580079
 30
0.0
 10
12.8985244822
 20
10.3167059083
 30
0.0
 10
12.896469409
 20
10.3164619822
 30
0.0
 10
12.8954624369
 20
10.3164331865
 30
0.0
  0
SPLINE
  5
2CE
100
AcDbEntity
  8
0
100
AcDbSpline
 62
9
  6
CONTINUOUS
 70
0
 71
3
 72
20
 73
16
 74
0
 42
0.0000001
 43
0.0000001
 44
0.0000000001
 40
0.0
 40
0.0
 40
0.0
 40
0.0
 40
0.1791757732
 40
0.3621766871
 40
0.5386270173
 40
0.696678867
 40
0.7651544449
 40
0.8254025825
 40
0.8768623799
 40
0.9189960809
 40
0.9514942211
 40
0.9749161911
 40
0.9835495816
 40
0.9903794697
 40
1.0
 40
1.0
 40
1.0
 40
1.0
 10
12.8929705716
 20
10.3363231198
 30
0.0
 10
12.8929872687
 20
10.3351152771
 30
0.0
 10
12.8930428364
 20
10.3326740642
 30
0.0
 10
12.893192027
 20
10.3290455752
 30
0.0
 10
12.8934139919
 20
10.3255634998
 30
0.0
 10
12.8936570373
 20
10.3228570317
 30
0.0
 10
12.8938900323
 20
10.3209376023
 30
0.0
 10
12.8940661647
 20
10.3197355156
 30
0.0
 10
12.8942483956
 20
10.3187143239
 30
0.0
 10
12.8944323011
 20
10.3178838923
 30
0.0
 10
12.8946177594
 20
10.3172489118
 30
0.0
 10
12.8947803342
 20
10.3168436195
 30
0.0
 10
12.8949178947
 20
10.3166185462
 30
0.0
 10
12.8950244765
 20
10.3164893337
 30
0.0
 10
12.8951315736
 20
10.3164268115
 30
0.0
 10
12.8951964281
 20
10.3164275964
 30
0.0
  0
SPLINE
  5
2CF
100
AcDbEntity
  8
0
100
AcDbSpline
 62
9
  6
CONTINUOUS
 70
0
 71
3
 72
14
 73
10
 74
0
 42
0.0000001
 43
0.0000001
 44
0.0000000001
 40
0.0
 40
0.0
 40
0.0
 40
0.0
 40
0.1245277705
 40
0.2536888466
 40
0.3842964826
 40
0.5138186921
 40
0.7648043165
 40
0.8854199634
 40
1.0
 40
1.0
 40
1.0
 40
1.0
 10
9.4616074795
 20
10.757710533
 30
0.0
 10
9.461754588
 20
10.7587855585
 30
0.0
 10
9.4622430905
 20
10.7609527568
 30
0.0
 10
9.4634685773
 20
10.7640814802
 30
0.0
 10
9.4651817813
 20
10.767026619
 30
0.0
 10
9.4680505312
 20
10.7704611424
 30
0.0
 10
9.4718025128
 20
10.7729228978
 30
0.0
 10
9.4758361478
 20
10.7742582141
 30
0.0
 10
9.4778798251
 20
10.774552457
 30
0.0
 10
9.4788773883
 20
10.7745925042
 30
0.0
  0
SPLINE
  5
2D0
100
AcDbEntity
  8
0
100
AcDbSpline
 62
9
  6
CONTINUOUS
 70
0
 71
3
 72
15
 73
11
 74
0
 42
0.0000001
 43
0.0000001
 44
0.0000000001
 40
0.0
 40
0.0
 40
0.0
 40
0.0
 40
0.191598292
 40
0.3615107651
 40
0.5095546244
 40
0.6361494047
 40
0.7428673384
 40
0.8335345362
 40
0.915540632
 40
1.0
 40
1.0
 40
1.0
 40
1.0
 10
9.4616074559
 20
10.7577105371
 30
0.0
 10
9.46103975
 20
10.7579865084
 30
0.0
 10
9.4599807625
 20
10.758533158
 30
0.0
 10
9.4585405581
 20
10.7593985574
 30
0.0
 10
9.4573517127
 20
10.7602578643
 30
0.0
 10
9.4564227351
 20
10.7611096271
 30
0.0
 10
9.4557628403
 20
10.761957259
 30
0.0
 10
9.4553875329
 20
10.7628133421
 30
0.0
 10
9.4553415289
 20
10.7636811767
 30
0.0
 10
9.4555441198
 20
10.7642085342
 30
0.0
 10
9.4556847679
 20
10.764448626
 30
0.0
  0
LINE
  5
2D1
100
AcDbEntity
  8
0
100
AcDbLine
 62
9
  6
CONTINUOUS
 10
10.5860889889
 20
10.82440671
 11
10.5851515079
 21
10.836702204
  0
LINE
  5
2D2
100
AcDbEntity
  8
0
100
AcDbLine
 62
9
  6
CONTINUOUS
 10
10.5828424814
 20
10.3435685747
 11
10.5851431396
 21
10.3237012791
  0
LINE
  5
2D3
100
AcDbEntity
  8
0
100
AcDbLine
 62
9
  6
CONTINUOUS
 10
12.867564389
 20
11.0638467177
 11
12.8707550066
 21
11.0441107625
  0
LINE
  5
2D4
100
AcDbEntity
  8
0
100
AcDbLine
 62
9
  6
CONTINUOUS
 10
12.8894001336
 20
11.0493963448
 11
12.8707549615
 21
11.0441108009
  0
SPLINE
  5
2D5
100
AcDbEntity
  8
0
100
AcDbSpline
 62
9
  6
CONTINUOUS
 70
0
 71
3
 72
9
 73
5
 74
0
 42
0.0000001
 43
0.0000001
 44
0.0000000001
 40
0.0
 40
0.0
 40
0.0
 40
0.0
 40
0.2487379731
 40
1.0
 40
1.0
 40
1.0
 40
1.0
 10
9.4786364375
 20
10.7428272698
 30
0.0
 10
9.4786364381
 20
10.7438085919
 30
0.0
 10
9.478730074
 20
10.7477535931
 30
0.0
 10
9.4791782152
 20
10.7516873412
 30
0.0
 10
9.4796796046
 20
10.7546085066
 30
0.0
  0
SPLINE
  5
2D6
100
AcDbEntity
  8
0
100
AcDbSpline
 62
9
  6
CONTINUOUS
 70
0
 71
3
 72
16
 73
12
 74
0
 42
0.0000001
 43
0.0000001
 44
0.0000000001
 40
0.0
 40
0.0
 40
0.0
 40
0.0
 40
0.1243145826
 40
0.186570348
 40
0.2489090739
 40
0.3739281421
 40
0.4993348447
 40
0.624919096
 40
0.7503503825
 40
0.8753939231
 40
1.0
 40
1.0
 40
1.0
 40
1.0
 10
10.5828424489
 20
10.3435688471
 30
0.0
 10
10.5608035431
 20
10.3409358013
 30
0.0
 10
10.5278560499
 20
10.3355047755
 30
0.0
 10
10.4848143299
 20
10.3243197678
 30
0.0
 10
10.4425325835
 20
10.3101482193
 30
0.0
 10
10.3917231678
 20
10.2862503072
 30
0.0
 10
10.3374494792
 20
10.2458180927
 30
0.0
 10
10.2939269878
 20
10.1937476072
 30
0.0
 10
10.2638601175
 20
10.133083149
 30
0.0
 10
10.2467675111
 20
10.0679629678
 30
0.0
 10
10.242439607
 20
10.0234354378
 30
0.0
 10
10.2416379859
 20
10.0012022028
 30
0.0
  0
SPLINE
  5
2D7
100
AcDbEntity
  8
0
100
AcDbSpline
 62
9
  6
CONTINUOUS
 70
0
 71
3
 72
16
 73
12
 74
0
 42
0.0000001
 43
0.0000001
 44
0.0000000001
 40
0.0
 40
0.0
 40
0.0
 40
0.0
 40
0.1244345479
 40
0.2491236718
 40
0.3742665166
 40
0.4996921258
 40
0.6251745747
 40
0.7504606566
 40
0.8129658455
 40
0.8753945015
 40
1.0
 40
1.0
 40
1.0
 40
1.0
 10
9.7318159072
 20
10.0012021536
 30
0.0
 10
9.729704734
 20
10.0179559433
 30
0.0
 10
9.7237987665
 20
10.051325279
 30
0.0
 10
9.708728039
 20
10.0999916556
 30
0.0
 10
9.686361444
 20
10.1460028394
 30
0.0
 10
9.6560811651
 20
10.1874549276
 30
0.0
 10
9.6184278816
 20
10.222389003
 30
0.0
 10
9.5822441902
 20
10.2451522241
 30
0.0
 10
9.5514730616
 20
10.2595737082
 30
0.0
 10
9.5197930707
 20
10.271609108
 30
0.0
 10
9.4951892586
 20
10.2781806393
 30
0.0
 10
9.4786363382
 20
10.2816348198
 30
0.0
  0
SPLINE
  5
2D8
100
AcDbEntity
  8
0
100
AcDbSpline
 62
9
  6
CONTINUOUS
 70
0
 71
3
 72
13
 73
9
 74
0
 42
0.0000001
 43
0.0000001
 44
0.0000000001
 40
0.0
 40
0.0
 40
0.0
 40
0.0
 40
0.2364702963
 40
0.363456887
 40
0.4935649343
 40
0.6247162216
 40
0.7545720183
 40
1.0
 40
1.0
 40
1.0
 40
1.0
 10
12.8675644089
 20
11.0638466917
 30
0.0
 10
12.8697869583
 20
11.0642260209
 30
0.0
 10
12.8733555148
 20
11.0641713385
 30
0.0
 10
12.8778718014
 20
11.0627782406
 30
0.0
 10
12.881167515
 20
11.0610389886
 30
0.0
 10
12.884075641
 20
11.0586665669
 30
0.0
 10
12.8872202958
 20
11.0549766192
 30
0.0
 10
12.8887764968
 20
11.0516518118
 30
0.0
 10
12.8894001242
 20
11.0493963422
 30
0.0
  0
SPLINE
  5
2D9
100
AcDbEntity
  8
0
100
AcDbSpline
 62
9
  6
CONTINUOUS
 70
0
 71
3
 72
9
 73
5
 74
0
 42
0.0000001
 43
0.0000001
 44
0.0000000001
 40
0.0
 40
0.0
 40
0.0
 40
0.0
 40
0.4994254528
 40
1.0
 40
1.0
 40
1.0
 40
1.0
 10
12.8894001427
 20
11.0493962784
 30
0.0
 10
12.8902020315
 20
11.0458205977
 30
0.0
 10
12.8913440197
 20
11.0385481981
 30
0.0
 10
12.8914677549
 20
11.0311823732
 30
0.0
 10
12.8912534296
 20
11.0275157061
 30
0.0
  0
SPLINE
  5
2DA
100
AcDbEntity
  8
0
100
AcDbSpline
 62
9
  6
CONTINUOUS
 70
0
 71
3
 72
9
 73
5
 74
0
 42
0.0000001
 43
0.0000001
 44
0.0000000001
 40
0.0
 40
0.0
 40
0.0
 40
0.0
 40
0.2504633693
 40
1.0
 40
1.0
 40
1.0
 40
1.0
 10
9.4616764738
 20
10.7428272698
 30
0.0
 10
9.4615485987
 20
10.7440643663
 30
0.0
 10
9.461165179
 20
10.749016257
 30
0.0
 10
9.4612747615
 20
10.7540035761
 30
0.0
 10
9.4616074559
 20
10.7577105371
 30
0.0
  0
SPLINE
  5
2DB
100
AcDbEntity
  8
0
100
AcDbSpline
 62
9
  6
CONTINUOUS
 70
0
 71
3
 72
15
 73
11
 74
0
 42
0.0000001
 43
0.0000001
 44
0.0000000001
 40
0.0
 40
0.0
 40
0.0
 40
0.0
 40
0.1096566191
 40
0.2259981111
 40
0.3476623177
 40
0.4737552311
 40
0.6041778766
 40
0.7375460173
 40
0.8707590934
 40
1.0
 40
1.0
 40
1.0
 40
1.0
 10
9.4745508923
 20
10.2620569291
 30
0.0
 10
9.473639878
 20
10.2622470382
 30
0.0
 10
9.4718030745
 20
10.2628528977
 30
0.0
 10
9.4692165978
 20
10.2643057789
 30
0.0
 10
9.4668332307
 20
10.2663007584
 30
0.0
 10
9.4647948366
 20
10.2688080851
 30
0.0
 10
9.4632592322
 20
10.2717613333
 30
0.0
 10
9.462217564
 20
10.2749794467
 30
0.0
 10
9.4616616367
 20
10.278303462
 30
0.0
 10
9.4616122942
 20
10.2805402556
 30
0.0
 10
9.4616764795
 20
10.2816352236
 30
0.0
  0
SPLINE
  5
2DC
100
AcDbEntity
  8
0
100
AcDbSpline
 62
9
  6
CONTINUOUS
 70
0
 71
3
 72
14
 73
10
 74
0
 42
0.0000001
 43
0.0000001
 44
0.0000000001
 40
0.0
 40
0.0
 40
0.0
 40
0.0
 40
0.3718205993
 40
0.5324471424
 40
0.6720484581
 40
0.7886559826
 40
0.8814957386
 40
0.9512996795
 40
1.0
 40
1.0
 40
1.0
 40
1.0
 10
9.3693168225
 20
10.4380253362
 30
0.0
 10
9.3691706373
 20
10.4359686671
 30
0.0
 10
9.3689939121
 20
10.433020631
 30
0.0
 10
9.3688862148
 20
10.4292952175
 30
0.0
 10
9.3688811392
 20
10.4269832885
 30
0.0
 10
9.3689465326
 20
10.4250485108
 30
0.0
 10
9.3690787312
 20
10.4235039271
 30
0.0
 10
9.3692711152
 20
10.4223477297
 30
0.0
 10
9.3694631849
 20
10.4217130905
 30
0.0
 10
9.3695817361
 20
10.4214704448
 30
0.0
  0
SPLINE
  5
2DD
100
AcDbEntity
  8
0
100
AcDbSpline
 62
9
  6
CONTINUOUS
 70
0
 71
3
 72
13
 73
9
 74
0
 42
0.0000001
 43
0.0000001
 44
0.0000000001
 40
0.0
 40
0.0
 40
0.0
 40
0.0
 40
0.2354336084
 40
0.4832400548
 40
0.6107224377
 40
0.7398937936
 40
0.8699951315
 40
1.0
 40
1.0
 40
1.0
 40
1.0
 10
10.9021417885
 20
7.8335547802
 30
0.0
 10
10.903921752
 20
7.8297395471
 30
0.0
 10
10.9070678458
 20
7.8216638586
 30
0.0
 10
10.9097780527
 20
7.8110562952
 30
0.0
 10
10.9112179089
 20
7.802146341
 30
0.0
 10
10.9118958991
 20
7.7952590593
 30
0.0
 10
10.9121607562
 20
7.7882993212
 30
0.0
 10
10.9120729437
 20
7.7836460255
 30
0.0
 10
10.9119637181
 20
7.7813238475
 30
0.0
  0
LINE
  5
2DE
100
AcDbEntity
  8
0
100
AcDbLine
 62
9
  6
CONTINUOUS
 10
9.041455401
 20
7.7813239409
 11
9.0395616505
 21
7.7814048622
  0
SPLINE
  5
2DF
100
AcDbEntity
  8
0
100
AcDbSpline
 62
9
  6
CONTINUOUS
 70
0
 71
3
 72
14
 73
10
 74
0
 42
0.0000001
 43
0.0000001
 44
0.0000000001
 40
0.0
 40
0.0
 40
0.0
 40
0.0
 40
0.0510229627
 40
0.1213123049
 40
0.2131944059
 40
0.3280240712
 40
0.4658692871
 40
0.6255773983
 40
1.0
 40
1.0
 40
1.0
 40
1.0
 10
9.3702948836
 20
10.6186961893
 30
0.0
 10
9.3701431617
 20
10.6184372104
 30
0.0
 10
9.3698797432
 20
10.6177668317
 30
0.0
 10
9.3695952337
 20
10.6165442369
 30
0.0
 10
9.3693735376
 20
10.6149278027
 30
0.0
 10
9.3692238976
 20
10.612905753
 30
0.0
 10
9.3691524238
 20
10.6104802391
 30
0.0
 10
9.3691689932
 20
10.6065268117
 30
0.0
 10
9.3693069747
 20
10.6033864358
 30
0.0
 10
9.3694353585
 20
10.6011875906
 30
0.0
  0
SPLINE
  5
2E0
100
AcDbEntity
  8
0
100
AcDbSpline
 62
9
  6
CONTINUOUS
 70
0
 71
3
 72
14
 73
10
 74
0
 42
0.0000001
 43
0.0000001
 44
0.0000000001
 40
0.0
 40
0.0
 40
0.0
 40
0.0
 40
0.0521137894
 40
0.1228774832
 40
0.2146237934
 40
0.3289065546
 40
0.4660996058
 40
0.6253397658
 40
1.0
 40
1.0
 40
1.0
 40
1.0
 10
13.036519571
 20
10.56684381
 30
0.0
 10
13.0366496022
 20
10.5671003347
 30
0.0
 10
13.0368722949
 20
10.5677462237
 30
0.0
 10
13.0371039243
 20
10.5689089653
 30
0.0
 10
13.0372695559
 20
10.5704292043
 30
0.0
 10
13.0373601525
 20
10.5723218192
 30
0.0
 10
13.0373694003
 20
10.5745890037
 30
0.0
 10
13.0372606248
 20
10.5782914003
 30
0.0
 10
13.0370570509
 20
10.5812320132
 30
0.0
 10
13.036884531
 20
10.5832924292
 30
0.0
  0
SPLINE
  5
2E1
100
AcDbEntity
  8
0
100
AcDbSpline
 62
9
  6
CONTINUOUS
 70
0
 71
3
 72
19
 73
15
 74
0
 42
0.0000001
 43
0.0000001
 44
0.0000000001
 40
0.0
 40
0.0
 40
0.0
 40
0.0
 40
0.180832596
 40
0.3652037755
 40
0.5426528924
 40
0.7013178166
 40
0.8302636263
 40
0.8816757609
 40
0.9236200764
 40
0.9557436664
 40
0.9785028578
 40
0.986616913
 40
0.9927301251
 40
1.0
 40
1.0
 40
1.0
 40
1.0
 10
9.0613388877
 20
7.7813362562
 30
0.0
 10
9.0601368539
 20
7.7812588118
 30
0.0
 10
9.0577083231
 20
7.7811166799
 30
0.0
 10
9.0540974906
 20
7.7809492187
 30
0.0
 10
9.0506321072
 20
7.7808398724
 30
0.0
 10
9.0475344764
 20
7.7807960855
 30
0.0
 10
9.0452759442
 20
7.7808209753
 30
0.0
 10
9.0437963479
 20
7.7808849308
 30
0.0
 10
9.0429626609
 20
7.7809439992
 30
0.0
 10
9.0423211621
 20
7.7810186787
 30
0.0
 10
9.0419090614
 20
7.7810937003
 30
0.0
 10
9.041671141
 20
7.7811677745
 30
0.0
 10
9.0415442238
 20
7.7812228228
 30
0.0
 10
9.041460908
 20
7.7812880342
 30
0.0
 10
9.0414550099
 20
7.7813360983
 30
0.0
  0
SPLINE
  5
2E2
100
AcDbEntity
  8
0
100
AcDbSpline
 62
9
  6
CONTINUOUS
 70
0
 71
3
 72
20
 73
16
 74
0
 42
0.0000001
 43
0.0000001
 44
0.0000000001
 40
0.0
 40
0.0
 40
0.0
 40
0.0
 40
0.0675240091
 40
0.1011866714
 40
0.1344615099
 40
0.2001875568
 40
0.2648572658
 40
0.3281827917
 40
0.3908407582
 40
0.4529864789
 40
0.5146497952
 40
0.6369490939
 40
0.7584804942
 40
0.8795922608
 40
1.0
 40
1.0
 40
1.0
 40
1.0
 10
9.0613389095
 20
7.7813362987
 30
0.0
 10
9.0613964454
 20
7.7804802513
 30
0.0
 10
9.0613854307
 20
7.7791857217
 30
0.0
 10
9.0611122772
 20
7.7774959819
 30
0.0
 10
9.0606358185
 20
7.7758739078
 30
0.0
 10
9.0596696514
 20
7.7740119006
 30
0.0
 10
9.0581782502
 20
7.7720447641
 30
0.0
 10
9.0564751102
 20
7.7703136718
 30
0.0
 10
9.0546177426
 20
7.7688028033
 30
0.0
 10
9.0526533176
 20
7.7674737044
 30
0.0
 10
9.0499404409
 20
7.7659140047
 30
0.0
 10
9.0464016415
 20
7.7642974095
 30
0.0
 10
9.0420106078
 20
7.7627895704
 30
0.0
 10
9.0375359315
 20
7.7616508339
 30
0.0
 10
9.0345147999
 20
7.7610990906
 30
0.0
 10
9.0330024787
 20
7.7608676116
 30
0.0
  0
SPLINE
  5
2E3
100
AcDbEntity
  8
0
100
AcDbSpline
 62
9
  6
CONTINUOUS
 70
0
 71
3
 72
9
 73
5
 74
0
 42
0.0000001
 43
0.0000001
 44
0.0000000001
 40
0.0
 40
0.0
 40
0.0
 40
0.0
 40
0.5247720558
 40
1.0
 40
1.0
 40
1.0
 40
1.0
 10
9.0330024787
 20
7.7608676116
 30
0.0
 10
9.0320332388
 20
7.7611317009
 30
0.0
 10
9.0301104023
 20
7.7613998877
 30
0.0
 10
9.0281868473
 20
7.7611264088
 30
0.0
 10
9.0273146672
 20
7.7608677327
 30
0.0
  0
LINE
  5
2E4
100
AcDbEntity
  8
0
100
AcDbLine
 62
9
  6
CONTINUOUS
 10
10.9119637181
 20
7.7813238475
 11
9.0613385554
 21
7.7813237443
  0
SPLINE
  5
2E5
100
AcDbEntity
  8
0
100
AcDbSpline
 62
9
  6
CONTINUOUS
 70
0
 71
3
 72
11
 73
7
 74
0
 42
0.0000001
 43
0.0000001
 44
0.0000000001
 40
0.0
 40
0.0
 40
0.0
 40
0.0
 40
0.2606724784
 40
0.5179269343
 40
0.765559076
 40
1.0
 40
1.0
 40
1.0
 40
1.0
 10
9.0613383732
 20
7.7813237351
 30
0.0
 10
9.0611018204
 20
7.7859779729
 30
0.0
 10
9.0612053409
 20
7.7952627368
 30
0.0
 10
9.0629584176
 20
7.8088685304
 30
0.0
 10
9.0662484172
 20
7.8217029202
 30
0.0
 10
9.0693875092
 20
7.8297564358
 30
0.0
 10
9.0711574369
 20
7.8335556742
 30
0.0
  0
SPLINE
  5
2E6
100
AcDbEntity
  8
0
100
AcDbSpline
 62
9
  6
CONTINUOUS
 70
0
 71
3
 72
18
 73
14
 74
0
 42
0.0000001
 43
0.0000001
 44
0.0000000001
 40
0.0
 40
0.0
 40
0.0
 40
0.0
 40
0.0328780912
 40
0.0638817158
 40
0.0956148573
 40
0.1303114216
 40
0.1695270813
 40
0.2142098462
 40
0.3217640033
 40
0.4547488903
 40
0.6128487687
 40
0.7950453111
 40
1.0
 40
1.0
 40
1.0
 40
1.0
 10
9.4403488754
 20
10.2766332293
 30
0.0
 10
9.4402741543
 20
10.2767862229
 30
0.0
 10
9.440163304
 20
10.2771031598
 30
0.0
 10
9.4401448537
 20
10.2776055174
 30
0.0
 10
9.4402789425
 20
10.278098972
 30
0.0
 10
9.4405534648
 20
10.2785774615
 30
0.0
 10
9.440958844
 20
10.2790427115
 30
0.0
 10
9.441715325
 20
10.2796876864
 30
0.0
 10
9.4429938864
 20
10.2804446099
 30
0.0
 10
9.4448916569
 20
10.2812632667
 30
0.0
 10
9.4472202112
 20
10.2820363851
 30
0.0
 10
9.4499521776
 20
10.2827551373
 30
0.0
 10
9.451914782
 20
10.2831688843
 30
0.0
 10
9.4529573741
 20
10.283367791
 30
0.0
  0
SPLINE
  5
2E7
100
AcDbEntity
  8
0
100
AcDbSpline
 62
9
  6
CONTINUOUS
 70
0
 71
3
 72
14
 73
10
 74
0
 42
0.0000001
 43
0.0000001
 44
0.0000000001
 40
0.0
 40
0.0
 40
0.0
 40
0.0
 40
0.259676423
 40
0.3932182211
 40
0.5250951234
 40
0.6528821005
 40
0.7751070847
 40
0.8907502838
 40
1.0
 40
1.0
 40
1.0
 40
1.0
 10
9.4529573945
 20
10.2833677947
 30
0.0
 10
9.4528390483
 20
10.2811375795
 30
0.0
 10
9.453143005
 20
10.2777019604
 30
0.0
 10
9.4546025162
 20
10.2734119127
 30
0.0
 10
9.4562211346
 20
10.2704203706
 30
0.0
 10
9.4583180429
 20
10.2678665998
 30
0.0
 10
9.4607551318
 20
10.2658456014
 30
0.0
 10
9.4634126001
 20
10.2644418329
 30
0.0
 10
9.4652815482
 20
10.2638897968
 30
0.0
 10
9.4662048229
 20
10.2637153811
 30
0.0
  0
SPLINE
  5
2E8
100
AcDbEntity
  8
0
100
AcDbSpline
 62
9
  6
CONTINUOUS
 70
0
 71
3
 72
19
 73
15
 74
0
 42
0.0000001
 43
0.0000001
 44
0.0000000001
 40
0.0
 40
0.0
 40
0.0
 40
0.0
 40
0.0569867419
 40
0.1143058745
 40
0.1726900602
 40
0.2321546558
 40
0.2924735423
 40
0.3539290693
 40
0.4165646166
 40
0.4800556277
 40
0.608150912
 40
0.7377372008
 40
0.8684811107
 40
1.0
 40
1.0
 40
1.0
 40
1.0
 10
10.9119630827
 20
7.781334952
 30
0.0
 10
10.9118700559
 20
7.780616554
 30
0.0
 10
10.9118557647
 20
7.7791485666
 30
0.0
 10
10.912307356
 20
7.7769862541
 30
0.0
 10
10.9131625295
 20
7.7749180742
 30
0.0
 10
10.9143611361
 20
7.7729856756
 30
0.0
 10
10.9158567178
 20
7.7712236688
 30
0.0
 10
10.9175882184
 20
7.7696362032
 30
0.0
 10
10.919503408
 20
7.7682100396
 30
0.0
 10
10.9222475063
 20
7.7664983773
 30
0.0
 10
10.9259197242
 20
7.7646889891
 30
0.0
 10
10.9305677762
 20
7.7630012787
 30
0.0
 10
10.935386244
 20
7.761717832
 30
0.0
 10
10.9386680048
 20
7.7611118093
 30
0.0
 10
10.9403214554
 20
7.760864636
 30
0.0
  0
SPLINE
  5
2E9
100
AcDbEntity
  8
0
100
AcDbSpline
 62
9
  6
CONTINUOUS
 70
0
 71
3
 72
14
 73
10
 74
0
 42
0.0000001
 43
0.0000001
 44
0.0000000001
 40
0.0
 40
0.0
 40
0.0
 40
0.0
 40
0.3746327332
 40
0.5339718189
 40
0.671265251
 40
0.7856020578
 40
0.8773419069
 40
0.9480259937
 40
1.0
 40
1.0
 40
1.0
 40
1.0
 10
13.0291865515
 20
10.8091543903
 30
0.0
 10
13.0292205197
 20
10.8112416836
 30
0.0
 10
13.0292261758
 20
10.81421837
 30
0.0
 10
13.0290850944
 20
10.8179566594
 30
0.0
 10
13.0289223865
 20
10.8202415248
 30
0.0
 10
13.0287031715
 20
10.8221429485
 30
0.0
 10
13.0284337269
 20
10.8236631822
 30
0.0
 10
13.0281221485
 20
10.8248177179
 30
0.0
 10
13.0278544513
 20
10.8254522159
 30
0.0
 10
13.0277062417
 20
10.8257010349
 30
0.0
  0
SPLINE
  5
2EA
100
AcDbEntity
  8
0
100
AcDbSpline
 62
9
  6
CONTINUOUS
 70
0
 71
3
 72
13
 73
9
 74
0
 42
0.0000001
 43
0.0000001
 44
0.0000000001
 40
0.0
 40
0.0
 40
0.0
 40
0.0
 40
0.2499343596
 40
0.4999266742
 40
0.624939125
 40
0.7499554853
 40
0.8749784841
 40
1.0
 40
1.0
 40
1.0
 40
1.0
 10
11.772661659
 20
10.3479777507
 30
0.0
 10
11.6738704671
 20
10.3516667676
 30
0.0
 10
11.4762174521
 20
10.3579101971
 30
0.0
 10
11.2289870857
 20
10.3596959891
 30
0.0
 10
11.0312371199
 20
10.3555437256
 30
0.0
 10
10.8830110743
 20
10.3491523561
 30
0.0
 10
10.7349881019
 20
10.3390161526
 30
0.0
 10
10.6365280077
 20
10.3294796246
 30
0.0
 10
10.5873861739
 20
10.323954005
 30
0.0
  0
SPLINE
  5
2EB
100
AcDbEntity
  8
0
100
AcDbSpline
 62
9
  6
CONTINUOUS
 70
0
 71
3
 72
9
 73
5
 74
0
 42
0.0000001
 43
0.0000001
 44
0.0000000001
 40
0.0
 40
0.0
 40
0.0
 40
0.0
 40
0.4850433888
 40
1.0
 40
1.0
 40
1.0
 40
1.0
 10
9.0330024266
 20
7.7608679017
 30
0.0
 10
9.0314328663
 20
7.7601685511
 30
0.0
 10
9.0283158402
 20
7.7584487432
 30
0.0
 10
9.0255019525
 20
7.7562736555
 30
0.0
 10
9.0241371923
 20
7.7550630967
 30
0.0
  0
SPLINE
  5
2EC
100
AcDbEntity
  8
0
100
AcDbSpline
 62
9
  6
CONTINUOUS
 70
0
 71
3
 72
9
 73
5
 74
0
 42
0.0000001
 43
0.0000001
 44
0.0000000001
 40
0.0
 40
0.0
 40
0.0
 40
0.0
 40
0.4665266398
 40
1.0
 40
1.0
 40
1.0
 40
1.0
 10
9.0241371923
 20
7.7550630967
 30
0.0
 10
9.0213472245
 20
7.7525883618
 30
0.0
 10
9.0160944371
 20
7.7464527557
 30
0.0
 10
9.0122655702
 20
7.7393601764
 30
0.0
 10
9.0106443392
 20
7.7354158237
 30
0.0
  0
SPLINE
  5
2ED
100
AcDbEntity
  8
0
100
AcDbSpline
 62
9
  6
CONTINUOUS
 70
0
 71
3
 72
15
 73
11
 74
0
 42
0.0000001
 43
0.0000001
 44
0.0000000001
 40
0.0
 40
0.0
 40
0.0
 40
0.0
 40
0.1605078292
 40
0.3184325471
 40
0.4681132237
 40
0.6044486312
 40
0.7242946631
 40
0.8285036051
 40
0.9192657845
 40
1.0
 40
1.0
 40
1.0
 40
1.0
 10
9.0106443392
 20
7.7354158237
 30
0.0
 10
9.0097648795
 20
7.7358106686
 30
0.0
 10
9.0079864047
 20
7.7365210773
 30
0.0
 10
9.0052944716
 20
7.7373443063
 30
0.0
 10
9.0026786925
 20
7.7378834534
 30
0.0
 10
9.000242306
 20
7.7380968227
 30
0.0
 10
8.9980724323
 20
7.7379282338
 30
0.0
 10
8.9962383075
 20
7.7374109775
 30
0.0
 10
8.9947796961
 20
7.7365894323
 30
0.0
 10
8.9940573311
 20
7.7358238569
 30
0.0
 10
8.9937960845
 20
7.7354153505
 30
0.0
  0
SPLINE
  5
2EE
100
AcDbEntity
  8
0
100
AcDbSpline
 62
9
  6
CONTINUOUS
 70
0
 71
3
 72
9
 73
5
 74
0
 42
0.0000001
 43
0.0000001
 44
0.0000000001
 40
0.0
 40
0.0
 40
0.0
 40
0.0
 40
0.4846126232
 40
1.0
 40
1.0
 40
1.0
 40
1.0
 10
10.9403094768
 20
7.7608635235
 30
0.0
 10
10.9418458483
 20
7.760175089
 30
0.0
 10
10.9449038519
 20
7.7584934119
 30
0.0
 10
10.9476739963
 20
7.7563749654
 30
0.0
 10
10.9490203628
 20
7.7551946711
 30
0.0
  0
SPLINE
  5
2EF
100
AcDbEntity
  8
0
100
AcDbSpline
 62
9
  6
CONTINUOUS
 70
0
 71
3
 72
9
 73
5
 74
0
 42
0.0000001
 43
0.0000001
 44
0.0000000001
 40
0.0
 40
0.0
 40
0.0
 40
0.0
 40
0.4647730848
 40
1.0
 40
1.0
 40
1.0
 40
1.0
 10
10.9490203628
 20
7.7551946711
 30
0.0
 10
10.9518377231
 20
7.7527248277
 30
0.0
 10
10.9571648698
 20
7.7465538537
 30
0.0
 10
10.9609886563
 20
7.7393861911
 30
0.0
 10
10.9626611141
 20
7.7354088848
 30
0.0
  0
SPLINE
  5
2F0
100
AcDbEntity
  8
0
100
AcDbSpline
 62
7
  6
CONTINUOUS
 70
0
 71
3
 72
10
 73
6
 74
0
 42
0.0000001
 43
0.0000001
 44
0.0000000001
 40
0.0
 40
0.0
 40
0.0
 40
0.0
 40
0.4102674041
 40
0.6804497955
 40
1.0
 40
1.0
 40
1.0
 40
1.0
 10
8.8372784853
 20
7.5010080198
 30
0.0
 10
8.8375442477
 20
7.5013831315
 30
0.0
 10
8.8382278451
 20
7.501816424
 30
0.0
 10
8.8392840501
 20
7.5021722445
 30
0.0
 10
8.8399357209
 20
7.5023025102
 30
0.0
 10
8.8402897166
 20
7.5023563365
 30
0.0
  0
SPLINE
  5
2F1
100
AcDbEntity
  8
0
100
AcDbSpline
 62
7
  6
CONTINUOUS
 70
0
 71
3
 72
12
 73
8
 74
0
 42
0.0000001
 43
0.0000001
 44
0.0000000001
 40
0.0
 40
0.0
 40
0.0
 40
0.0
 40
0.0911234665
 40
0.1941271748
 40
0.4322489949
 40
0.7055515821
 40
1.0
 40
1.0
 40
1.0
 40
1.0
 10
8.8402897166
 20
7.5023563365
 30
0.0
 10
8.8406935936
 20
7.5024177473
 30
0.0
 10
8.8415609328
 20
7.502503838
 30
0.0
 10
8.8434992436
 20
7.5025535086
 30
0.0
 10
8.8462534589
 20
7.5023759574
 30
0.0
 10
8.8498300606
 20
7.501848593
 30
0.0
 10
8.8523215421
 20
7.5013189137
 30
0.0
 10
8.8536044536
 20
7.5010079817
 30
0.0
  0
LINE
  5
2F2
100
AcDbEntity
  8
0
100
AcDbLine
 62
9
  6
CONTINUOUS
 10
9.0329923618
 20
7.7608635297
 11
10.9403095583
 21
7.7608635388
  0
SPLINE
  5
2F3
100
AcDbEntity
  8
0
100
AcDbSpline
 62
7
  6
CONTINUOUS
 70
0
 71
3
 72
8
 73
4
 74
0
 42
0.0000001
 43
0.0000001
 44
0.0000000001
 40
0.0
 40
0.0
 40
0.0
 40
0.0
 40
1.0
 40
1.0
 40
1.0
 40
1.0
 10
10.5002015941
 20
10.3075077646
 30
0.0
 10
10.5278750899
 20
10.3150949372
 30
0.0
 10
10.5563986731
 20
10.3202635861
 30
0.0
 10
10.5851431369
 20
10.3237013013
 30
0.0
  0
ENDSEC
  0
SECTION
  2
OBJECTS
  0
DICTIONARY
  5
C
100
AcDbDictionary
280
0
281
1
  3
ACAD_GROUP
350
D
  3
ACAD_MLINESTYLE
350
17
  3
ACAD_LAYOUT
350
1A
  3
ACAD_PLOTSETTINGS
350
19
  3
ACAD_PLOTSTYLENAME
350
E
  0
DICTIONARY
  5
D
102
{ACAD_REACTORS
330
C
102
}
100
AcDbDictionary
280
0
281
1
  0
ACDBDICTIONARYWDFLT
  5
E
102
{ACAD_REACTORS
330
C
102
}
100
AcDbDictionary
281
1
  3
Normal
350
F
100
AcDbDictionaryWithDefault
340
F
  0
DICTIONARY
  5
17
102
{ACAD_REACTORS
330
C
102
}
100
AcDbDictionary
280
0
281
1
  3
Standard
350
18
  0
DICTIONARY
  5
19
102
{ACAD_REACTORS
330
C
102
}
100
AcDbDictionary
281
1
  0
DICTIONARY
  5
1A
102
{ACAD_REACTORS
330
C
102
}
100
AcDbDictionary
281
1
  3
Model
350
2F4
  3
Layout1
350
2F5
  0
ACDBPLACEHOLDER
  5
F
102
{ACAD_REACTORS
330
E
102
}
  0
MLINESTYLE
  5
18
102
{ACAD_REACTORS
330
17
102
}
100
AcDbMlineStyle
  2
STANDARD
 70
0
  3

 62
256
 51
90.0
 52
90.0
 71
2
 49
0.5
 62
256
  6
BYLAYER
 49
-0.5
 62
256
  6
BYLAYER
  0
LAYOUT
  5
2F4
102
{ACAD_REACTORS
330
1A
102
}
100
AcDbPlotSettings
  1

  2
none_device
  4
ANSI_C_(22.00_x_17.00_Inches)
  6

 40
0.0
 41
0.0
 42
0.0
 43
0.0
 44
558.8
 45
431.8
 46
0.0
 47
0.0
 48
0.0
 49
0.0
140
0.0
141
0.0
142
1.0
143
1.0
 70
1024
 72
0
 73
0
 74
0
  7

 75
0
147
1.0
148
0.0
149
0.0
100
AcDbLayout
  1
Model
 70
0
 71
0
 10
0.0
 20
0.0
 11
22.0
 21
17.0
 12
0.0
 22
0.0
 32
0.0
 14
0.0
 24
0.0
 34
0.0
 15
0.0
 25
0.0
 35
0.0
146
0.0
 13
0.0
 23
0.0
 33
0.0
 16
1.0
 26
0.0
 36
0.0
 17
0.0
 27
1.0
 37
0.0
 76
0
330
202
345
0
346
0
  0
LAYOUT
  5
2F5
102
{ACAD_REACTORS
330
1A
102
}
100
AcDbPlotSettings
  1

  2
none_device
  4
ANSI_C_(22.00_x_17.00_Inches)
  6

 40
0.0
 41
0.0
 42
0.0
 43
0.0
 44
558.8
 45
431.8
 46
0.0
 47
0.0
 48
0.0
 49
0.0
140
0.0
141
0.0
142
1.0
143
1.0
 70
0
 72
0
 73
0
 74
0
  7

 75
0
147
1.0
148
0.0
149
0.0
100
AcDbLayout
  1
Layout1
 70
0
 71
1
 10
0.0
 20
0.0
 11
22.0
 21
17.0
 12
0.0
 22
0.0
 32
0.0
 14
0.0
 24
0.0
 34
0.0
 15
0.0
 25
0.0
 35
0.0
146
0.0
 13
0.0
 23
0.0
 33
0.0
 16
1.0
 26
0.0
 36
0.0
 17
0.0
 27
1.0
 37
0.0
 76
0
330
203
345
0
346
0
  0
ENDSEC
  0
EOF
