999
DXF file: E:\BT Custom\CADOUTPUT\_RIGHT.dxf
999
Pro/ENGINEER 2018400 by Parametric Technology Corporation
  0
SECTION
  2
HEADER
  9
$ACADVER
  1
AC1018
  9
$DWGCODEPAGE
  3
ANSI_1252
  9
$EXTMAX
 10
22.0
 20
17.0
 30
0.0
  9
$EXTMIN
 10
0.0
 20
0.0
 30
0.0
  9
$LIMMIN
 10
0.0
 20
0.0
  9
$LIMMAX
 10
22.0
 20
17.0
  9
$VIEWCTR
 10
11.0
 20
8.5
  9
$VIEWSIZE
 40
17.0
  9
$CLAYER
  8
0
  9
$LTSCALE
 40
1.21
  9
$CELTYPE
  6
BYLAYER
  9
$DIMSCALE
 40
1.0
  9
$DIMASZ
 40
0.1
  9
$DIMEXO
 40
0.0625
  9
$DIMDLI
 40
0.836
  9
$DIMEXE
 40
0.125
  9
$DIMCEN
 40
0.198
  9
$DIMLFAC
 40
1.0
  9
$DIMBLK
  1
_FILLED
  9
$DIMALT
 70
1
  9
$DIMALTD
 70
2
  9
$DIMALTTD
 70
2
  9
$DIMALTF
 40
25.4
  9
$DIMTXT
 40
0.08
  9
$DIMTOL
 70
1
  9
$DIMLIM
 70
0
  9
$DIMTFAC
 40
1.0
  9
$DIMTP
 40
0.001
  9
$DIMTM
 40
0.001
  9
$DIMGAP
 40
0.09
  9
$DIMDSEP
 70
46
  9
$AUNITS
 70
0
  9
$PDMODE
 70
3
  9
$PDSIZE
 40
0.06
  9
$HANDSEED
  5
2C1
  9
$TILEMODE
 70
1
  9
$MEASUREMENT
 70
0
  9
$INSUNITS
 70
1
  0
ENDSEC
  0
SECTION
  2
CLASSES
  0
CLASS
  1
ACDBDICTIONARYWDFLT
  2
AcDbDictionaryWithDefault
  3
AutoCAD 2000
 90
0
 91
1
280
0
281
0
  0
CLASS
  1
ACDBPLACEHOLDER
  2
AcDbPlaceHolder
  3
AutoCAD 2000
 90
0
 91
1
280
0
281
0
  0
CLASS
  1
LAYOUT
  2
AcDbLayout
  3
AutoCAD 2000
 90
0
 91
0
280
0
281
0
  0
ENDSEC
  0
SECTION
  2
TABLES
  0
TABLE
  2
VPORT
  5
8
100
AcDbSymbolTable
 70
2
  0
VPORT
  5
1F4
100
AcDbSymbolTableRecord
100
AcDbViewportTableRecord
  2
*ACTIVE
 70
0
 10
0.0
 20
0.0
 11
1.0
 21
1.0
 12
11.0
 22
8.5
 13
0.0
 23
0.0
 14
1.0
 24
1.0
 15
0.0
 25
0.0
 16
0.0
 26
0.0
 36
1.0
 17
0.0
 27
0.0
 37
0.0
 40
17.0
 41
1.2941176471
 42
50.0
 43
0.0
 44
0.0
 50
0.0
 51
0.0
 71
0
 72
100
 73
1
 74
1
 75
0
 76
0
 77
0
 78
0
  0
ENDTAB
  0
TABLE
  2
LTYPE
  5
5
100
AcDbSymbolTable
 70
6
  0
LTYPE
  5
14
100
AcDbSymbolTableRecord
100
AcDbLinetypeTableRecord
  2
BYBLOCK
 70
0
  3

 72
65
 73
0
 40
0.0
  0
LTYPE
  5
15
100
AcDbSymbolTableRecord
100
AcDbLinetypeTableRecord
  2
BYLAYER
 70
0
  3

 72
65
 73
0
 40
0.0
  0
LTYPE
  5
16
100
AcDbSymbolTableRecord
100
AcDbLinetypeTableRecord
  2
CONTINUOUS
 70
64
  3
Solid line
 72
65
 73
0
 40
0.0
  0
LTYPE
  5
1F5
100
AcDbSymbolTableRecord
100
AcDbLinetypeTableRecord
  2
CENTER
 70
64
  3
____ _ ____ _ ____ _ ____ _ ____ _ ____ _ ____
 72
65
 73
4
 40
0.6
 49
0.375
 74
0
 49
-0.075
 74
0
 49
0.075
 74
0
 49
-0.075
 74
0
  0
LTYPE
  5
1F6
100
AcDbSymbolTableRecord
100
AcDbLinetypeTableRecord
  2
HIDDEN
 70
64
  3
- - - - - - - - - - - - - - - - - - - -
 72
65
 73
2
 40
0.2
 49
0.1
 74
0
 49
-0.1
 74
0
  0
LTYPE
  5
1F7
100
AcDbSymbolTableRecord
100
AcDbLinetypeTableRecord
  2
PHANTOM
 70
64
  3
_____ _ _ _____ _ _ _____ _ _ _____
 72
65
 73
6
 40
0.8
 49
0.45
 74
0
 49
-0.05
 74
0
 49
0.1
 74
0
 49
-0.05
 74
0
 49
0.1
 74
0
 49
-0.05
 74
0
  0
LTYPE
  5
1F8
100
AcDbSymbolTableRecord
100
AcDbLinetypeTableRecord
  2
DOT
 70
64
  3
. . . . . . . . . . . . . . . . . . . .
 72
65
 73
2
 40
0.2
 49
0.1
 74
0
 49
-0.1
 74
0
  0
LTYPE
  5
1F9
100
AcDbSymbolTableRecord
100
AcDbLinetypeTableRecord
  2
DASHED
 70
64
  3
- - - - - - - - - - - - - - - - - - - -
 72
65
 73
2
 40
0.2
 49
0.1
 74
0
 49
-0.1
 74
0
  0
ENDTAB
  0
TABLE
  2
LAYER
  5
2
100
AcDbSymbolTable
 70
36
  0
LAYER
  5
10
100
AcDbSymbolTableRecord
100
AcDbLayerTableRecord
  2
0
 70
0
 62
7
  6
CONTINUOUS
370
-3
390
F
  0
LAYER
  5
1FA
100
AcDbSymbolTableRecord
100
AcDbLayerTableRecord
  2
DEFAULT_1
 70
0
 62
7
  6
CENTER
370
-3
390
F
  0
LAYER
  5
1FB
100
AcDbSymbolTableRecord
100
AcDbLayerTableRecord
  2
DEFAULT_2
 70
0
 62
8
  6
HIDDEN
370
-3
390
F
  0
LAYER
  5
1FC
100
AcDbSymbolTableRecord
100
AcDbLayerTableRecord
  2
DEFAULT_3
 70
0
 62
7
  6
PHANTOM
370
-3
390
F
  0
LAYER
  5
1FD
100
AcDbSymbolTableRecord
100
AcDbLayerTableRecord
  2
ALL_FEATURES
 70
0
 62
7
  6
CONTINUOUS
370
-3
390
F
  0
LAYER
  5
1FE
100
AcDbSymbolTableRecord
100
AcDbLayerTableRecord
  2
AXES_FEATURES
 70
0
 62
7
  6
CONTINUOUS
370
-3
390
F
  0
LAYER
  5
1FF
100
AcDbSymbolTableRecord
100
AcDbLayerTableRecord
  2
DIMENSIONS
 70
0
 62
7
  6
CONTINUOUS
370
-3
390
F
  0
ENDTAB
  0
TABLE
  2
STYLE
  5
3
100
AcDbSymbolTable
 70
1
  0
STYLE
  5
11
100
AcDbSymbolTableRecord
100
AcDbTextStyleTableRecord
  2
STANDARD
 70
0
 40
0.0
 41
0.8
 50
0.0
 71
0
 42
0.2
  3
txt
  4

  0
STYLE
  5
200
100
AcDbSymbolTableRecord
100
AcDbTextStyleTableRecord
  2
TEXTSTYLE_1
 70
0
 40
0.0
 41
0.8
 50
0.0
 71
0
 42
0.2
  3
gdt
  4

  0
ENDTAB
  0
TABLE
  2
VIEW
  5
6
100
AcDbSymbolTable
 70
0
  0
ENDTAB
  0
TABLE
  2
UCS
  5
7
100
AcDbSymbolTable
 70
0
  0
ENDTAB
  0
TABLE
  2
APPID
  5
9
100
AcDbSymbolTable
 70
1
  0
APPID
  5
201
100
AcDbSymbolTableRecord
100
AcDbRegAppTableRecord
  2
ACAD
 70
0
  0
ENDTAB
  0
TABLE
  2
BLOCK_RECORD
  5
1
100
AcDbSymbolTable
 70
0
  0
BLOCK_RECORD
  5
202
100
AcDbSymbolTableRecord
100
AcDbBlockTableRecord
  2
*Model_Space
  0
BLOCK_RECORD
  5
203
100
AcDbSymbolTableRecord
100
AcDbBlockTableRecord
  2
*Paper_Space
  0
BLOCK_RECORD
  5
204
100
AcDbSymbolTableRecord
100
AcDbBlockTableRecord
  2
_FILLED
  0
ENDTAB
  0
TABLE
  2
DIMSTYLE
  5
A
100
AcDbSymbolTable
 70
1
100
AcDbDimStyleTable
 71
0
  0
DIMSTYLE
105
205
100
AcDbSymbolTableRecord
100
AcDbDimStyleTableRecord
  2
STANDARD
 70
0
  3

  4

 40
1.0
 41
0.1
 42
0.0625
 43
0.38
 44
0.125
 45
0.0
 46
0.0
 47
0.001
 48
0.001
140
0.08
141
0.09
142
0.0
143
25.4
144
1.0
145
0.0
146
1.0
147
0.09
 71
1.0
 72
0.0
 73
1
 74
1
 75
0
 76
0
 77
0
 78
4
 79
1
170
1
171
2
172
0
173
0
174
0
175
0
176
0
177
0
178
0
270
2
179
3
271
3
272
3
273
2
274
2
275
0
280
0
281
0
282
0
283
1
284
4
285
0
286
0
287
3
288
0
340
11
278
46
341
204
342
204
343
204
344
204
  0
ENDTAB
  0
ENDSEC
  0
SECTION
  2
BLOCKS
  0
BLOCK
  5
20
100
AcDbEntity
  8
0
100
AcDbBlockBegin
  2
*Model_Space
 70
0
 10
0.0
 20
0.0
 30
0.0
  3
*Model_Space
  1

  0
ENDBLK
  5
21
100
AcDbEntity
  8
0
100
AcDbBlockEnd
  0
BLOCK
  5
1C
100
AcDbEntity
  8
0
100
AcDbBlockBegin
  2
*Paper_Space
 70
0
 10
0.0
 20
0.0
 30
0.0
  3
*Paper_Space
  1

  0
ENDBLK
  5
1D
100
AcDbEntity
  8
0
100
AcDbBlockEnd
  0
BLOCK
  5
206
100
AcDbEntity
  8
0
100
AcDbBlockBegin
  2
_FILLED
 70
64
 10
0.0
 20
0.0
  3
_FILLED
  1

  0
SOLID
  5
207
100
AcDbEntity
  8
0
  6
BYBLOCK
 62
0
100
AcDbTrace
 10
0.0
 20
0.0
 11
-1.0
 21
0.2
 12
-1.0
 22
-0.2
 13
-1.0
 23
-0.2
  0
ENDBLK
  5
208
100
AcDbEntity
  8
0
  6
BYBLOCK
 62
0
100
AcDbBlockEnd
  0
ENDSEC
  0
SECTION
  2
ENTITIES
  0
LINE
  5
209
100
AcDbEntity
  8
0
100
AcDbLine
 62
7
  6
CONTINUOUS
 10
10.255473533
 20
10.365891804
 11
10.1967493369
 21
10.3468111561
  0
LINE
  5
20A
100
AcDbEntity
  8
0
100
AcDbLine
 62
7
  6
CONTINUOUS
 10
9.5224834891
 20
7.578891804
 11
11.8974834891
 21
7.578891804
  0
LINE
  5
20B
100
AcDbEntity
  8
0
100
AcDbLine
 62
7
  6
CONTINUOUS
 10
10.2093302767
 20
10.240391804
 11
10.1824834891
 21
10.224891804
  0
LINE
  5
20C
100
AcDbEntity
  8
0
100
AcDbLine
 62
7
  6
CONTINUOUS
 10
9.5224834891
 20
7.578891804
 11
9.5224834891
 21
7.8856390468
  0
LINE
  5
20D
100
AcDbEntity
  8
0
100
AcDbLine
 62
7
  6
CONTINUOUS
 10
10.1824834891
 20
10.3271759012
 11
10.1967493369
 21
10.3468111561
  0
LINE
  5
20E
100
AcDbEntity
  8
0
100
AcDbLine
 62
7
  6
CONTINUOUS
 10
9.7673062662
 20
9.7721045084
 11
9.6852170091
 21
9.7146249919
  0
LINE
  5
20F
100
AcDbEntity
  8
0
100
AcDbLine
 62
9
  6
CONTINUOUS
 10
11.8796951345
 20
7.9006599308
 11
9.5402718438
 21
7.9006599308
  0
LINE
  5
210
100
AcDbEntity
  8
0
100
AcDbLine
 62
9
  6
CONTINUOUS
 10
9.6852170091
 20
10.1651586162
 11
9.6852170091
 21
9.7146249919
  0
LINE
  5
211
100
AcDbEntity
  8
0
100
AcDbLine
 62
9
  6
CONTINUOUS
 10
9.7673062662
 20
9.7721045084
 11
9.7673062662
 21
10.1076790997
  0
LINE
  5
212
100
AcDbEntity
  8
0
100
AcDbLine
 62
7
  6
CONTINUOUS
 10
9.7924834891
 20
10.1289826937
 11
9.7924834891
 21
9.7508009143
  0
LINE
  5
213
100
AcDbEntity
  8
0
100
AcDbLine
 62
9
  6
CONTINUOUS
 10
9.8173466477
 20
9.7489745108
 11
9.8173466477
 21
10.1308090973
  0
LINE
  5
214
100
AcDbEntity
  8
0
100
AcDbLine
 62
7
  6
CONTINUOUS
 10
11.2374834891
 20
10.255891804
 11
11.2106367016
 21
10.240391804
  0
LINE
  5
215
100
AcDbEntity
  8
0
100
AcDbLine
 62
9
  6
CONTINUOUS
 10
10.1788174793
 20
9.7852730963
 11
10.1788174793
 21
10.094511264
  0
LINE
  5
216
100
AcDbEntity
  8
0
100
AcDbLine
 62
7
  6
CONTINUOUS
 10
10.1824834891
 20
10.3271759012
 11
10.1824834891
 21
10.255891804
  0
LINE
  5
217
100
AcDbEntity
  8
0
100
AcDbLine
 62
7
  6
CONTINUOUS
 10
10.0454418051
 20
8.7130836538
 11
10.1326332199
 21
9.105891804
  0
LINE
  5
218
100
AcDbEntity
  8
0
100
AcDbLine
 62
9
  6
CONTINUOUS
 10
10.200977513
 20
10.03565161
 11
10.200977513
 21
9.8441295015
  0
LINE
  5
219
100
AcDbEntity
  8
0
100
AcDbLine
 62
7
  6
CONTINUOUS
 10
10.2799834891
 20
9.225891804
 11
10.2799834891
 21
9.105891804
  0
LINE
  5
21A
100
AcDbEntity
  8
0
100
AcDbLine
 62
7
  6
CONTINUOUS
 10
11.2374834891
 20
9.655891804
 11
11.0804834891
 21
9.604891804
  0
LINE
  5
21B
100
AcDbEntity
  8
0
100
AcDbLine
 62
7
  6
CONTINUOUS
 10
10.3664834891
 20
9.604891804
 11
10.3664834891
 21
9.245891804
  0
LINE
  5
21C
100
AcDbEntity
  8
0
100
AcDbLine
 62
7
  6
CONTINUOUS
 10
10.3777126471
 20
8.7130836538
 11
10.4213083545
 21
9.105891804
  0
LINE
  5
21D
100
AcDbEntity
  8
0
100
AcDbLine
 62
7
  6
CONTINUOUS
 10
11.6526607121
 20
10.1076790997
 11
11.7347499691
 21
10.1651586162
  0
LINE
  5
21E
100
AcDbEntity
  8
0
100
AcDbLine
 62
9
  6
CONTINUOUS
 10
10.0454418051
 20
8.7130836538
 11
11.3745251731
 21
8.7130836538
  0
LINE
  5
21F
100
AcDbEntity
  8
0
100
AcDbLine
 62
7
  6
CONTINUOUS
 10
10.5104834891
 20
9.225891804
 11
10.5104834891
 21
9.245891804
  0
LINE
  5
220
100
AcDbEntity
  8
0
100
AcDbLine
 62
7
  6
CONTINUOUS
 10
10.6249834891
 20
10.4268585371
 11
10.6249834891
 21
10.4140335377
  0
LINE
  5
221
100
AcDbEntity
  8
0
100
AcDbLine
 62
7
  6
CONTINUOUS
 10
10.6249834891
 20
10.4385281203
 11
10.6249834891
 21
10.4303254068
  0
LINE
  5
222
100
AcDbEntity
  8
0
100
AcDbLine
 62
7
  6
CONTINUOUS
 10
10.6477541339
 20
10.4338676075
 11
10.6477541339
 21
10.4365719282
  0
LINE
  5
223
100
AcDbEntity
  8
0
100
AcDbLine
 62
7
  6
CONTINUOUS
 10
10.6489834891
 20
10.4159603934
 11
10.6489834891
 21
10.4206321869
  0
LINE
  5
224
100
AcDbEntity
  8
0
100
AcDbLine
 62
7
  6
CONTINUOUS
 10
10.6489834891
 20
10.4269898768
 11
10.6489834891
 21
10.4279982668
  0
LINE
  5
225
100
AcDbEntity
  8
0
100
AcDbLine
 62
7
  6
CONTINUOUS
 10
10.6489834891
 20
10.4386584702
 11
10.6489834891
 21
10.4396592661
  0
LINE
  5
226
100
AcDbEntity
  8
0
100
AcDbLine
 62
9
  6
CONTINUOUS
 10
10.6622203634
 20
10.4331536042
 11
10.6622203634
 21
10.4321485857
  0
LINE
  5
227
100
AcDbEntity
  8
0
100
AcDbLine
 62
9
  6
CONTINUOUS
 10
10.6651080046
 20
10.427285121
 11
10.6651080046
 21
10.4262762628
  0
LINE
  5
228
100
AcDbEntity
  8
0
100
AcDbLine
 62
9
  6
CONTINUOUS
 10
10.6777541339
 20
10.4402367935
 11
10.6777541339
 21
10.4392363707
  0
LINE
  5
229
100
AcDbEntity
  8
0
100
AcDbLine
 62
9
  6
CONTINUOUS
 10
10.6817998157
 20
10.4081576605
 11
10.6817998157
 21
10.4071360812
  0
LINE
  5
22A
100
AcDbEntity
  8
0
100
AcDbLine
 62
7
  6
CONTINUOUS
 10
11.8974834891
 20
7.8856390468
 11
11.8796951345
 21
7.9006599308
  0
LINE
  5
22B
100
AcDbEntity
  8
0
100
AcDbLine
 62
7
  6
CONTINUOUS
 10
11.3037334891
 20
7.8856390468
 11
11.2948393118
 21
7.9006599308
  0
LINE
  5
22C
100
AcDbEntity
  8
0
100
AcDbLine
 62
9
  6
CONTINUOUS
 10
10.7431671626
 20
10.4080565966
 11
10.7431671626
 21
10.4070349527
  0
LINE
  5
22D
100
AcDbEntity
  8
0
100
AcDbLine
 62
9
  6
CONTINUOUS
 10
10.7472128444
 20
10.4391242652
 11
10.7472128444
 21
10.4401247604
  0
LINE
  5
22E
100
AcDbEntity
  8
0
100
AcDbLine
 62
9
  6
CONTINUOUS
 10
10.7598589736
 20
10.4261220434
 11
10.7598589736
 21
10.4271310029
  0
LINE
  5
22F
100
AcDbEntity
  8
0
100
AcDbLine
 62
7
  6
CONTINUOUS
 10
10.7759834891
 20
10.4394543395
 11
10.7759834891
 21
10.4384534111
  0
LINE
  5
230
100
AcDbEntity
  8
0
100
AcDbLine
 62
7
  6
CONTINUOUS
 10
10.7759834891
 20
10.4204247122
 11
10.7759834891
 21
10.4157522833
  0
LINE
  5
231
100
AcDbEntity
  8
0
100
AcDbLine
 62
7
  6
CONTINUOUS
 10
10.7759834891
 20
10.427791786
 11
10.7759834891
 21
10.4267832605
  0
LINE
  5
232
100
AcDbEntity
  8
0
100
AcDbLine
 62
7
  6
CONTINUOUS
 10
10.7939834891
 20
10.4140889898
 11
10.7939834891
 21
10.4269135263
  0
LINE
  5
233
100
AcDbEntity
  8
0
100
AcDbLine
 62
7
  6
CONTINUOUS
 10
10.7939834891
 20
10.436055058
 11
10.7939834891
 21
10.4385826951
  0
LINE
  5
234
100
AcDbEntity
  8
0
100
AcDbLine
 62
7
  6
CONTINUOUS
 10
10.1162334891
 20
7.8856390468
 11
10.1251276664
 21
7.9006599308
  0
LINE
  5
235
100
AcDbEntity
  8
0
100
AcDbLine
 62
7
  6
CONTINUOUS
 10
9.5224834891
 20
7.8856390468
 11
9.5402718438
 21
7.9006599308
  0
LINE
  5
236
100
AcDbEntity
  8
0
100
AcDbLine
 62
7
  6
CONTINUOUS
 10
10.1326332199
 20
9.105891804
 11
11.2873337583
 21
9.105891804
  0
LINE
  5
237
100
AcDbEntity
  8
0
100
AcDbLine
 62
7
  6
CONTINUOUS
 10
10.9094834891
 20
9.225891804
 11
10.9094834891
 21
9.245891804
  0
LINE
  5
238
100
AcDbEntity
  8
0
100
AcDbLine
 62
7
  6
CONTINUOUS
 10
11.1399834891
 20
9.225891804
 11
10.2799834891
 21
9.225891804
  0
LINE
  5
239
100
AcDbEntity
  8
0
100
AcDbLine
 62
7
  6
CONTINUOUS
 10
10.3664834891
 20
9.245891804
 11
11.0534834891
 21
9.245891804
  0
LINE
  5
23A
100
AcDbEntity
  8
0
100
AcDbLine
 62
7
  6
CONTINUOUS
 10
11.0534834891
 20
9.604891804
 11
11.0534834891
 21
9.245891804
  0
LINE
  5
23B
100
AcDbEntity
  8
0
100
AcDbLine
 62
7
  6
CONTINUOUS
 10
9.7673062662
 20
10.1076790997
 11
9.6852170091
 21
10.1651586162
  0
LINE
  5
23C
100
AcDbEntity
  8
0
100
AcDbLine
 62
7
  6
CONTINUOUS
 10
11.0422543311
 20
8.7130836538
 11
10.9986586237
 21
9.105891804
  0
LINE
  5
23D
100
AcDbEntity
  8
0
100
AcDbLine
 62
7
  6
CONTINUOUS
 10
11.1399834891
 20
9.225891804
 11
11.1399834891
 21
9.105891804
  0
LINE
  5
23E
100
AcDbEntity
  8
0
100
AcDbLine
 62
9
  6
CONTINUOUS
 10
11.2189894653
 20
9.8441866156
 11
11.2189894653
 21
10.0355989119
  0
LINE
  5
23F
100
AcDbEntity
  8
0
100
AcDbLine
 62
7
  6
CONTINUOUS
 10
11.2374834891
 20
10.3271759012
 11
11.2374834891
 21
10.255891804
  0
LINE
  5
240
100
AcDbEntity
  8
0
100
AcDbLine
 62
9
  6
CONTINUOUS
 10
11.241149499
 20
10.0946289806
 11
11.241149499
 21
9.7851582829
  0
LINE
  5
241
100
AcDbEntity
  8
0
100
AcDbLine
 62
7
  6
CONTINUOUS
 10
10.1824834891
 20
9.655891804
 11
10.3394834891
 21
9.604891804
  0
LINE
  5
242
100
AcDbEntity
  8
0
100
AcDbLine
 62
7
  6
CONTINUOUS
 10
10.3394834891
 20
9.604891804
 11
11.0804834891
 21
9.604891804
  0
LINE
  5
243
100
AcDbEntity
  8
0
100
AcDbLine
 62
7
  6
CONTINUOUS
 10
11.2374834891
 20
9.655891804
 11
10.1824834891
 21
9.655891804
  0
LINE
  5
244
100
AcDbEntity
  8
0
100
AcDbLine
 62
7
  6
CONTINUOUS
 10
11.3745251731
 20
8.7130836538
 11
11.2873337583
 21
9.105891804
  0
LINE
  5
245
100
AcDbEntity
  8
0
100
AcDbLine
 62
7
  6
CONTINUOUS
 10
10.1524834891
 20
9.734891804
 11
10.526846813
 21
9.734891804
  0
LINE
  5
246
100
AcDbEntity
  8
0
100
AcDbLine
 62
7
  6
CONTINUOUS
 10
10.8931201653
 20
9.734891804
 11
11.2674834891
 21
9.734891804
  0
LINE
  5
247
100
AcDbEntity
  8
0
100
AcDbLine
 62
7
  6
CONTINUOUS
 10
10.1824834891
 20
10.255891804
 11
10.2093302767
 21
10.240391804
  0
LINE
  5
248
100
AcDbEntity
  8
0
100
AcDbLine
 62
9
  6
CONTINUOUS
 10
11.6026203305
 20
10.1308090973
 11
11.6026203305
 21
9.7489745108
  0
LINE
  5
249
100
AcDbEntity
  8
0
100
AcDbLine
 62
7
  6
CONTINUOUS
 10
11.6274834891
 20
9.7508009143
 11
11.6274834891
 21
10.1289826937
  0
LINE
  5
24A
100
AcDbEntity
  8
0
100
AcDbLine
 62
9
  6
CONTINUOUS
 10
11.6526607121
 20
10.1076790997
 11
11.6526607121
 21
9.7721045084
  0
LINE
  5
24B
100
AcDbEntity
  8
0
100
AcDbLine
 62
9
  6
CONTINUOUS
 10
11.7347499691
 20
9.7146249919
 11
11.7347499691
 21
10.1651586162
  0
LINE
  5
24C
100
AcDbEntity
  8
0
100
AcDbLine
 62
7
  6
CONTINUOUS
 10
11.8974834891
 20
7.578891804
 11
11.8974834891
 21
7.8856390468
  0
LINE
  5
24D
100
AcDbEntity
  8
0
100
AcDbLine
 62
7
  6
CONTINUOUS
 10
11.2674834891
 20
10.144891804
 11
10.8931201653
 21
10.144891804
  0
LINE
  5
24E
100
AcDbEntity
  8
0
100
AcDbLine
 62
7
  6
CONTINUOUS
 10
10.526846813
 20
10.144891804
 11
10.1524834891
 21
10.144891804
  0
LINE
  5
24F
100
AcDbEntity
  8
0
100
AcDbLine
 62
7
  6
CONTINUOUS
 10
10.1824834891
 20
10.224891804
 11
11.2374834891
 21
10.224891804
  0
LINE
  5
250
100
AcDbEntity
  8
0
100
AcDbLine
 62
7
  6
CONTINUOUS
 10
11.2106367016
 20
10.240391804
 11
10.2093302767
 21
10.240391804
  0
LINE
  5
251
100
AcDbEntity
  8
0
100
AcDbLine
 62
7
  6
CONTINUOUS
 10
11.6526607121
 20
9.7721045084
 11
11.7347499691
 21
9.7146249919
  0
LINE
  5
252
100
AcDbEntity
  8
0
100
AcDbLine
 62
7
  6
CONTINUOUS
 10
11.2374834891
 20
10.3271759012
 11
11.2232176414
 21
10.3468111561
  0
LINE
  5
253
100
AcDbEntity
  8
0
100
AcDbLine
 62
7
  6
CONTINUOUS
 10
10.1824834891
 20
10.255891804
 11
11.2374834891
 21
10.255891804
  0
LINE
  5
254
100
AcDbEntity
  8
0
100
AcDbLine
 62
7
  6
CONTINUOUS
 10
11.2374834891
 20
10.3271759012
 11
10.1824834891
 21
10.3271759012
  0
LINE
  5
255
100
AcDbEntity
  8
0
100
AcDbLine
 62
7
  6
CONTINUOUS
 10
11.2232176414
 20
10.3468111561
 11
10.1967493369
 21
10.3468111561
  0
LINE
  5
256
100
AcDbEntity
  8
0
100
AcDbLine
 62
7
  6
CONTINUOUS
 10
11.1644934452
 20
10.365891804
 11
10.255473533
 21
10.365891804
  0
LINE
  5
257
100
AcDbEntity
  8
0
100
AcDbLine
 62
9
  6
CONTINUOUS
 10
11.1051281457
 20
10.3897010973
 11
10.3148391374
 21
10.3897011776
  0
LINE
  5
258
100
AcDbEntity
  8
0
100
AcDbLine
 62
7
  6
CONTINUOUS
 10
11.2106367016
 20
10.240391804
 11
11.2374834891
 21
10.224891804
  0
LINE
  5
259
100
AcDbEntity
  8
0
100
AcDbLine
 62
7
  6
CONTINUOUS
 10
11.1644934452
 20
10.365891804
 11
11.2232176414
 21
10.3468111561
  0
ARC
  5
25A
100
AcDbEntity
  8
0
100
AcDbCircle
 62
7
  6
CONTINUOUS
 10
10.7099833124
 20
8.8902234031
 40
1.5506683936
100
AcDbArc
 50
93.1703046282
 51
104.7630402845
  0
ARC
  5
25B
100
AcDbEntity
  8
0
100
AcDbCircle
 62
7
  6
CONTINUOUS
 10
10.6801513489
 20
8.9365379162
 40
1.4948058603
100
AcDbArc
 50
90.7364849996
 51
92.1150596312
  0
ARC
  5
25C
100
AcDbEntity
  8
0
100
AcDbCircle
 62
7
  6
CONTINUOUS
 10
10.6801476287
 20
8.9367678193
 40
1.4945759289
100
AcDbArc
 50
90.0446282373
 51
90.6870356504
  0
ARC
  5
25D
100
AcDbEntity
  8
0
100
AcDbCircle
 62
7
  6
CONTINUOUS
 10
9.9797041983
 20
9.70759957
 40
1.3599999999
100
AcDbArc
 50
18.7559867835
 51
22.3561036557
  0
ARC
  5
25E
100
AcDbEntity
  8
0
100
AcDbCircle
 62
7
  6
CONTINUOUS
 10
10.6319671956
 20
9.3032531902
 40
1.1303053685
100
AcDbArc
 50
87.3533062458
 51
88.094794728
  0
ARC
  5
25F
100
AcDbEntity
  8
0
100
AcDbCircle
 62
7
  6
CONTINUOUS
 10
10.6319800943
 20
9.3036229462
 40
1.129935388
100
AcDbArc
 50
88.0948250857
 51
88.4664196663
  0
ARC
  5
260
100
AcDbEntity
  8
0
100
AcDbCircle
 62
7
  6
CONTINUOUS
 10
10.6319725346
 20
9.3031264669
 40
1.1294272379
100
AcDbArc
 50
87.7228182515
 51
88.094092799
  0
ARC
  5
261
100
AcDbEntity
  8
0
100
AcDbCircle
 62
7
  6
CONTINUOUS
 10
10.6319790303
 20
9.3033205402
 40
1.1292330558
100
AcDbArc
 50
88.0940947043
 51
88.4654116116
  0
ARC
  5
262
100
AcDbEntity
  8
0
100
AcDbCircle
 62
7
  6
CONTINUOUS
 10
9.5274834891
 20
9.939891804
 40
0.275
100
AcDbArc
 50
54.9999999999
 51
305.0000000001
  0
ARC
  5
263
100
AcDbEntity
  8
0
100
AcDbCircle
 62
7
  6
CONTINUOUS
 10
10.0001075302
 20
9.578391804
 40
0.25
100
AcDbArc
 50
47.6936527728
 51
136.9739483152
  0
ARC
  5
264
100
AcDbEntity
  8
0
100
AcDbCircle
 62
7
  6
CONTINUOUS
 10
9.8056499512
 20
9.759891804
 40
0.016
100
AcDbArc
 50
214.6234510998
 51
316.9739483152
  0
ARC
  5
265
100
AcDbEntity
  8
0
100
AcDbCircle
 62
7
  6
CONTINUOUS
 10
9.7764834891
 20
9.7589980757
 40
0.016
100
AcDbArc
 50
0.0
 51
124.9999999998
  0
ARC
  5
266
100
AcDbEntity
  8
0
100
AcDbCircle
 62
7
  6
CONTINUOUS
 10
9.9816847083
 20
10.1779736196
 40
1.36
100
AcDbArc
 50
337.4255442891
 51
340.9862257999
  0
ARC
  5
267
100
AcDbEntity
  8
0
100
AcDbCircle
 62
7
  6
CONTINUOUS
 10
10.0001075302
 20
10.301391804
 40
0.25
100
AcDbArc
 50
223.0260516848
 51
312.3064745922
  0
ARC
  5
268
100
AcDbEntity
  8
0
100
AcDbCircle
 62
7
  6
CONTINUOUS
 10
10.6774325727
 20
10.5565237556
 40
0.1557667669
100
AcDbArc
 50
258.2700419895
 51
259.9605966945
  0
ARC
  5
269
100
AcDbEntity
  8
0
100
AcDbCircle
 62
7
  6
CONTINUOUS
 10
10.6608585419
 20
10.5675327163
 40
0.141320358
100
AcDbArc
 50
269.0883828006
 51
271.7231274477
  0
ARC
  5
26A
100
AcDbEntity
  8
0
100
AcDbCircle
 62
7
  6
CONTINUOUS
 10
10.3224834891
 20
10.3606914571
 40
0.03
100
AcDbArc
 50
104.7630312683
 51
170.0176441513
  0
ARC
  5
26B
100
AcDbEntity
  8
0
100
AcDbCircle
 62
7
  6
CONTINUOUS
 10
9.8056499512
 20
10.119891804
 40
0.016
100
AcDbArc
 50
43.0260516848
 51
145.3765489002
  0
ARC
  5
26C
100
AcDbEntity
  8
0
100
AcDbCircle
 62
7
  6
CONTINUOUS
 10
9.7764834891
 20
10.1207855324
 40
0.016
100
AcDbArc
 50
235.0000000002
 51
360.0
  0
ARC
  5
26D
100
AcDbEntity
  8
0
100
AcDbCircle
 62
7
  6
CONTINUOUS
 10
10.7099834891
 20
8.8902217886
 40
1.550637771
100
AcDbArc
 50
92.2545204889
 51
93.1423093317
  0
ARC
  5
26E
100
AcDbEntity
  8
0
100
AcDbCircle
 62
7
  6
CONTINUOUS
 10
10.7099834891
 20
8.8902217886
 40
1.550637771
100
AcDbArc
 50
75.2369687319
 51
87.5605752481
  0
ARC
  5
26F
100
AcDbEntity
  8
0
100
AcDbCircle
 62
7
  6
CONTINUOUS
 10
10.7099834891
 20
8.8902217886
 40
1.5503500401
100
AcDbArc
 50
88.6239946244
 51
91.1911755502
  0
ARC
  5
270
100
AcDbEntity
  8
0
100
AcDbCircle
 62
7
  6
CONTINUOUS
 10
10.7099834891
 20
8.8902217886
 40
1.5496377502
100
AcDbArc
 50
92.2559761406
 51
93.1443391817
  0
ARC
  5
271
100
AcDbEntity
  8
0
100
AcDbCircle
 62
7
  6
CONTINUOUS
 10
10.7099834891
 20
8.8902217886
 40
1.5496377502
100
AcDbArc
 50
86.8926895707
 51
87.5590000722
  0
ARC
  5
272
100
AcDbEntity
  8
0
100
AcDbCircle
 62
7
  6
CONTINUOUS
 10
10.7099834891
 20
8.8902217886
 40
1.5492001959
100
AcDbArc
 50
88.6229731319
 51
91.1920597897
  0
ARC
  5
273
100
AcDbEntity
  8
0
100
AcDbCircle
 62
7
  6
CONTINUOUS
 10
10.7099834891
 20
8.8902217886
 40
1.5481138514
100
AcDbArc
 50
86.889627857
 51
87.5565957966
  0
ARC
  5
274
100
AcDbEntity
  8
0
100
AcDbCircle
 62
7
  6
CONTINUOUS
 10
10.7099834891
 20
8.8902217886
 40
1.5389858664
100
AcDbArc
 50
92.2715987345
 51
93.1661244052
  0
ARC
  5
275
100
AcDbEntity
  8
0
100
AcDbCircle
 62
7
  6
CONTINUOUS
 10
10.7099834891
 20
8.8902217886
 40
1.5389858664
100
AcDbArc
 50
86.871161409
 51
87.5420946835
  0
ARC
  5
276
100
AcDbEntity
  8
0
100
AcDbCircle
 62
7
  6
CONTINUOUS
 10
10.7099834891
 20
8.8902217886
 40
1.5379782693
100
AcDbArc
 50
92.2730877396
 51
93.1682007883
  0
ARC
  5
277
100
AcDbEntity
  8
0
100
AcDbCircle
 62
7
  6
CONTINUOUS
 10
10.7099834891
 20
8.8902217886
 40
1.5379782693
100
AcDbArc
 50
86.8691095275
 51
87.5404834123
  0
ARC
  5
278
100
AcDbEntity
  8
0
100
AcDbCircle
 62
7
  6
CONTINUOUS
 10
10.7099834891
 20
8.8902217886
 40
1.5377182762
100
AcDbArc
 50
88.1413005928
 51
91.6723095547
  0
ARC
  5
279
100
AcDbEntity
  8
0
100
AcDbCircle
 62
7
  6
CONTINUOUS
 10
10.7099834891
 20
8.8902217886
 40
1.536709848
100
AcDbArc
 50
88.1400804383
 51
91.6734072789
  0
ARC
  5
27A
100
AcDbEntity
  8
0
100
AcDbCircle
 62
7
  6
CONTINUOUS
 10
10.7099834891
 20
8.8902217886
 40
1.5325626806
100
AcDbArc
 50
87.7562904206
 51
92.0566497773
  0
CIRCLE
  5
27B
100
AcDbEntity
  8
0
100
AcDbCircle
 62
7
  6
CONTINUOUS
 10
10.7099834891
 20
9.939891804
 40
0.275
  0
ARC
  5
27C
100
AcDbEntity
  8
0
100
AcDbCircle
 62
7
  6
CONTINUOUS
 10
11.4402627799
 20
9.70759957
 40
1.3599999999
100
AcDbArc
 50
157.6438963443
 51
161.2440132165
  0
ARC
  5
27D
100
AcDbEntity
  8
0
100
AcDbCircle
 62
7
  6
CONTINUOUS
 10
11.8924834891
 20
9.939891804
 40
0.275
100
AcDbArc
 50
234.9999999999
 51
125.0000000001
  0
ARC
  5
27E
100
AcDbEntity
  8
0
100
AcDbCircle
 62
7
  6
CONTINUOUS
 10
11.4198594481
 20
9.578391804
 40
0.25
100
AcDbArc
 50
43.0260516848
 51
132.3140445677
  0
ARC
  5
27F
100
AcDbEntity
  8
0
100
AcDbCircle
 62
7
  6
CONTINUOUS
 10
11.614317027
 20
9.759891804
 40
0.016
100
AcDbArc
 50
223.0260516848
 51
325.3765489002
  0
ARC
  5
280
100
AcDbEntity
  8
0
100
AcDbCircle
 62
7
  6
CONTINUOUS
 10
11.6434834891
 20
9.7589980757
 40
0.016
100
AcDbArc
 50
55.0000000002
 51
180.0
  0
ARC
  5
281
100
AcDbEntity
  8
0
100
AcDbCircle
 62
7
  6
CONTINUOUS
 10
11.4382854873
 20
10.1779748413
 40
1.3600034399
100
AcDbArc
 50
199.0137787036
 51
202.5744512054
  0
ARC
  5
282
100
AcDbEntity
  8
0
100
AcDbCircle
 62
7
  6
CONTINUOUS
 10
10.713530992
 20
11.0487800907
 40
0.6424300233
100
AcDbArc
 50
267.1688620693
 51
272.64407448
  0
ARC
  5
283
100
AcDbEntity
  8
0
100
AcDbCircle
 62
7
  6
CONTINUOUS
 10
10.7138183975
 20
11.0364967052
 40
0.6291250433
100
AcDbArc
 50
269.8784269149
 51
272.6738259785
  0
ARC
  5
284
100
AcDbEntity
  8
0
100
AcDbCircle
 62
7
  6
CONTINUOUS
 10
10.7128629828
 20
11.0243431184
 40
0.6169678994
100
AcDbArc
 50
267.1140456808
 51
269.7325895921
  0
ARC
  5
285
100
AcDbEntity
  8
0
100
AcDbCircle
 62
7
  6
CONTINUOUS
 10
10.764377641
 20
10.0071375377
 40
0.4327154787
100
AcDbArc
 50
100.6832116185
 51
101.3817332515
  0
ARC
  5
286
100
AcDbEntity
  8
0
100
AcDbCircle
 62
7
  6
CONTINUOUS
 10
11.4198594481
 20
10.301391804
 40
0.25
100
AcDbArc
 50
227.6858657852
 51
316.9739483152
  0
ARC
  5
287
100
AcDbEntity
  8
0
100
AcDbCircle
 62
7
  6
CONTINUOUS
 10
11.0974834891
 20
10.3606914571
 40
0.03
100
AcDbArc
 50
9.9823558487
 51
75.2369687317
  0
ARC
  5
288
100
AcDbEntity
  8
0
100
AcDbCircle
 62
7
  6
CONTINUOUS
 10
11.614317027
 20
10.119891804
 40
0.016
100
AcDbArc
 50
34.6234510998
 51
136.9739483152
  0
ARC
  5
289
100
AcDbEntity
  8
0
100
AcDbCircle
 62
7
  6
CONTINUOUS
 10
11.6434834891
 20
10.1207855324
 40
0.016
100
AcDbArc
 50
180.0
 51
304.9999999998
  0
SPLINE
  5
28A
100
AcDbEntity
  8
0
100
AcDbSpline
 62
7
  6
CONTINUOUS
 70
0
 71
3
 72
18
 73
14
 74
0
 42
0.0000001
 43
0.0000001
 44
0.0000000001
 40
0.0
 40
0.0
 40
0.0
 40
0.0
 40
0.1249738438
 40
0.2499855011
 40
0.3124923385
 40
0.3749938395
 40
0.4374972427
 40
0.5000057248
 40
0.6249949333
 40
0.7499844159
 40
0.8125013675
 40
0.8750281194
 40
1.0
 40
1.0
 40
1.0
 40
1.0
 10
9.5402718438
 20
7.9006599308
 30
0.0
 10
9.5712616324
 20
7.9268284006
 30
0.0
 10
9.6313863023
 20
7.9814273742
 30
0.0
 10
9.7012754367
 20
8.0550621655
 30
0.0
 10
9.7536674848
 20
8.1170488772
 30
0.0
 10
9.7911224167
 20
8.1650352106
 30
0.0
 10
9.8266475703
 20
8.214468944
 30
0.0
 10
9.8713199337
 20
8.2822241465
 30
0.0
 10
9.9219276628
 20
8.370255466
 30
0.0
 10
9.9649616322
 20
8.4622382438
 30
0.0
 10
9.9945399382
 20
8.5378299457
 30
0.0
 10
10.0207840682
 20
8.6146307121
 30
0.0
 10
10.0366526686
 20
8.6734875024
 30
0.0
 10
10.0454418051
 20
8.7130836538
 30
0.0
  0
SPLINE
  5
28B
100
AcDbEntity
  8
0
100
AcDbSpline
 62
7
  6
CONTINUOUS
 70
0
 71
3
 72
18
 73
14
 74
0
 42
0.0000001
 43
0.0000001
 44
0.0000000001
 40
0.0
 40
0.0
 40
0.0
 40
0.0
 40
0.1249738438
 40
0.2499855011
 40
0.3124923385
 40
0.3749938395
 40
0.4374972427
 40
0.5000057248
 40
0.6249949333
 40
0.7499844159
 40
0.8125013675
 40
0.8750281194
 40
1.0
 40
1.0
 40
1.0
 40
1.0
 10
11.8796951345
 20
7.9006599308
 30
0.0
 10
11.8487053459
 20
7.9268284006
 30
0.0
 10
11.788580676
 20
7.9814273742
 30
0.0
 10
11.7186915415
 20
8.0550621655
 30
0.0
 10
11.6662994934
 20
8.1170488772
 30
0.0
 10
11.6288445616
 20
8.1650352106
 30
0.0
 10
11.593319408
 20
8.214468944
 30
0.0
 10
11.5486470446
 20
8.2822241465
 30
0.0
 10
11.4980393155
 20
8.370255466
 30
0.0
 10
11.4550053461
 20
8.4622382438
 30
0.0
 10
11.4254270401
 20
8.5378299457
 30
0.0
 10
11.39918291
 20
8.6146307121
 30
0.0
 10
11.3833143097
 20
8.6734875024
 30
0.0
 10
11.3745251731
 20
8.7130836538
 30
0.0
  0
SPLINE
  5
28C
100
AcDbEntity
  8
0
100
AcDbSpline
 62
7
  6
CONTINUOUS
 70
0
 71
3
 72
11
 73
7
 74
0
 42
0.0000001
 43
0.0000001
 44
0.0000000001
 40
0.0
 40
0.0
 40
0.0
 40
0.0
 40
0.0833120659
 40
0.2831727021
 40
0.5920693306
 40
1.0
 40
1.0
 40
1.0
 40
1.0
 10
11.2674510441
 20
10.1448370492
 30
0.0
 10
11.2670606086
 20
10.1441778232
 30
0.0
 10
11.265744059
 20
10.1419309423
 30
0.0
 10
11.2630119793
 20
10.1372210194
 30
0.0
 10
11.2588701285
 20
10.1298781135
 30
0.0
 10
11.2557219792
 20
10.1240856182
 30
0.0
 10
11.2539638733
 20
10.1207715901
 30
0.0
  0
SPLINE
  5
28D
100
AcDbEntity
  8
0
100
AcDbSpline
 62
7
  6
CONTINUOUS
 70
0
 71
3
 72
16
 73
12
 74
0
 42
0.0000001
 43
0.0000001
 44
0.0000000001
 40
0.0
 40
0.0
 40
0.0
 40
0.0
 40
0.1873978002
 40
0.3016157351
 40
0.4268175022
 40
0.5611984389
 40
0.7029689847
 40
0.7760085546
 40
0.8501277656
 40
0.9249406869
 40
1.0
 40
1.0
 40
1.0
 40
1.0
 10
11.2539638733
 20
10.1207715901
 30
0.0
 10
11.2484162955
 20
10.110314411
 30
0.0
 10
11.2400032689
 20
10.0931992147
 30
0.0
 10
11.2295424943
 20
10.0683411753
 30
0.0
 10
11.2215102478
 20
10.0461232897
 30
0.0
 10
11.214358579
 20
10.0217813847
 30
0.0
 10
11.2096737136
 20
10.0002024147
 30
0.0
 10
11.2068726545
 20
9.9821629443
 30
0.0
 10
11.2053198425
 20
9.968222929
 30
0.0
 10
11.204367631
 20
9.9541016373
 30
0.0
 10
11.2041494532
 20
9.9446331636
 30
0.0
 10
11.2041494532
 20
9.939891804
 30
0.0
  0
SPLINE
  5
28E
100
AcDbEntity
  8
0
100
AcDbSpline
 62
7
  6
CONTINUOUS
 70
0
 71
3
 72
15
 73
11
 74
0
 42
0.0000001
 43
0.0000001
 44
0.0000000001
 40
0.0
 40
0.0
 40
0.0
 40
0.0
 40
0.0750939497
 40
0.1499260812
 40
0.2240498896
 40
0.2971058024
 40
0.4389126872
 40
0.5733413718
 40
0.8126956787
 40
1.0
 40
1.0
 40
1.0
 40
1.0
 10
10.2158175251
 20
9.939891804
 30
0.0
 10
10.2158175251
 20
9.9446379166
 30
0.0
 10
10.2155996276
 20
9.9541149077
 30
0.0
 10
10.2146471367
 20
9.9682476117
 30
0.0
 10
10.2130889821
 20
9.9821972347
 30
0.0
 10
10.2102845523
 20
10.0002497536
 30
0.0
 10
10.2055916839
 20
10.021846142
 30
0.0
 10
10.1963953725
 20
10.053130208
 30
0.0
 10
10.1834089056
 20
10.0862048848
 30
0.0
 10
10.1714985915
 20
10.1104192059
 30
0.0
 10
10.1659479782
 20
10.1208753324
 30
0.0
  0
SPLINE
  5
28F
100
AcDbEntity
  8
0
100
AcDbSpline
 62
7
  6
CONTINUOUS
 70
0
 71
3
 72
31
 73
27
 74
0
 42
0.0000001
 43
0.0000001
 44
0.0000000001
 40
0.0
 40
0.0
 40
0.0
 40
0.0
 40
0.2250737395
 40
0.424380295
 40
0.513883737
 40
0.5963766381
 40
0.6716762601
 40
0.7395993071
 40
0.7999619674
 40
0.8525807453
 40
0.8973137089
 40
0.9166977851
 40
0.9340811401
 40
0.9494544311
 40
0.9628083113
 40
0.9741334294
 40
0.9834204299
 40
0.9872967113
 40
0.9906599532
 40
0.9935089848
 40
0.9958426353
 40
0.9976597336
 40
0.9989591083
 40
0.9994142831
 40
0.9997395877
 40
1.0
 40
1.0
 40
1.0
 40
1.0
 10
10.1659479782
 20
10.1208753324
 30
0.0
 10
10.164979348
 20
10.1227000172
 30
0.0
 10
10.163134078
 20
10.12613049
 30
0.0
 10
10.1608594131
 20
10.1302625248
 30
0.0
 10
10.1591968023
 20
10.1332374772
 30
0.0
 10
10.1580816512
 20
10.1352144739
 30
0.0
 10
10.1570572448
 20
10.1370152244
 30
0.0
 10
10.1561279233
 20
10.1386363631
 30
0.0
 10
10.1552979955
 20
10.1400745138
 30
0.0
 10
10.1545716702
 20
10.1413266958
 30
0.0
 10
10.1540325676
 20
10.1422526562
 30
0.0
 10
10.1536553305
 20
10.1428986258
 30
0.0
 10
10.1534136462
 20
10.1433116909
 30
0.0
 10
10.1531996103
 20
10.1436768072
 30
0.0
 10
10.1530134361
 20
10.1439937988
 30
0.0
 10
10.1528553289
 20
10.1442624939
 30
0.0
 10
10.1527411915
 20
10.1444561165
 30
0.0
 10
10.1526640621
 20
10.1445867473
 30
0.0
 10
10.1526169828
 20
10.1446664506
 30
0.0
 10
10.1525769663
 20
10.1447340125
 30
0.0
 10
10.1525444708
 20
10.1447891653
 30
0.0
 10
10.152518369
 20
10.1448325437
 30
0.0
 10
10.152502894
 20
10.1448600305
 30
0.0
 10
10.1524914729
 20
10.1448774018
 30
0.0
 10
10.1524895401
 20
10.144883941
 30
0.0
 10
10.1524810989
 20
10.144891804
 30
0.0
 10
10.1524834891
 20
10.144891804
 30
0.0
  0
SPLINE
  5
290
100
AcDbEntity
  8
0
100
AcDbSpline
 62
7
  6
CONTINUOUS
 70
0
 71
3
 72
16
 73
12
 74
0
 42
0.0000001
 43
0.0000001
 44
0.0000000001
 40
0.0
 40
0.0
 40
0.0
 40
0.0
 40
0.0353591555
 40
0.0628055637
 40
0.0977824677
 40
0.1404487362
 40
0.1907606949
 40
0.312925287
 40
0.4604836622
 40
0.6289714488
 40
1.0
 40
1.0
 40
1.0
 40
1.0
 10
10.6489834891
 20
10.4206321869
 30
0.0
 10
10.6489834891
 20
10.4207056228
 30
0.0
 10
10.6490839562
 20
10.4208204191
 30
0.0
 10
10.6492516668
 20
10.4209252485
 30
0.0
 10
10.6494509409
 20
10.4210197333
 30
0.0
 10
10.6497000857
 20
10.4211109705
 30
0.0
 10
10.650128746
 20
10.421238784
 30
0.0
 10
10.6507783201
 20
10.4213821602
 30
0.0
 10
10.6516768744
 20
10.4215287926
 30
0.0
 10
10.6530942883
 20
10.4216960626
 30
0.0
 10
10.654213413
 20
10.4217695881
 30
0.0
 10
10.6549834891
 20
10.4217972421
 30
0.0
  0
SPLINE
  5
291
100
AcDbEntity
  8
0
100
AcDbSpline
 62
7
  6
CONTINUOUS
 70
0
 71
3
 72
16
 73
12
 74
0
 42
0.0000001
 43
0.0000001
 44
0.0000000001
 40
0.0
 40
0.0
 40
0.0
 40
0.0
 40
0.3709361432
 40
0.5393989652
 40
0.6869283919
 40
0.8090822336
 40
0.8594054891
 40
0.9020970901
 40
0.9371087549
 40
0.9645930518
 40
1.0
 40
1.0
 40
1.0
 40
1.0
 10
10.7699834891
 20
10.4216095154
 30
0.0
 10
10.7707537037
 20
10.4215793383
 30
0.0
 10
10.7718729524
 20
10.4215020969
 30
0.0
 10
10.7732902991
 20
10.4213302103
 30
0.0
 10
10.7741887456
 20
10.4211806603
 30
0.0
 10
10.7748381615
 20
10.421035163
 30
0.0
 10
10.7752667158
 20
10.42090595
 30
0.0
 10
10.7755158652
 20
10.420813879
 30
0.0
 10
10.7757151874
 20
10.4207187348
 30
0.0
 10
10.7758829304
 20
10.4206133026
 30
0.0
 10
10.7759834891
 20
10.4204982878
 30
0.0
 10
10.7759834891
 20
10.4204247122
 30
0.0
  0
SPLINE
  5
292
100
AcDbEntity
  8
0
100
AcDbSpline
 62
7
  6
CONTINUOUS
 70
0
 71
3
 72
16
 73
12
 74
0
 42
0.0000001
 43
0.0000001
 44
0.0000000001
 40
0.0
 40
0.0
 40
0.0
 40
0.0
 40
0.0750881735
 40
0.1499142366
 40
0.2240318074
 40
0.2970818938
 40
0.4388776409
 40
0.5732961614
 40
0.6984996189
 40
0.8127101644
 40
1.0
 40
1.0
 40
1.0
 40
1.0
 10
10.2158175251
 20
9.939891804
 30
0.0
 10
10.2158175251
 20
9.9351456566
 30
0.0
 10
10.2155996255
 20
9.925668616
 30
0.0
 10
10.2146470973
 20
9.9115358597
 30
0.0
 10
10.2130888166
 20
9.8975862238
 30
0.0
 10
10.2102842744
 20
9.8795336006
 30
0.0
 10
10.2055914691
 20
9.8579374134
 30
0.0
 10
10.1984296104
 20
9.8335777372
 30
0.0
 10
10.1903872208
 20
9.8113456625
 30
0.0
 10
10.1799173589
 20
9.7864809444
 30
0.0
 10
10.1714980051
 20
9.7693636896
 30
0.0
 10
10.1659474006
 20
9.7589074654
 30
0.0
  0
SPLINE
  5
293
100
AcDbEntity
  8
0
100
AcDbSpline
 62
7
  6
CONTINUOUS
 70
0
 71
3
 72
11
 73
7
 74
0
 42
0.0000001
 43
0.0000001
 44
0.0000000001
 40
0.0
 40
0.0
 40
0.0
 40
0.0
 40
0.4118476895
 40
0.722293546
 40
0.920827869
 40
1.0
 40
1.0
 40
1.0
 40
1.0
 10
10.1659474006
 20
9.7589074654
 30
0.0
 10
10.1641773693
 20
9.7555730817
 30
0.0
 10
10.1610151047
 20
9.7497558851
 30
0.0
 10
10.1568647127
 20
9.7424060484
 30
0.0
 10
10.1541592263
 20
9.7377429105
 30
0.0
 10
10.1528720657
 20
9.7355468004
 30
0.0
 10
10.1525018087
 20
9.7349226546
 30
0.0
  0
SPLINE
  5
294
100
AcDbEntity
  8
0
100
AcDbSpline
 62
7
  6
CONTINUOUS
 70
0
 71
3
 72
17
 73
13
 74
0
 42
0.0000001
 43
0.0000001
 44
0.0000000001
 40
0.0
 40
0.0
 40
0.0
 40
0.0
 40
0.028415571
 40
0.0585069258
 40
0.0916256847
 40
0.1287739662
 40
0.217605097
 40
0.3283711001
 40
0.4621314902
 40
0.6190154321
 40
0.7986314533
 40
1.0
 40
1.0
 40
1.0
 40
1.0
 10
10.6249834891
 20
10.4140335377
 30
0.0
 10
10.6249834891
 20
10.4138055883
 30
0.0
 10
10.6250441917
 20
10.4133344556
 30
0.0
 10
10.6253097911
 20
10.4126430982
 30
0.0
 10
10.6257441422
 20
10.4119600595
 30
0.0
 10
10.626595151
 20
10.4110032996
 30
0.0
 10
10.6281205384
 20
10.4098467876
 30
0.0
 10
10.6304764351
 20
10.4085713431
 30
0.0
 10
10.6334538943
 20
10.4073334037
 30
0.0
 10
10.6370361049
 20
10.4061433772
 30
0.0
 10
10.6412015818
 20
10.4050116236
 30
0.0
 10
10.6441837551
 20
10.4043387788
 30
0.0
 10
10.6457653027
 20
10.4040099212
 30
0.0
  0
SPLINE
  5
295
100
AcDbEntity
  8
0
100
AcDbSpline
 62
7
  6
CONTINUOUS
 70
0
 71
3
 72
12
 73
8
 74
0
 42
0.0000001
 43
0.0000001
 44
0.0000000001
 40
0.0
 40
0.0
 40
0.0
 40
0.0
 40
0.1038265186
 40
0.2158083319
 40
0.4603349134
 40
0.7251452841
 40
1.0
 40
1.0
 40
1.0
 40
1.0
 10
10.6502784678
 20
10.403142074
 30
0.0
 10
10.6523121285
 20
10.4027803757
 30
0.0
 10
10.6565523735
 20
10.4021016834
 30
0.0
 10
10.6656333296
 20
10.4009085084
 30
0.0
 10
10.6779456486
 20
10.3997623852
 30
0.0
 10
10.6935280444
 20
10.3989369012
 30
0.0
 10
10.7042655883
 20
10.3987532877
 30
0.0
 10
10.7097336805
 20
10.3987571411
 30
0.0
  0
SPLINE
  5
296
100
AcDbEntity
  8
0
100
AcDbSpline
 62
7
  6
CONTINUOUS
 70
0
 71
3
 72
25
 73
21
 74
0
 42
0.0000001
 43
0.0000001
 44
0.0000000001
 40
0.0
 40
0.0
 40
0.0
 40
0.0
 40
0.0010395208
 40
0.0023372468
 40
0.0041521812
 40
0.0093293705
 40
0.0165624818
 40
0.0258429113
 40
0.037162059
 40
0.0505113283
 40
0.065882126
 40
0.1026539498
 40
0.1474088148
 40
0.2000518041
 40
0.2604178513
 40
0.328330608
 40
0.4036141638
 40
0.575592138
 40
0.7749204845
 40
1.0
 40
1.0
 40
1.0
 40
1.0
 10
11.2674834948
 20
9.734891804
 30
0.0
 10
11.2674768683
 20
9.7348987237
 30
0.0
 10
11.2674686202
 20
9.734919333
 30
0.0
 10
11.2674477004
 20
9.734951183
 30
0.0
 10
11.2674095884
 20
9.7350175439
 30
0.0
 10
11.2673422766
 20
9.7351299538
 30
0.0
 10
11.2672409636
 20
9.7353023422
 30
0.0
 10
11.2671106444
 20
9.7355232747
 30
0.0
 10
11.2669520653
 20
9.7357930089
 30
0.0
 10
11.2667652142
 20
9.7361112263
 30
0.0
 10
11.2664600036
 20
9.7366319843
 30
0.0
 10
11.26600935
 20
9.7374029976
 30
0.0
 10
11.2653869462
 20
9.7384715183
 30
0.0
 10
11.2646571632
 20
9.7397291474
 30
0.0
 10
11.2638238191
 20
9.7411734444
 30
0.0
 10
11.2628909664
 20
9.7428012282
 30
0.0
 10
11.261455005
 20
9.7453262926
 30
0.0
 10
11.259440592
 20
9.7489157167
 30
0.0
 10
11.2567895209
 20
9.7537308116
 30
0.0
 10
11.2549373449
 20
9.757176168
 30
0.0
 10
11.2539651436
 20
9.7590086961
 30
0.0
  0
SPLINE
  5
297
100
AcDbEntity
  8
0
100
AcDbSpline
 62
7
  6
CONTINUOUS
 70
0
 71
3
 72
16
 73
12
 74
0
 42
0.0000001
 43
0.0000001
 44
0.0000000001
 40
0.0
 40
0.0
 40
0.0
 40
0.0
 40
0.1873930282
 40
0.3016110666
 40
0.4268134124
 40
0.5611954074
 40
0.7029669859
 40
0.7760069616
 40
0.8501263088
 40
0.924939766
 40
1.0
 40
1.0
 40
1.0
 40
1.0
 10
11.2539651436
 20
9.7590086961
 30
0.0
 10
11.2484174372
 20
9.7694657157
 30
0.0
 10
11.2400055754
 20
9.7865815449
 30
0.0
 10
11.2295436483
 20
9.8114393303
 30
0.0
 10
11.2215106136
 20
9.8336575435
 30
0.0
 10
11.2143591204
 20
9.8580001752
 30
0.0
 10
11.2096741027
 20
9.8795796839
 30
0.0
 10
11.2068728616
 20
9.8976195711
 30
0.0
 10
11.205319873
 20
9.911559899
 30
0.0
 10
11.2043676303
 20
9.9256815557
 30
0.0
 10
11.2041494532
 20
9.9351502979
 30
0.0
 10
11.2041494532
 20
9.939891804
 30
0.0
  0
SPLINE
  5
298
100
AcDbEntity
  8
0
100
AcDbSpline
 62
7
  6
CONTINUOUS
 70
0
 71
3
 72
13
 73
9
 74
0
 42
0.0000001
 43
0.0000001
 44
0.0000000001
 40
0.0
 40
0.0
 40
0.0
 40
0.0
 40
0.1046132409
 40
0.1887968267
 40
0.2981375085
 40
0.4336368485
 40
0.5957092183
 40
1.0
 40
1.0
 40
1.0
 40
1.0
 10
10.6477541339
 20
10.436572047
 30
0.0
 10
10.6477541339
 20
10.4366353862
 30
0.0
 10
10.6478474717
 20
10.4367334026
 30
0.0
 10
10.6479990726
 20
10.4368208119
 30
0.0
 10
10.6481833571
 20
10.4369023044
 30
0.0
 10
10.6484157106
 20
10.4369825806
 30
0.0
 10
10.6488244485
 20
10.4371004753
 30
0.0
 10
10.6491593392
 20
10.4371750207
 30
0.0
 10
10.6493992083
 20
10.4372238164
 30
0.0
  0
SPLINE
  5
299
100
AcDbEntity
  8
0
100
AcDbSpline
 62
7
  6
CONTINUOUS
 70
0
 71
3
 72
14
 73
10
 74
0
 42
0.0000001
 43
0.0000001
 44
0.0000000001
 40
0.0
 40
0.0
 40
0.0
 40
0.0
 40
0.065928237
 40
0.1538217349
 40
0.2617995505
 40
0.3872492911
 40
0.5272293378
 40
0.6784720525
 40
1.0
 40
1.0
 40
1.0
 40
1.0
 10
10.6493992083
 20
10.4372238164
 30
0.0
 10
10.6500115892
 20
10.4373483908
 30
0.0
 10
10.651453463
 20
10.4375725092
 30
0.0
 10
10.6539182925
 20
10.4378606595
 30
0.0
 10
10.6569519507
 20
10.4381357093
 30
0.0
 10
10.6604822451
 20
10.43839184
 30
0.0
 10
10.6644253087
 20
10.4386207908
 30
0.0
 10
10.6702274016
 20
10.4388881545
 30
0.0
 10
10.6747070813
 20
10.4390235093
 30
0.0
 10
10.6777541339
 20
10.4390869343
 30
0.0
  0
LINE
  5
29A
100
AcDbEntity
  8
0
100
AcDbLine
 62
7
  6
CONTINUOUS
 10
10.6609375117
 20
10.4312202866
 11
10.6622265471
 21
10.4312363007
  0
SPLINE
  5
29B
100
AcDbEntity
  8
0
100
AcDbSpline
 62
7
  6
CONTINUOUS
 70
0
 71
3
 72
11
 73
7
 74
0
 42
0.0000001
 43
0.0000001
 44
0.0000000001
 40
0.0
 40
0.0
 40
0.0
 40
0.0
 40
0.2607438838
 40
0.5174767553
 40
0.7652202504
 40
1.0
 40
1.0
 40
1.0
 40
1.0
 10
10.7097336805
 20
10.3987571411
 30
0.0
 10
10.7133829486
 20
10.3987597125
 30
0.0
 10
10.7206255694
 20
10.3988538631
 30
0.0
 10
10.7313290165
 20
10.3992489164
 30
0.0
 10
10.7416567444
 20
10.3998866131
 30
0.0
 10
10.7483845954
 20
10.400484121
 30
0.0
 10
10.7516525447
 20
10.4008269745
 30
0.0
  0
SPLINE
  5
29C
100
AcDbEntity
  8
0
100
AcDbSpline
 62
7
  6
CONTINUOUS
 70
0
 71
3
 72
9
 73
5
 74
0
 42
0.0000001
 43
0.0000001
 44
0.0000000001
 40
0.0
 40
0.0
 40
0.0
 40
0.0
 40
0.5236437812
 40
1.0
 40
1.0
 40
1.0
 40
1.0
 10
10.7516525447
 20
10.4008269745
 30
0.0
 10
10.7546702045
 20
10.4011435692
 30
0.0
 10
10.7604245374
 20
10.4018331405
 30
0.0
 10
10.7661516567
 20
10.4027255234
 30
0.0
 10
10.7688684124
 20
10.4032134129
 30
0.0
  0
LINE
  5
29D
100
AcDbEntity
  8
0
100
AcDbLine
 62
7
  6
CONTINUOUS
 10
10.7688684124
 20
10.4032134129
 11
10.7788834875
 21
10.4053758668
  0
SPLINE
  5
29E
100
AcDbEntity
  8
0
100
AcDbSpline
 62
7
  6
CONTINUOUS
 70
0
 71
3
 72
16
 73
12
 74
0
 42
0.0000001
 43
0.0000001
 44
0.0000000001
 40
0.0
 40
0.0
 40
0.0
 40
0.0
 40
0.1974532565
 40
0.3732925437
 40
0.5272100696
 40
0.6592302101
 40
0.7698649043
 40
0.8607047555
 40
0.9351750331
 40
0.9682752027
 40
1.0
 40
1.0
 40
1.0
 40
1.0
 10
10.7788834875
 20
10.4053758668
 30
0.0
 10
10.7800447781
 20
10.4056790459
 30
0.0
 10
10.7822301074
 20
10.406292738
 30
0.0
 10
10.7852715251
 20
10.4073071133
 30
0.0
 10
10.7878771946
 20
10.4083568092
 30
0.0
 10
10.79003675
 20
10.4094353008
 30
0.0
 10
10.7917431376
 20
10.4105411325
 30
0.0
 10
10.7929938827
 20
10.4116720627
 30
0.0
 10
10.7936784964
 20
10.412690613
 30
0.0
 10
10.7939406872
 20
10.4135009798
 30
0.0
 10
10.7939834891
 20
10.4138961515
 30
0.0
 10
10.7939834891
 20
10.4140889898
 30
0.0
  0
SPLINE
  5
29F
100
AcDbEntity
  8
0
100
AcDbSpline
 62
7
  6
CONTINUOUS
 70
0
 71
3
 72
15
 73
11
 74
0
 42
0.0000001
 43
0.0000001
 44
0.0000000001
 40
0.0
 40
0.0
 40
0.0
 40
0.0
 40
0.3281559851
 40
0.4816580161
 40
0.622868025
 40
0.7481964959
 40
0.8544916933
 40
0.9391329829
 40
0.9726546099
 40
1.0
 40
1.0
 40
1.0
 40
1.0
 10
10.7472128444
 20
10.438974667
 30
0.0
 10
10.7503697224
 20
10.4388987643
 30
0.0
 10
10.7550024512
 20
10.438742546
 30
0.0
 10
10.760988748
 20
10.4384414435
 30
0.0
 10
10.7650228401
 20
10.4381871727
 30
0.0
 10
10.7685998343
 20
10.4379071986
 30
0.0
 10
10.7716286857
 20
10.4376088142
 30
0.0
 10
10.7737721204
 20
10.4373368476
 30
0.0
 10
10.7751533164
 20
10.4371060757
 30
0.0
 10
10.7757274668
 20
10.4369889253
 30
0.0
 10
10.7759834891
 20
10.4369281365
 30
0.0
  0
LINE
  5
2A0
100
AcDbEntity
  8
0
100
AcDbLine
 62
7
  6
CONTINUOUS
 10
10.6799197418
 20
10.431535503
 11
10.6768490345
 21
10.4316617943
  0
SPLINE
  5
2A1
100
AcDbEntity
  8
0
100
AcDbSpline
 62
7
  6
CONTINUOUS
 70
0
 71
3
 72
15
 73
11
 74
0
 42
0.0000001
 43
0.0000001
 44
0.0000000001
 40
0.0
 40
0.0
 40
0.0
 40
0.0
 40
0.1090055239
 40
0.2230764863
 40
0.3420583159
 40
0.4657743934
 40
0.59390955
 40
0.7260376329
 40
0.8616431605
 40
1.0
 40
1.0
 40
1.0
 40
1.0
 10
11.2948393118
 20
7.9006599308
 30
0.0
 10
11.2789760621
 20
7.9274504957
 30
0.0
 10
11.2483010373
 20
7.9833525083
 30
0.0
 10
11.2065040743
 20
8.0717190836
 30
0.0
 10
11.1682216957
 20
8.1662147225
 30
0.0
 10
11.1338045945
 20
8.2664386251
 30
0.0
 10
11.1035835981
 20
8.3719161931
 30
0.0
 10
11.0778928028
 20
8.4820766397
 30
0.0
 10
11.0570386742
 20
8.5962192816
 30
0.0
 10
11.0466134964
 20
8.6738064919
 30
0.0
 10
11.0422543311
 20
8.7130836538
 30
0.0
  0
LINE
  5
2A2
100
AcDbEntity
  8
0
100
AcDbLine
 62
7
  6
CONTINUOUS
 10
10.6489834891
 20
10.4386584613
 11
10.6531645148
 21
10.4387370836
  0
LINE
  5
2A3
100
AcDbEntity
  8
0
100
AcDbLine
 62
7
  6
CONTINUOUS
 10
10.6531645148
 20
10.4387370836
 11
10.6777541339
 21
10.4392363708
  0
SPLINE
  5
2A4
100
AcDbEntity
  8
0
100
AcDbSpline
 62
7
  6
CONTINUOUS
 70
0
 71
3
 72
14
 73
10
 74
0
 42
0.0000001
 43
0.0000001
 44
0.0000000001
 40
0.0
 40
0.0
 40
0.0
 40
0.0
 40
0.0523164085
 40
0.1175632717
 40
0.2030624983
 40
0.311967013
 40
0.4456533144
 40
0.6047464348
 40
1.0
 40
1.0
 40
1.0
 40
1.0
 10
10.6477541339
 20
10.4338676799
 30
0.0
 10
10.6477541339
 20
10.4338327063
 30
0.0
 10
10.6477793574
 20
10.4337539095
 30
0.0
 10
10.6478736935
 20
10.4336532462
 30
0.0
 10
10.6480185813
 20
10.4335563348
 30
0.0
 10
10.6482168319
 20
10.4334613431
 30
0.0
 10
10.6484687567
 20
10.433367738
 30
0.0
 10
10.6489095207
 20
10.4332355139
 30
0.0
 10
10.6492717872
 20
10.4331551756
 30
0.0
 10
10.6495309806
 20
10.433103842
 30
0.0
  0
SPLINE
  5
2A5
100
AcDbEntity
  8
0
100
AcDbSpline
 62
7
  6
CONTINUOUS
 70
0
 71
3
 72
12
 73
8
 74
0
 42
0.0000001
 43
0.0000001
 44
0.0000000001
 40
0.0
 40
0.0
 40
0.0
 40
0.0
 40
0.0768894551
 40
0.1689544506
 40
0.3963331083
 40
0.6765000447
 40
1.0
 40
1.0
 40
1.0
 40
1.0
 10
10.6495309806
 20
10.433103842
 30
0.0
 10
10.6498511718
 20
10.4330404276
 30
0.0
 10
10.6505589164
 20
10.4329221959
 30
0.0
 10
10.6522275563
 20
10.4327051005
 30
0.0
 10
10.6547639472
 20
10.432479934
 30
0.0
 10
10.6582862262
 20
10.4322759666
 30
0.0
 10
10.660847537
 20
10.4321852514
 30
0.0
 10
10.6622203634
 20
10.4321484734
 30
0.0
  0
LINE
  5
2A6
100
AcDbEntity
  8
0
100
AcDbLine
 62
7
  6
CONTINUOUS
 10
10.7472128444
 20
10.4391242717
 11
10.7651713082
 21
10.4386983402
  0
LINE
  5
2A7
100
AcDbEntity
  8
0
100
AcDbLine
 62
7
  6
CONTINUOUS
 10
10.7651713082
 20
10.4386983402
 11
10.7759834891
 21
10.438453403
  0
SPLINE
  5
2A8
100
AcDbEntity
  8
0
100
AcDbSpline
 62
7
  6
CONTINUOUS
 70
0
 71
3
 72
19
 73
15
 74
0
 42
0.0000001
 43
0.0000001
 44
0.0000000001
 40
0.0
 40
0.0
 40
0.0
 40
0.0
 40
0.2001139794
 40
0.3852489075
 40
0.5503622953
 40
0.6920943294
 40
0.7533501218
 40
0.8078932449
 40
0.8555874909
 40
0.8963769697
 40
0.9303907733
 40
0.9581331012
 40
0.9806574972
 40
1.0
 40
1.0
 40
1.0
 40
1.0
 10
10.6817998157
 20
10.4081576605
 30
0.0
 10
10.6794862405
 20
10.4082751398
 30
0.0
 10
10.675035326
 20
10.4085686733
 30
0.0
 10
10.6686945104
 20
10.4092048247
 30
0.0
 10
10.6630547577
 20
10.4100101514
 30
0.0
 10
10.6588702378
 20
10.4108325212
 30
0.0
 10
10.6559829297
 20
10.4115783196
 30
0.0
 10
10.6541738698
 20
10.412137426
 30
0.0
 10
10.6526226435
 20
10.4127198456
 30
0.0
 10
10.6513368207
 20
10.4133224528
 30
0.0
 10
10.6503212472
 20
10.4139436763
 30
0.0
 10
10.649576643
 20
10.4145830989
 30
0.0
 10
10.6491016962
 20
10.4152487819
 30
0.0
 10
10.6489834891
 20
10.4157364811
 30
0.0
 10
10.6489834891
 20
10.4159603934
 30
0.0
  0
LINE
  5
2A9
100
AcDbEntity
  8
0
100
AcDbLine
 62
7
  6
CONTINUOUS
 10
10.7124834891
 20
10.4073730782
 11
10.7099834856
 21
10.4073819386
  0
SPLINE
  5
2AA
100
AcDbEntity
  8
0
100
AcDbSpline
 62
7
  6
CONTINUOUS
 70
0
 71
3
 72
12
 73
8
 74
0
 42
0.0000001
 43
0.0000001
 44
0.0000000001
 40
0.0
 40
0.0
 40
0.0
 40
0.0
 40
0.3053007332
 40
0.5875644164
 40
0.8248276558
 40
0.921139577
 40
1.0
 40
1.0
 40
1.0
 40
1.0
 10
10.6651080046
 20
10.427285121
 30
0.0
 10
10.6634636225
 20
10.4272371122
 30
0.0
 10
10.6602971067
 20
10.4271953155
 30
0.0
 10
10.6558529318
 20
10.4272886699
 30
0.0
 10
10.6525390131
 20
10.4274979892
 30
0.0
 10
10.6503314062
 20
10.4277570817
 30
0.0
 10
10.6493994029
 20
10.4279111888
 30
0.0
 10
10.6489834891
 20
10.4279982668
 30
0.0
  0
SPLINE
  5
2AB
100
AcDbEntity
  8
0
100
AcDbSpline
 62
7
  6
CONTINUOUS
 70
0
 71
3
 72
19
 73
15
 74
0
 42
0.0000001
 43
0.0000001
 44
0.0000000001
 40
0.0
 40
0.0
 40
0.0
 40
0.0
 40
0.0193394302
 40
0.0418401363
 40
0.0695494183
 40
0.1035293394
 40
0.144288587
 40
0.1919577854
 40
0.2464830405
 40
0.3077298419
 40
0.4494719716
 40
0.6146221136
 40
0.7998124654
 40
1.0
 40
1.0
 40
1.0
 40
1.0
 10
10.7759834891
 20
10.4157522833
 30
0.0
 10
10.7759834891
 20
10.4155285418
 30
0.0
 10
10.7758655156
 20
10.4150413895
 30
0.0
 10
10.775390651
 20
10.4143769974
 30
0.0
 10
10.7746461483
 20
10.4137399265
 30
0.0
 10
10.7736307076
 20
10.4131219883
 30
0.0
 10
10.7723450136
 20
10.4125235501
 30
0.0
 10
10.7707938876
 20
10.4119461236
 30
0.0
 10
10.7689848577
 20
10.4113928433
 30
0.0
 10
10.7660972283
 20
10.410656308
 30
0.0
 10
10.7619122248
 20
10.4098475378
 30
0.0
 10
10.7562721504
 20
10.409060628
 30
0.0
 10
10.7499312172
 20
10.4084453032
 30
0.0
 10
10.7454805631
 20
10.4081664457
 30
0.0
 10
10.7431671626
 20
10.4080565867
 30
0.0
  0
SPLINE
  5
2AC
100
AcDbEntity
  8
0
100
AcDbSpline
 62
7
  6
CONTINUOUS
 70
0
 71
3
 72
20
 73
16
 74
0
 42
0.0000001
 43
0.0000001
 44
0.0000000001
 40
0.0
 40
0.0
 40
0.0
 40
0.0
 40
0.2140131812
 40
0.4079778076
 40
0.578039849
 40
0.7211543671
 40
0.7820216866
 40
0.83547998
 40
0.8813391665
 40
0.9194951307
 40
0.9499769696
 40
0.9729528472
 40
0.9817872165
 40
0.9890311511
 40
1.0
 40
1.0
 40
1.0
 40
1.0
 10
10.6622203634
 20
10.4331534499
 30
0.0
 10
10.6611692831
 20
10.43318159
 30
0.0
 10
10.6591659091
 20
10.4332486616
 30
0.0
 10
10.6563292945
 20
10.4333892205
 30
0.0
 10
10.6538435469
 20
10.4335625454
 30
0.0
 10
10.6520139792
 20
10.4337394497
 30
0.0
 10
10.6507593725
 20
10.4339006092
 30
0.0
 10
10.6499815165
 20
10.4340210211
 30
0.0
 10
10.6493178376
 20
10.434147116
 30
0.0
 10
10.6487703444
 20
10.4342779709
 30
0.0
 10
10.6483406966
 20
10.4344130884
 30
0.0
 10
10.648058694
 20
10.4345353931
 30
0.0
 10
10.6478976733
 20
10.4346416119
 30
0.0
 10
10.6477992972
 20
10.4347299481
 30
0.0
 10
10.6477541339
 20
10.434817647
 30
0.0
 10
10.6477541339
 20
10.4348715374
 30
0.0
  0
SPLINE
  5
2AD
100
AcDbEntity
  8
0
100
AcDbSpline
 62
7
  6
CONTINUOUS
 70
0
 71
3
 72
15
 73
11
 74
0
 42
0.0000001
 43
0.0000001
 44
0.0000000001
 40
0.0
 40
0.0
 40
0.0
 40
0.0
 40
0.1090055676
 40
0.2230765517
 40
0.3420583363
 40
0.465774393
 40
0.5939095619
 40
0.7260376581
 40
0.8616431746
 40
1.0
 40
1.0
 40
1.0
 40
1.0
 10
10.1251276664
 20
7.9006599308
 30
0.0
 10
10.140990923
 20
7.9274505072
 30
0.0
 10
10.1716660305
 20
7.9833524955
 30
0.0
 10
10.2134630601
 20
8.0717190534
 30
0.0
 10
10.2517453054
 20
8.1662147368
 30
0.0
 10
10.2861623611
 20
8.2664386389
 30
0.0
 10
10.316383416
 20
8.3719161934
 30
0.0
 10
10.3420742995
 20
8.4820766278
 30
0.0
 10
10.3629283818
 20
8.5962192805
 30
0.0
 10
10.3733534822
 20
8.6738064948
 30
0.0
 10
10.3777126471
 20
8.7130836538
 30
0.0
  0
LINE
  5
2AE
100
AcDbEntity
  8
0
100
AcDbLine
 62
7
  6
CONTINUOUS
 10
10.6777541339
 20
10.4402367984
 11
10.6680527075
 21
10.4400365606
  0
LINE
  5
2AF
100
AcDbEntity
  8
0
100
AcDbLine
 62
7
  6
CONTINUOUS
 10
10.6680527075
 20
10.4400365606
 11
10.6597484668
 21
10.4398681603
  0
LINE
  5
2B0
100
AcDbEntity
  8
0
100
AcDbLine
 62
7
  6
CONTINUOUS
 10
10.6597484668
 20
10.4398681603
 11
10.6489834891
 21
10.4396592609
  0
SPLINE
  5
2B1
100
AcDbEntity
  8
0
100
AcDbSpline
 62
7
  6
CONTINUOUS
 70
0
 71
3
 72
11
 73
7
 74
0
 42
0.0000001
 43
0.0000001
 44
0.0000000001
 40
0.0
 40
0.0
 40
0.0
 40
0.0
 40
0.1851420071
 40
0.4018611474
 40
0.6700963477
 40
1.0
 40
1.0
 40
1.0
 40
1.0
 10
10.6489834891
 20
10.4149440421
 30
0.0
 10
10.6489834891
 20
10.4147149119
 30
0.0
 10
10.6491077119
 20
10.4142145099
 30
0.0
 10
10.6496040995
 20
10.4135346651
 30
0.0
 10
10.6503807104
 20
10.4128822384
 30
0.0
 10
10.6510182537
 20
10.4125011911
 30
0.0
 10
10.651378628
 20
10.4123092855
 30
0.0
  0
SPLINE
  5
2B2
100
AcDbEntity
  8
0
100
AcDbSpline
 62
7
  6
CONTINUOUS
 70
0
 71
3
 72
14
 73
10
 74
0
 42
0.0000001
 43
0.0000001
 44
0.0000000001
 40
0.0
 40
0.0
 40
0.0
 40
0.0
 40
0.0718072725
 40
0.1606966449
 40
0.2662214127
 40
0.387510139
 40
0.5232727816
 40
0.6720756075
 40
1.0
 40
1.0
 40
1.0
 40
1.0
 10
10.651378628
 20
10.4123092855
 30
0.0
 10
10.6520339031
 20
10.4119603402
 30
0.0
 10
10.6535685159
 20
10.411309189
 30
0.0
 10
10.6561951211
 20
10.4104805715
 30
0.0
 10
10.6593690924
 20
10.4097103323
 30
0.0
 10
10.6630528775
 20
10.4090106239
 30
0.0
 10
10.6672038323
 20
10.4083908489
 30
0.0
 10
10.673495137
 20
10.4076641624
 30
0.0
 10
10.6784138731
 20
10.4073081289
 30
0.0
 10
10.6817998157
 20
10.4071360812
 30
0.0
  0
SPLINE
  5
2B3
100
AcDbEntity
  8
0
100
AcDbSpline
 62
7
  6
CONTINUOUS
 70
0
 71
3
 72
19
 73
15
 74
0
 42
0.0000001
 43
0.0000001
 44
0.0000000001
 40
0.0
 40
0.0
 40
0.0
 40
0.0
 40
0.2001805549
 40
0.3853666599
 40
0.5505070806
 40
0.6922374476
 40
0.7534811264
 40
0.8080053894
 40
0.8556752696
 40
0.8964365878
 40
0.9304212428
 40
0.9581383461
 40
0.9806492195
 40
1.0
 40
1.0
 40
1.0
 40
1.0
 10
10.7431671626
 20
10.4070349394
 30
0.0
 10
10.7454806153
 20
10.4071448743
 30
0.0
 10
10.7499313906
 20
10.4074239439
 30
0.0
 10
10.7562724179
 20
10.4080396915
 30
0.0
 10
10.7619124614
 20
10.408827118
 30
0.0
 10
10.766097328
 20
10.4096364388
 30
0.0
 10
10.7689848337
 20
10.4103734287
 30
0.0
 10
10.770793833
 20
10.410927057
 30
0.0
 10
10.7723449488
 20
10.4115048539
 30
0.0
 10
10.7736306374
 20
10.412103714
 30
0.0
 10
10.7746460856
 20
10.4127221031
 30
0.0
 10
10.7753906245
 20
10.4133596288
 30
0.0
 10
10.7758655132
 20
10.4140244766
 30
0.0
 10
10.7759834891
 20
10.4145119072
 30
0.0
 10
10.7759834891
 20
10.4147357932
 30
0.0
  0
SPLINE
  5
2B4
100
AcDbEntity
  8
0
100
AcDbSpline
 62
7
  6
CONTINUOUS
 70
0
 71
3
 72
12
 73
8
 74
0
 42
0.0000001
 43
0.0000001
 44
0.0000000001
 40
0.0
 40
0.0
 40
0.0
 40
0.0
 40
0.0788351569
 40
0.175133475
 40
0.4124007364
 40
0.6946823375
 40
1.0
 40
1.0
 40
1.0
 40
1.0
 10
10.7759834891
 20
10.427791786
 30
0.0
 10
10.7755674984
 20
10.4277060329
 30
0.0
 10
10.7746353458
 20
10.4275549215
 30
0.0
 10
10.7724274085
 20
10.4273029537
 30
0.0
 10
10.7691132326
 20
10.4271044184
 30
0.0
 10
10.7646691755
 20
10.427025534
 30
0.0
 10
10.7615030575
 20
10.4270776494
 30
0.0
 10
10.7598589736
 20
10.4271310029
 30
0.0
  0
SPLINE
  5
2B5
100
AcDbEntity
  8
0
100
AcDbSpline
 62
7
  6
CONTINUOUS
 70
0
 71
3
 72
11
 73
7
 74
0
 42
0.0000001
 43
0.0000001
 44
0.0000000001
 40
0.0
 40
0.0
 40
0.0
 40
0.0
 40
0.1827799004
 40
0.4157465216
 40
0.6910920722
 40
1.0
 40
1.0
 40
1.0
 40
1.0
 10
10.6489834891
 20
10.4269898768
 30
0.0
 10
10.6495599596
 20
10.4268691046
 30
0.0
 10
10.6508862804
 20
10.4266686796
 30
0.0
 10
10.6531031127
 20
10.4264530225
 30
0.0
 10
10.6557327117
 20
10.4263006064
 30
0.0
 10
10.6576148463
 20
10.4262467102
 30
0.0
 10
10.6586101279
 20
10.4262302456
 30
0.0
  0
SPLINE
  5
2B6
100
AcDbEntity
  8
0
100
AcDbSpline
 62
7
  6
CONTINUOUS
 70
0
 71
3
 72
10
 73
6
 74
0
 42
0.0000001
 43
0.0000001
 44
0.0000000001
 40
0.0
 40
0.0
 40
0.0
 40
0.0
 40
0.5361213631
 40
0.7813300896
 40
1.0
 40
1.0
 40
1.0
 40
1.0
 10
10.7598589736
 20
10.4261220434
 30
0.0
 10
10.7620256822
 20
10.4260516836
 30
0.0
 10
10.7651863374
 20
10.4260136917
 30
0.0
 10
10.769228939
 20
10.4261156468
 30
0.0
 10
10.7711023363
 20
10.4262180889
 30
0.0
 10
10.7719840242
 20
10.4262848218
 30
0.0
  0
LINE
  5
2B7
100
AcDbEntity
  8
0
100
AcDbLine
 62
7
  6
CONTINUOUS
 10
10.7719840242
 20
10.4262848218
 11
10.7759834891
 21
10.4267832605
  0
LINE
  5
2B8
100
AcDbEntity
  8
0
100
AcDbLine
 62
7
  6
CONTINUOUS
 10
10.7759834891
 20
10.4394543269
 11
10.7718251696
 21
10.4395458949
  0
LINE
  5
2B9
100
AcDbEntity
  8
0
100
AcDbLine
 62
7
  6
CONTINUOUS
 10
10.7718251696
 20
10.4395458949
 11
10.7651825811
 21
10.4396988458
  0
LINE
  5
2BA
100
AcDbEntity
  8
0
100
AcDbLine
 62
7
  6
CONTINUOUS
 10
10.7651825811
 20
10.4396988458
 11
10.7567099848
 21
10.4398981048
  0
LINE
  5
2BB
100
AcDbEntity
  8
0
100
AcDbLine
 62
7
  6
CONTINUOUS
 10
10.7567099848
 20
10.4398981048
 11
10.7472128444
 21
10.4401247606
  0
ELLIPSE
  5
2BC
100
AcDbEntity
  8
0
100
AcDbEllipse
 62
7
  6
CONTINUOUS
 10
10.7099834891
 20
8.8883905744
 30
0.0
 11
1.1492470711
 21
1.1162095399
 31
0.0
 40
0.2678505055
 41
-3.3961017501
 42
-2.3489041989
  0
ELLIPSE
  5
2BD
100
AcDbEntity
  8
0
100
AcDbEllipse
 62
7
  6
CONTINUOUS
 10
10.7099834891
 20
8.8883905744
 30
0.0
 11
1.1875
 21
-0.0
 31
0.0
 40
0.9750549296
 41
-2.0943951024
 42
-1.0471975512
  0
ELLIPSE
  5
2BE
100
AcDbEntity
  8
0
100
AcDbEllipse
 62
7
  6
CONTINUOUS
 10
10.7099834891
 20
8.8883905744
 30
0.0
 11
-1.1492470711
 21
1.1162095399
 31
0.0
 40
0.2678505055
 41
-3.9342811082
 42
-2.887083557
  0
ENDSEC
  0
SECTION
  2
OBJECTS
  0
DICTIONARY
  5
C
100
AcDbDictionary
280
0
281
1
  3
ACAD_GROUP
350
D
  3
ACAD_MLINESTYLE
350
17
  3
ACAD_LAYOUT
350
1A
  3
ACAD_PLOTSETTINGS
350
19
  3
ACAD_PLOTSTYLENAME
350
E
  0
DICTIONARY
  5
D
102
{ACAD_REACTORS
330
C
102
}
100
AcDbDictionary
280
0
281
1
  0
ACDBDICTIONARYWDFLT
  5
E
102
{ACAD_REACTORS
330
C
102
}
100
AcDbDictionary
281
1
  3
Normal
350
F
100
AcDbDictionaryWithDefault
340
F
  0
DICTIONARY
  5
17
102
{ACAD_REACTORS
330
C
102
}
100
AcDbDictionary
280
0
281
1
  3
Standard
350
18
  0
DICTIONARY
  5
19
102
{ACAD_REACTORS
330
C
102
}
100
AcDbDictionary
281
1
  0
DICTIONARY
  5
1A
102
{ACAD_REACTORS
330
C
102
}
100
AcDbDictionary
281
1
  3
Model
350
2BF
  3
Layout1
350
2C0
  0
ACDBPLACEHOLDER
  5
F
102
{ACAD_REACTORS
330
E
102
}
  0
MLINESTYLE
  5
18
102
{ACAD_REACTORS
330
17
102
}
100
AcDbMlineStyle
  2
STANDARD
 70
0
  3

 62
256
 51
90.0
 52
90.0
 71
2
 49
0.5
 62
256
  6
BYLAYER
 49
-0.5
 62
256
  6
BYLAYER
  0
LAYOUT
  5
2BF
102
{ACAD_REACTORS
330
1A
102
}
100
AcDbPlotSettings
  1

  2
none_device
  4
ANSI_C_(22.00_x_17.00_Inches)
  6

 40
0.0
 41
0.0
 42
0.0
 43
0.0
 44
558.8
 45
431.8
 46
0.0
 47
0.0
 48
0.0
 49
0.0
140
0.0
141
0.0
142
1.0
143
1.0
 70
1024
 72
0
 73
0
 74
0
  7

 75
0
147
1.0
148
0.0
149
0.0
100
AcDbLayout
  1
Model
 70
0
 71
0
 10
0.0
 20
0.0
 11
22.0
 21
17.0
 12
0.0
 22
0.0
 32
0.0
 14
0.0
 24
0.0
 34
0.0
 15
0.0
 25
0.0
 35
0.0
146
0.0
 13
0.0
 23
0.0
 33
0.0
 16
1.0
 26
0.0
 36
0.0
 17
0.0
 27
1.0
 37
0.0
 76
0
330
202
345
0
346
0
  0
LAYOUT
  5
2C0
102
{ACAD_REACTORS
330
1A
102
}
100
AcDbPlotSettings
  1

  2
none_device
  4
ANSI_C_(22.00_x_17.00_Inches)
  6

 40
0.0
 41
0.0
 42
0.0
 43
0.0
 44
558.8
 45
431.8
 46
0.0
 47
0.0
 48
0.0
 49
0.0
140
0.0
141
0.0
142
1.0
143
1.0
 70
0
 72
0
 73
0
 74
0
  7

 75
0
147
1.0
148
0.0
149
0.0
100
AcDbLayout
  1
Layout1
 70
0
 71
1
 10
0.0
 20
0.0
 11
22.0
 21
17.0
 12
0.0
 22
0.0
 32
0.0
 14
0.0
 24
0.0
 34
0.0
 15
0.0
 25
0.0
 35
0.0
146
0.0
 13
0.0
 23
0.0
 33
0.0
 16
1.0
 26
0.0
 36
0.0
 17
0.0
 27
1.0
 37
0.0
 76
0
330
203
345
0
346
0
  0
ENDSEC
  0
EOF
