999
DXF file: E:\BT Custom\CADOUTPUT\_FRONT.dxf
999
Pro/ENGINEER 2018400 by Parametric Technology Corporation
  0
SECTION
  2
HEADER
  9
$ACADVER
  1
AC1018
  9
$DWGCODEPAGE
  3
ANSI_1252
  9
$EXTMAX
 10
22.0
 20
17.0
 30
0.0
  9
$EXTMIN
 10
0.0
 20
0.0
 30
0.0
  9
$LIMMIN
 10
0.0
 20
0.0
  9
$LIMMAX
 10
22.0
 20
17.0
  9
$VIEWCTR
 10
11.0
 20
8.5
  9
$VIEWSIZE
 40
17.0
  9
$CLAYER
  8
0
  9
$LTSCALE
 40
1.21
  9
$CELTYPE
  6
BYLAYER
  9
$DIMSCALE
 40
1.0
  9
$DIMASZ
 40
0.1
  9
$DIMEXO
 40
0.0625
  9
$DIMDLI
 40
0.836
  9
$DIMEXE
 40
0.125
  9
$DIMCEN
 40
0.198
  9
$DIMLFAC
 40
1.0
  9
$DIMBLK
  1
_FILLED
  9
$DIMALT
 70
1
  9
$DIMALTD
 70
2
  9
$DIMALTTD
 70
2
  9
$DIMALTF
 40
25.4
  9
$DIMTXT
 40
0.08
  9
$DIMTOL
 70
1
  9
$DIMLIM
 70
0
  9
$DIMTFAC
 40
1.0
  9
$DIMTP
 40
0.001
  9
$DIMTM
 40
0.001
  9
$DIMGAP
 40
0.09
  9
$DIMDSEP
 70
46
  9
$AUNITS
 70
0
  9
$PDMODE
 70
3
  9
$PDSIZE
 40
0.06
  9
$HANDSEED
  5
2AA
  9
$TILEMODE
 70
1
  9
$MEASUREMENT
 70
0
  9
$INSUNITS
 70
1
  0
ENDSEC
  0
SECTION
  2
CLASSES
  0
CLASS
  1
ACDBDICTIONARYWDFLT
  2
AcDbDictionaryWithDefault
  3
AutoCAD 2000
 90
0
 91
1
280
0
281
0
  0
CLASS
  1
ACDBPLACEHOLDER
  2
AcDbPlaceHolder
  3
AutoCAD 2000
 90
0
 91
1
280
0
281
0
  0
CLASS
  1
LAYOUT
  2
AcDbLayout
  3
AutoCAD 2000
 90
0
 91
0
280
0
281
0
  0
ENDSEC
  0
SECTION
  2
TABLES
  0
TABLE
  2
VPORT
  5
8
100
AcDbSymbolTable
 70
2
  0
VPORT
  5
1F4
100
AcDbSymbolTableRecord
100
AcDbViewportTableRecord
  2
*ACTIVE
 70
0
 10
0.0
 20
0.0
 11
1.0
 21
1.0
 12
11.0
 22
8.5
 13
0.0
 23
0.0
 14
1.0
 24
1.0
 15
0.0
 25
0.0
 16
0.0
 26
0.0
 36
1.0
 17
0.0
 27
0.0
 37
0.0
 40
17.0
 41
1.2941176471
 42
50.0
 43
0.0
 44
0.0
 50
0.0
 51
0.0
 71
0
 72
100
 73
1
 74
1
 75
0
 76
0
 77
0
 78
0
  0
ENDTAB
  0
TABLE
  2
LTYPE
  5
5
100
AcDbSymbolTable
 70
6
  0
LTYPE
  5
14
100
AcDbSymbolTableRecord
100
AcDbLinetypeTableRecord
  2
BYBLOCK
 70
0
  3

 72
65
 73
0
 40
0.0
  0
LTYPE
  5
15
100
AcDbSymbolTableRecord
100
AcDbLinetypeTableRecord
  2
BYLAYER
 70
0
  3

 72
65
 73
0
 40
0.0
  0
LTYPE
  5
16
100
AcDbSymbolTableRecord
100
AcDbLinetypeTableRecord
  2
CONTINUOUS
 70
64
  3
Solid line
 72
65
 73
0
 40
0.0
  0
LTYPE
  5
1F5
100
AcDbSymbolTableRecord
100
AcDbLinetypeTableRecord
  2
CENTER
 70
64
  3
____ _ ____ _ ____ _ ____ _ ____ _ ____ _ ____
 72
65
 73
4
 40
0.6
 49
0.375
 74
0
 49
-0.075
 74
0
 49
0.075
 74
0
 49
-0.075
 74
0
  0
LTYPE
  5
1F6
100
AcDbSymbolTableRecord
100
AcDbLinetypeTableRecord
  2
HIDDEN
 70
64
  3
- - - - - - - - - - - - - - - - - - - -
 72
65
 73
2
 40
0.2
 49
0.1
 74
0
 49
-0.1
 74
0
  0
LTYPE
  5
1F7
100
AcDbSymbolTableRecord
100
AcDbLinetypeTableRecord
  2
PHANTOM
 70
64
  3
_____ _ _ _____ _ _ _____ _ _ _____
 72
65
 73
6
 40
0.8
 49
0.45
 74
0
 49
-0.05
 74
0
 49
0.1
 74
0
 49
-0.05
 74
0
 49
0.1
 74
0
 49
-0.05
 74
0
  0
LTYPE
  5
1F8
100
AcDbSymbolTableRecord
100
AcDbLinetypeTableRecord
  2
DOT
 70
64
  3
. . . . . . . . . . . . . . . . . . . .
 72
65
 73
2
 40
0.2
 49
0.1
 74
0
 49
-0.1
 74
0
  0
LTYPE
  5
1F9
100
AcDbSymbolTableRecord
100
AcDbLinetypeTableRecord
  2
DASHED
 70
64
  3
- - - - - - - - - - - - - - - - - - - -
 72
65
 73
2
 40
0.2
 49
0.1
 74
0
 49
-0.1
 74
0
  0
ENDTAB
  0
TABLE
  2
LAYER
  5
2
100
AcDbSymbolTable
 70
36
  0
LAYER
  5
10
100
AcDbSymbolTableRecord
100
AcDbLayerTableRecord
  2
0
 70
0
 62
7
  6
CONTINUOUS
370
-3
390
F
  0
LAYER
  5
1FA
100
AcDbSymbolTableRecord
100
AcDbLayerTableRecord
  2
DEFAULT_1
 70
0
 62
7
  6
CENTER
370
-3
390
F
  0
LAYER
  5
1FB
100
AcDbSymbolTableRecord
100
AcDbLayerTableRecord
  2
DEFAULT_2
 70
0
 62
8
  6
HIDDEN
370
-3
390
F
  0
LAYER
  5
1FC
100
AcDbSymbolTableRecord
100
AcDbLayerTableRecord
  2
DEFAULT_3
 70
0
 62
7
  6
PHANTOM
370
-3
390
F
  0
LAYER
  5
1FD
100
AcDbSymbolTableRecord
100
AcDbLayerTableRecord
  2
ALL_FEATURES
 70
0
 62
7
  6
CONTINUOUS
370
-3
390
F
  0
LAYER
  5
1FE
100
AcDbSymbolTableRecord
100
AcDbLayerTableRecord
  2
AXES_FEATURES
 70
0
 62
7
  6
CONTINUOUS
370
-3
390
F
  0
LAYER
  5
1FF
100
AcDbSymbolTableRecord
100
AcDbLayerTableRecord
  2
DIMENSIONS
 70
0
 62
7
  6
CONTINUOUS
370
-3
390
F
  0
ENDTAB
  0
TABLE
  2
STYLE
  5
3
100
AcDbSymbolTable
 70
1
  0
STYLE
  5
11
100
AcDbSymbolTableRecord
100
AcDbTextStyleTableRecord
  2
STANDARD
 70
0
 40
0.0
 41
0.8
 50
0.0
 71
0
 42
0.2
  3
txt
  4

  0
STYLE
  5
200
100
AcDbSymbolTableRecord
100
AcDbTextStyleTableRecord
  2
TEXTSTYLE_1
 70
0
 40
0.0
 41
0.8
 50
0.0
 71
0
 42
0.2
  3
gdt
  4

  0
ENDTAB
  0
TABLE
  2
VIEW
  5
6
100
AcDbSymbolTable
 70
0
  0
ENDTAB
  0
TABLE
  2
UCS
  5
7
100
AcDbSymbolTable
 70
0
  0
ENDTAB
  0
TABLE
  2
APPID
  5
9
100
AcDbSymbolTable
 70
1
  0
APPID
  5
201
100
AcDbSymbolTableRecord
100
AcDbRegAppTableRecord
  2
ACAD
 70
0
  0
ENDTAB
  0
TABLE
  2
BLOCK_RECORD
  5
1
100
AcDbSymbolTable
 70
0
  0
BLOCK_RECORD
  5
202
100
AcDbSymbolTableRecord
100
AcDbBlockTableRecord
  2
*Model_Space
  0
BLOCK_RECORD
  5
203
100
AcDbSymbolTableRecord
100
AcDbBlockTableRecord
  2
*Paper_Space
  0
BLOCK_RECORD
  5
204
100
AcDbSymbolTableRecord
100
AcDbBlockTableRecord
  2
_FILLED
  0
ENDTAB
  0
TABLE
  2
DIMSTYLE
  5
A
100
AcDbSymbolTable
 70
1
100
AcDbDimStyleTable
 71
0
  0
DIMSTYLE
105
205
100
AcDbSymbolTableRecord
100
AcDbDimStyleTableRecord
  2
STANDARD
 70
0
  3

  4

 40
1.0
 41
0.1
 42
0.0625
 43
0.38
 44
0.125
 45
0.0
 46
0.0
 47
0.001
 48
0.001
140
0.08
141
0.09
142
0.0
143
25.4
144
1.0
145
0.0
146
1.0
147
0.09
 71
1.0
 72
0.0
 73
1
 74
1
 75
0
 76
0
 77
0
 78
4
 79
1
170
1
171
2
172
0
173
0
174
0
175
0
176
0
177
0
178
0
270
2
179
3
271
3
272
3
273
2
274
2
275
0
280
0
281
0
282
0
283
1
284
4
285
0
286
0
287
3
288
0
340
11
278
46
341
204
342
204
343
204
344
204
  0
ENDTAB
  0
ENDSEC
  0
SECTION
  2
BLOCKS
  0
BLOCK
  5
20
100
AcDbEntity
  8
0
100
AcDbBlockBegin
  2
*Model_Space
 70
0
 10
0.0
 20
0.0
 30
0.0
  3
*Model_Space
  1

  0
ENDBLK
  5
21
100
AcDbEntity
  8
0
100
AcDbBlockEnd
  0
BLOCK
  5
1C
100
AcDbEntity
  8
0
100
AcDbBlockBegin
  2
*Paper_Space
 70
0
 10
0.0
 20
0.0
 30
0.0
  3
*Paper_Space
  1

  0
ENDBLK
  5
1D
100
AcDbEntity
  8
0
100
AcDbBlockEnd
  0
BLOCK
  5
206
100
AcDbEntity
  8
0
100
AcDbBlockBegin
  2
_FILLED
 70
64
 10
0.0
 20
0.0
  3
_FILLED
  1

  0
SOLID
  5
207
100
AcDbEntity
  8
0
  6
BYBLOCK
 62
0
100
AcDbTrace
 10
0.0
 20
0.0
 11
-1.0
 21
0.2
 12
-1.0
 22
-0.2
 13
-1.0
 23
-0.2
  0
ENDBLK
  5
208
100
AcDbEntity
  8
0
  6
BYBLOCK
 62
0
100
AcDbBlockEnd
  0
ENDSEC
  0
SECTION
  2
ENTITIES
  0
LINE
  5
209
100
AcDbEntity
  8
0
100
AcDbLine
 62
7
  6
CONTINUOUS
 10
10.4831823866
 20
10.6236695021
 11
10.4244581905
 21
10.6045888542
  0
LINE
  5
20A
100
AcDbEntity
  8
0
100
AcDbLine
 62
7
  6
CONTINUOUS
 10
9.7502076799
 20
7.8366695021
 11
12.1251914443
 21
7.8366695021
  0
LINE
  5
20B
100
AcDbEntity
  8
0
100
AcDbLine
 62
7
  6
CONTINUOUS
 10
10.4370391303
 20
10.4981695021
 11
10.4101923427
 21
10.4826695021
  0
LINE
  5
20C
100
AcDbEntity
  8
0
100
AcDbLine
 62
7
  6
CONTINUOUS
 10
9.7501923427
 20
7.8366695021
 11
9.7501923427
 21
7.9882905437
  0
LINE
  5
20D
100
AcDbEntity
  8
0
100
AcDbLine
 62
7
  6
CONTINUOUS
 10
10.4244581905
 20
10.6045888542
 11
10.4101923427
 21
10.5849535993
  0
LINE
  5
20E
100
AcDbEntity
  8
0
100
AcDbLine
 62
7
  6
CONTINUOUS
 10
9.9950151198
 20
10.0298822065
 11
9.9129258627
 21
9.97240269
  0
LINE
  5
20F
100
AcDbEntity
  8
0
100
AcDbLine
 62
9
  6
CONTINUOUS
 10
11.9506923427
 20
8.1584376289
 11
9.9246923427
 21
8.1584376289
  0
LINE
  5
210
100
AcDbEntity
  8
0
100
AcDbLine
 62
9
  6
CONTINUOUS
 10
9.9129258627
 20
10.4229363143
 11
9.9129258627
 21
9.97240269
  0
LINE
  5
211
100
AcDbEntity
  8
0
100
AcDbLine
 62
9
  6
CONTINUOUS
 10
9.9950151198
 20
10.0298822065
 11
9.9950151198
 21
10.3654567977
  0
LINE
  5
212
100
AcDbEntity
  8
0
100
AcDbLine
 62
7
  6
CONTINUOUS
 10
10.0201923427
 20
10.3867598134
 11
10.0201923427
 21
10.0085791909
  0
LINE
  5
213
100
AcDbEntity
  8
0
100
AcDbLine
 62
9
  6
CONTINUOUS
 10
10.0450555013
 20
10.0067522089
 11
10.0450555013
 21
10.3885867954
  0
LINE
  5
214
100
AcDbEntity
  8
0
100
AcDbLine
 62
7
  6
CONTINUOUS
 10
10.4101923427
 20
10.4826695021
 11
10.3801923427
 21
10.4026695021
  0
LINE
  5
215
100
AcDbEntity
  8
0
100
AcDbLine
 62
7
  6
CONTINUOUS
 10
11.4383455552
 20
10.4981695021
 11
11.4651923427
 21
10.5136695021
  0
LINE
  5
216
100
AcDbEntity
  8
0
100
AcDbLine
 62
9
  6
CONTINUOUS
 10
10.4065263329
 20
10.0430507863
 11
10.4065263329
 21
10.352288901
  0
LINE
  5
217
100
AcDbEntity
  8
0
100
AcDbLine
 62
7
  6
CONTINUOUS
 10
10.4101923427
 20
10.5849535993
 11
10.4101923427
 21
10.5136695021
  0
LINE
  5
218
100
AcDbEntity
  8
0
100
AcDbLine
 62
9
  6
CONTINUOUS
 10
10.4286863666
 20
10.2934293556
 11
10.4286863666
 21
10.1019073904
  0
LINE
  5
219
100
AcDbEntity
  8
0
100
AcDbLine
 62
7
  6
CONTINUOUS
 10
10.5076923427
 20
9.4836695021
 11
10.5076923427
 21
9.3636695021
  0
LINE
  5
21A
100
AcDbEntity
  8
0
100
AcDbLine
 62
7
  6
CONTINUOUS
 10
10.3621823625
 20
8.9708613519
 11
10.4376923427
 21
9.3636695021
  0
LINE
  5
21B
100
AcDbEntity
  8
0
100
AcDbLine
 62
7
  6
CONTINUOUS
 10
11.3081923427
 20
9.8626695021
 11
11.4651923427
 21
9.9136695021
  0
LINE
  5
21C
100
AcDbEntity
  8
0
100
AcDbLine
 62
7
  6
CONTINUOUS
 10
10.5941923427
 20
9.8626695021
 11
10.5941923427
 21
9.5036695021
  0
LINE
  5
21D
100
AcDbEntity
  8
0
100
AcDbLine
 62
7
  6
CONTINUOUS
 10
10.6726923427
 20
10.6746401317
 11
10.6726923427
 21
10.6734920848
  0
LINE
  5
21E
100
AcDbEntity
  8
0
100
AcDbLine
 62
7
  6
CONTINUOUS
 10
11.8803695657
 20
10.3654567977
 11
11.9624588227
 21
10.4229363143
  0
LINE
  5
21F
100
AcDbEntity
  8
0
100
AcDbLine
 62
9
  6
CONTINUOUS
 10
10.3621823625
 20
8.9708613519
 11
11.513202323
 21
8.9708613519
  0
LINE
  5
220
100
AcDbEntity
  8
0
100
AcDbLine
 62
7
  6
CONTINUOUS
 10
10.3801923427
 20
9.9926695021
 11
10.4101923427
 21
9.9136695021
  0
LINE
  5
221
100
AcDbEntity
  8
0
100
AcDbLine
 62
7
  6
CONTINUOUS
 10
10.6891923427
 20
10.6781517649
 11
10.6891923427
 21
10.6771383472
  0
LINE
  5
222
100
AcDbEntity
  8
0
100
AcDbLine
 62
7
  6
CONTINUOUS
 10
10.7291923427
 20
10.6831039178
 11
10.7291923427
 21
10.6841133999
  0
LINE
  5
223
100
AcDbEntity
  8
0
100
AcDbLine
 62
7
  6
CONTINUOUS
 10
10.7381923427
 20
9.5036695021
 11
10.7381923427
 21
9.4836695021
  0
LINE
  5
224
100
AcDbEntity
  8
0
100
AcDbLine
 62
7
  6
CONTINUOUS
 10
10.7456923427
 20
10.6843876516
 11
10.7456923427
 21
10.685527563
  0
LINE
  5
225
100
AcDbEntity
  8
0
100
AcDbLine
 62
7
  6
CONTINUOUS
 10
10.7626923427
 20
10.6875551277
 11
10.7626923427
 21
10.6864167186
  0
LINE
  5
226
100
AcDbEntity
  8
0
100
AcDbLine
 62
7
  6
CONTINUOUS
 10
10.7791923427
 20
10.690074684
 11
10.7791923427
 21
10.6890691068
  0
LINE
  5
227
100
AcDbEntity
  8
0
100
AcDbLine
 62
7
  6
CONTINUOUS
 10
10.8191923427
 20
10.6926598215
 11
10.8191923427
 21
10.6936630626
  0
LINE
  5
228
100
AcDbEntity
  8
0
100
AcDbLine
 62
7
  6
CONTINUOUS
 10
10.8356923427
 20
10.6929747406
 11
10.8356923427
 21
10.694108321
  0
LINE
  5
229
100
AcDbEntity
  8
0
100
AcDbLine
 62
7
  6
CONTINUOUS
 10
10.8939923427
 20
10.6980536183
 11
10.8939923427
 21
10.6970532207
  0
LINE
  5
22A
100
AcDbEntity
  8
0
100
AcDbLine
 62
7
  6
CONTINUOUS
 10
10.9376923427
 20
8.1434167449
 11
10.9376923427
 21
8.1584376289
  0
LINE
  5
22B
100
AcDbEntity
  8
0
100
AcDbLine
 62
7
  6
CONTINUOUS
 10
10.9376923427
 20
8.9708613519
 11
10.9376923427
 21
9.3636695021
  0
LINE
  5
22C
100
AcDbEntity
  8
0
100
AcDbLine
 62
7
  6
CONTINUOUS
 10
12.1251990398
 20
7.9882840137
 11
11.9506923427
 21
8.1584376289
  0
LINE
  5
22D
100
AcDbEntity
  8
0
100
AcDbLine
 62
7
  6
CONTINUOUS
 10
10.9789923427
 20
10.6981194209
 11
10.9789923427
 21
10.6971190658
  0
LINE
  5
22E
100
AcDbEntity
  8
0
100
AcDbLine
 62
7
  6
CONTINUOUS
 10
11.0756923427
 20
10.6913116866
 11
11.0756923427
 21
10.6901760506
  0
LINE
  5
22F
100
AcDbEntity
  8
0
100
AcDbLine
 62
7
  6
CONTINUOUS
 10
9.7501856457
 20
7.9882840137
 11
9.9246923427
 21
8.1584376289
  0
LINE
  5
230
100
AcDbEntity
  8
0
100
AcDbLine
 62
7
  6
CONTINUOUS
 10
11.4376923427
 20
9.3636695021
 11
10.4376923427
 21
9.3636695021
  0
LINE
  5
231
100
AcDbEntity
  8
0
100
AcDbLine
 62
7
  6
CONTINUOUS
 10
11.0941923427
 20
10.6904691648
 11
11.0941923427
 21
10.689463845
  0
LINE
  5
232
100
AcDbEntity
  8
0
100
AcDbLine
 62
7
  6
CONTINUOUS
 10
11.1301923427
 20
10.6853831068
 11
11.1301923427
 21
10.6863910933
  0
LINE
  5
233
100
AcDbEntity
  8
0
100
AcDbLine
 62
7
  6
CONTINUOUS
 10
11.1371923427
 20
9.5036695021
 11
11.1371923427
 21
9.4836695021
  0
LINE
  5
234
100
AcDbEntity
  8
0
100
AcDbLine
 62
7
  6
CONTINUOUS
 10
11.1486923427
 20
10.6818937497
 11
11.1486923427
 21
10.6830355131
  0
LINE
  5
235
100
AcDbEntity
  8
0
100
AcDbLine
 62
7
  6
CONTINUOUS
 10
11.4951923427
 20
9.9926695021
 11
11.4651923427
 21
9.9136695021
  0
LINE
  5
236
100
AcDbEntity
  8
0
100
AcDbLine
 62
7
  6
CONTINUOUS
 10
11.3676915066
 20
9.4836695021
 11
10.5076931789
 21
9.4836695021
  0
LINE
  5
237
100
AcDbEntity
  8
0
100
AcDbLine
 62
7
  6
CONTINUOUS
 10
10.5941929824
 20
9.5036695021
 11
11.2811917031
 21
9.5036695021
  0
LINE
  5
238
100
AcDbEntity
  8
0
100
AcDbLine
 62
7
  6
CONTINUOUS
 10
11.2811923427
 20
9.8626695021
 11
11.2811923427
 21
9.5036695021
  0
LINE
  5
239
100
AcDbEntity
  8
0
100
AcDbLine
 62
7
  6
CONTINUOUS
 10
9.9950151198
 20
10.3654567977
 11
9.9129258627
 21
10.4229363143
  0
LINE
  5
23A
100
AcDbEntity
  8
0
100
AcDbLine
 62
7
  6
CONTINUOUS
 10
11.3676923427
 20
9.4836695021
 11
11.3676923427
 21
9.3636695021
  0
LINE
  5
23B
100
AcDbEntity
  8
0
100
AcDbLine
 62
9
  6
CONTINUOUS
 10
11.4466983189
 20
10.1019642525
 11
11.4466983189
 21
10.2933765707
  0
LINE
  5
23C
100
AcDbEntity
  8
0
100
AcDbLine
 62
7
  6
CONTINUOUS
 10
11.4651923427
 20
10.5849535993
 11
11.4651923427
 21
10.5136695021
  0
LINE
  5
23D
100
AcDbEntity
  8
0
100
AcDbLine
 62
9
  6
CONTINUOUS
 10
11.4688583526
 20
10.3524065535
 11
11.4688583526
 21
10.0429359124
  0
LINE
  5
23E
100
AcDbEntity
  8
0
100
AcDbLine
 62
7
  6
CONTINUOUS
 10
10.5671923427
 20
9.8626695021
 11
10.4101923427
 21
9.9136695021
  0
LINE
  5
23F
100
AcDbEntity
  8
0
100
AcDbLine
 62
7
  6
CONTINUOUS
 10
11.513202323
 20
8.9708613519
 11
11.4376923427
 21
9.3636695021
  0
LINE
  5
240
100
AcDbEntity
  8
0
100
AcDbLine
 62
7
  6
CONTINUOUS
 10
10.5671930423
 20
9.8626695021
 11
11.3081916432
 21
9.8626695021
  0
LINE
  5
241
100
AcDbEntity
  8
0
100
AcDbLine
 62
7
  6
CONTINUOUS
 10
11.4651923427
 20
9.9136695021
 11
10.4101923427
 21
9.9136695021
  0
LINE
  5
242
100
AcDbEntity
  8
0
100
AcDbLine
 62
7
  6
CONTINUOUS
 10
10.3801923427
 20
9.9926695021
 11
10.7566382543
 21
9.9926695021
  0
LINE
  5
243
100
AcDbEntity
  8
0
100
AcDbLine
 62
7
  6
CONTINUOUS
 10
11.1187464312
 20
9.9926695021
 11
11.4951923427
 21
9.9926695021
  0
LINE
  5
244
100
AcDbEntity
  8
0
100
AcDbLine
 62
7
  6
CONTINUOUS
 10
10.4370391303
 20
10.4981695021
 11
10.4101923427
 21
10.5136695021
  0
LINE
  5
245
100
AcDbEntity
  8
0
100
AcDbLine
 62
9
  6
CONTINUOUS
 10
11.8303291842
 20
10.0067522089
 11
11.8303291842
 21
10.3885867954
  0
LINE
  5
246
100
AcDbEntity
  8
0
100
AcDbLine
 62
7
  6
CONTINUOUS
 10
11.8551923427
 20
10.0085791909
 11
11.8551923427
 21
10.3867598134
  0
LINE
  5
247
100
AcDbEntity
  8
0
100
AcDbLine
 62
9
  6
CONTINUOUS
 10
11.8803695657
 20
10.3654567977
 11
11.8803695657
 21
10.0298822065
  0
LINE
  5
248
100
AcDbEntity
  8
0
100
AcDbLine
 62
7
  6
CONTINUOUS
 10
11.4651923427
 20
10.4826695021
 11
11.4951923427
 21
10.4026695021
  0
LINE
  5
249
100
AcDbEntity
  8
0
100
AcDbLine
 62
9
  6
CONTINUOUS
 10
11.9624588227
 20
9.97240269
 11
11.9624588227
 21
10.4229363143
  0
LINE
  5
24A
100
AcDbEntity
  8
0
100
AcDbLine
 62
7
  6
CONTINUOUS
 10
12.1251923427
 20
7.8366695021
 11
12.1251923427
 21
7.9882905437
  0
LINE
  5
24B
100
AcDbEntity
  8
0
100
AcDbLine
 62
7
  6
CONTINUOUS
 10
11.4951923427
 20
10.4026695021
 11
11.1187464312
 21
10.4026695021
  0
LINE
  5
24C
100
AcDbEntity
  8
0
100
AcDbLine
 62
7
  6
CONTINUOUS
 10
10.7566382543
 20
10.4026695021
 11
10.3801923427
 21
10.4026695021
  0
LINE
  5
24D
100
AcDbEntity
  8
0
100
AcDbLine
 62
7
  6
CONTINUOUS
 10
10.4101923427
 20
10.4826695021
 11
11.4651923427
 21
10.4826695021
  0
LINE
  5
24E
100
AcDbEntity
  8
0
100
AcDbLine
 62
7
  6
CONTINUOUS
 10
10.4370391303
 20
10.4981695021
 11
11.4383455552
 21
10.4981695021
  0
LINE
  5
24F
100
AcDbEntity
  8
0
100
AcDbLine
 62
7
  6
CONTINUOUS
 10
11.8803695657
 20
10.0298822065
 11
11.9624588227
 21
9.97240269
  0
LINE
  5
250
100
AcDbEntity
  8
0
100
AcDbLine
 62
7
  6
CONTINUOUS
 10
11.450926495
 20
10.6045888542
 11
11.4651923427
 21
10.5849535993
  0
LINE
  5
251
100
AcDbEntity
  8
0
100
AcDbLine
 62
7
  6
CONTINUOUS
 10
10.4101923427
 20
10.5136695021
 11
11.4651923427
 21
10.5136695021
  0
LINE
  5
252
100
AcDbEntity
  8
0
100
AcDbLine
 62
7
  6
CONTINUOUS
 10
11.4651923427
 20
10.5849535993
 11
10.4101923427
 21
10.5849535993
  0
LINE
  5
253
100
AcDbEntity
  8
0
100
AcDbLine
 62
7
  6
CONTINUOUS
 10
10.4244581905
 20
10.6045888542
 11
11.450926495
 21
10.6045888542
  0
LINE
  5
254
100
AcDbEntity
  8
0
100
AcDbLine
 62
7
  6
CONTINUOUS
 10
11.3921904009
 20
10.6236695021
 11
10.4831942845
 21
10.6236695021
  0
LINE
  5
255
100
AcDbEntity
  8
0
100
AcDbLine
 62
9
  6
CONTINUOUS
 10
11.3328369823
 20
10.6474789151
 11
10.5425477032
 21
10.6474789151
  0
LINE
  5
256
100
AcDbEntity
  8
0
100
AcDbLine
 62
7
  6
CONTINUOUS
 10
11.4383455552
 20
10.4981695021
 11
11.4651923427
 21
10.4826695021
  0
LINE
  5
257
100
AcDbEntity
  8
0
100
AcDbLine
 62
7
  6
CONTINUOUS
 10
11.0941923427
 20
10.6897468591
 11
11.1301923427
 21
10.685666872
  0
LINE
  5
258
100
AcDbEntity
  8
0
100
AcDbLine
 62
7
  6
CONTINUOUS
 10
11.3922022989
 20
10.6236695021
 11
11.450926495
 21
10.6045888542
  0
ARC
  5
259
100
AcDbEntity
  8
0
100
AcDbCircle
 62
7
  6
CONTINUOUS
 10
8.8488889638
 20
9.2617635507
 40
1.541
100
AcDbArc
 50
314.2763891045
 51
349.1186996529
  0
ARC
  5
25A
100
AcDbEntity
  8
0
100
AcDbCircle
 62
7
  6
CONTINUOUS
 10
10.8405977429
 20
9.884252116
 40
0.8080376105
100
AcDbArc
 50
97.4953747173
 51
97.7110213925
  0
ARC
  5
25B
100
AcDbEntity
  8
0
100
AcDbCircle
 62
7
  6
CONTINUOUS
 10
9.7551923427
 20
10.1976695021
 40
0.275
100
AcDbArc
 50
55.0
 51
305.0
  0
ARC
  5
25C
100
AcDbEntity
  8
0
100
AcDbCircle
 62
7
  6
CONTINUOUS
 10
10.2278163838
 20
9.8361695021
 40
0.25
100
AcDbArc
 50
47.6927590044
 51
136.9739483152
  0
ARC
  5
25D
100
AcDbEntity
  8
0
100
AcDbCircle
 62
7
  6
CONTINUOUS
 10
10.2278163838
 20
10.5591695021
 40
0.25
100
AcDbArc
 50
223.0260516848
 51
312.3073607029
  0
ARC
  5
25E
100
AcDbEntity
  8
0
100
AcDbCircle
 62
7
  6
CONTINUOUS
 10
10.5501923427
 20
10.6184692704
 40
0.03
100
AcDbArc
 50
104.7629977427
 51
170.0178676887
  0
ARC
  5
25F
100
AcDbEntity
  8
0
100
AcDbCircle
 62
7
  6
CONTINUOUS
 10
10.0041923427
 20
10.0167757738
 40
0.016
100
AcDbArc
 50
0.0
 51
124.9999999998
  0
ARC
  5
260
100
AcDbEntity
  8
0
100
AcDbCircle
 62
7
  6
CONTINUOUS
 10
10.0041923427
 20
10.3785632305
 40
0.016
100
AcDbArc
 50
235.0000000002
 51
360.0
  0
ARC
  5
261
100
AcDbEntity
  8
0
100
AcDbCircle
 62
7
  6
CONTINUOUS
 10
10.0333588048
 20
10.3776695021
 40
0.016
100
AcDbArc
 50
43.0260516848
 51
145.3765489001
  0
ARC
  5
262
100
AcDbEntity
  8
0
100
AcDbCircle
 62
7
  6
CONTINUOUS
 10
10.0333588048
 20
10.0176695021
 40
0.016
100
AcDbArc
 50
214.6234510999
 51
316.9739483152
  0
ARC
  5
263
100
AcDbEntity
  8
0
100
AcDbCircle
 62
7
  6
CONTINUOUS
 10
10.9376923427
 20
9.1479961101
 40
1.550673392
100
AcDbArc
 50
88.473827208
 51
91.6148836456
  0
ARC
  5
264
100
AcDbEntity
  8
0
100
AcDbCircle
 62
7
  6
CONTINUOUS
 10
10.9376923427
 20
9.1479961101
 40
1.550673392
100
AcDbArc
 50
92.9572302825
 51
94.3827253199
  0
ARC
  5
265
100
AcDbEntity
  8
0
100
AcDbCircle
 62
7
  6
CONTINUOUS
 10
10.9376923427
 20
9.1479961101
 40
1.550673392
100
AcDbArc
 50
84.2076250178
 51
87.1537590823
  0
ARC
  5
266
100
AcDbEntity
  8
0
100
AcDbCircle
 62
7
  6
CONTINUOUS
 10
10.9376923427
 20
9.1479961101
 40
1.550673392
100
AcDbArc
 50
99.221579184
 51
104.7629977426
  0
ARC
  5
267
100
AcDbEntity
  8
0
100
AcDbCircle
 62
7
  6
CONTINUOUS
 10
10.9376923427
 20
9.1479961101
 40
1.550673392
100
AcDbArc
 50
75.2370022574
 51
82.8689275621
  0
ARC
  5
268
100
AcDbEntity
  8
0
100
AcDbCircle
 62
7
  6
CONTINUOUS
 10
10.9376923427
 20
9.1479961101
 40
1.550668233
100
AcDbArc
 50
96.0895835634
 51
97.5036217175
  0
ARC
  5
269
100
AcDbEntity
  8
0
100
AcDbCircle
 62
7
  6
CONTINUOUS
 10
10.9376923427
 20
9.1479961101
 40
1.549673392
100
AcDbArc
 50
94.3855590149
 51
95.8703613144
  0
ARC
  5
26A
100
AcDbEntity
  8
0
100
AcDbCircle
 62
7
  6
CONTINUOUS
 10
10.9376923427
 20
9.1479961101
 40
1.549673392
100
AcDbArc
 50
97.7345986214
 51
99.2275818147
  0
ARC
  5
26B
100
AcDbEntity
  8
0
100
AcDbCircle
 62
7
  6
CONTINUOUS
 10
10.9376923427
 20
9.1479961101
 40
1.5483420064
100
AcDbArc
 50
93.7772047905
 51
96.4896726718
  0
ARC
  5
26C
100
AcDbEntity
  8
0
100
AcDbCircle
 62
7
  6
CONTINUOUS
 10
10.9376923427
 20
9.1479961101
 40
1.5483420064
100
AcDbArc
 50
97.1232192299
 51
99.8547367444
  0
ARC
  5
26D
100
AcDbEntity
  8
0
100
AcDbCircle
 62
7
  6
CONTINUOUS
 10
10.9376923427
 20
9.1479961101
 40
1.5483420064
100
AcDbArc
 50
82.1676580455
 51
84.8865797045
  0
ARC
  5
26E
100
AcDbEntity
  8
0
100
AcDbCircle
 62
7
  6
CONTINUOUS
 10
13.0264957217
 20
9.2617635507
 40
1.541
100
AcDbArc
 50
190.8813003471
 51
225.7236108955
  0
CIRCLE
  5
26F
100
AcDbEntity
  8
0
100
AcDbCircle
 62
7
  6
CONTINUOUS
 10
10.9376923427
 20
10.1976695021
 40
0.275
  0
ARC
  5
270
100
AcDbEntity
  8
0
100
AcDbCircle
 62
7
  6
CONTINUOUS
 10
12.1201923427
 20
10.1976695021
 40
0.275
100
AcDbArc
 50
235.0
 51
125.0
  0
ARC
  5
271
100
AcDbEntity
  8
0
100
AcDbCircle
 62
7
  6
CONTINUOUS
 10
11.6475683017
 20
9.8361695021
 40
0.25
100
AcDbArc
 50
43.0260516848
 51
132.3149101303
  0
ARC
  5
272
100
AcDbEntity
  8
0
100
AcDbCircle
 62
7
  6
CONTINUOUS
 10
11.6475683017
 20
10.5591695021
 40
0.25
100
AcDbArc
 50
227.6850112559
 51
316.9739483152
  0
ARC
  5
273
100
AcDbEntity
  8
0
100
AcDbCircle
 62
7
  6
CONTINUOUS
 10
11.3251923427
 20
10.6184692704
 40
0.03
100
AcDbArc
 50
9.9821323113
 51
75.2370022573
  0
ARC
  5
274
100
AcDbEntity
  8
0
100
AcDbCircle
 62
7
  6
CONTINUOUS
 10
11.8711923427
 20
10.0167757738
 40
0.016
100
AcDbArc
 50
55.0000000002
 51
180.0
  0
ARC
  5
275
100
AcDbEntity
  8
0
100
AcDbCircle
 62
7
  6
CONTINUOUS
 10
11.8711923427
 20
10.3785632305
 40
0.016
100
AcDbArc
 50
180.0
 51
304.9999999998
  0
ARC
  5
276
100
AcDbEntity
  8
0
100
AcDbCircle
 62
7
  6
CONTINUOUS
 10
11.8420258806
 20
10.3776695021
 40
0.016
100
AcDbArc
 50
34.6234510999
 51
136.9739483152
  0
ARC
  5
277
100
AcDbEntity
  8
0
100
AcDbCircle
 62
7
  6
CONTINUOUS
 10
11.8420258806
 20
10.0176695021
 40
0.016
100
AcDbArc
 50
223.0260516849
 51
325.3765489001
  0
ARC
  5
278
100
AcDbEntity
  8
0
100
AcDbCircle
 62
7
  6
CONTINUOUS
 10
10.980535104
 20
12.7589866028
 40
2.0625419225
100
AcDbArc
 50
270.2381233685
 51
270.638716879
  0
ARC
  5
279
100
AcDbEntity
  8
0
100
AcDbCircle
 62
7
  6
CONTINUOUS
 10
11.3052714502
 20
11.6660005524
 40
0.995357868
100
AcDbArc
 50
260.3999456818
 51
260.9492438972
  0
ARC
  5
27A
100
AcDbEntity
  8
0
100
AcDbCircle
 62
7
  6
CONTINUOUS
 10
11.1369295204
 20
11.5902263744
 40
0.9009980523
100
AcDbArc
 50
266.102834266
 51
266.6275739263
  0
SPLINE
  5
27B
100
AcDbEntity
  8
0
100
AcDbSpline
 62
7
  6
CONTINUOUS
 70
0
 71
3
 72
31
 73
27
 74
0
 42
0.0000001
 43
0.0000001
 44
0.0000000001
 40
0.0
 40
0.0
 40
0.0
 40
0.0
 40
0.0002600568
 40
0.0005849179
 40
0.001039488
 40
0.0023372166
 40
0.0041521657
 40
0.0064832587
 40
0.0093294191
 40
0.0126895707
 40
0.0165626376
 40
0.0258432141
 40
0.0371625451
 40
0.0505120306
 40
0.0658830742
 40
0.0832670831
 40
0.1026554681
 40
0.1474109731
 40
0.2000542611
 40
0.2604201489
 40
0.3283324518
 40
0.4036154225
 40
0.4860937918
 40
0.5755928019
 40
0.7749207555
 40
1.0
 40
1.0
 40
1.0
 40
1.0
 10
11.4951923533
 20
10.4026695021
 30
0.0
 10
11.4951899562
 20
10.4026695021
 30
0.0
 10
11.4951890552
 20
10.4026616146
 30
0.0
 10
11.4951832104
 20
10.4026550544
 30
0.0
 10
11.4951739913
 20
10.402637627
 30
0.0
 10
11.4951568257
 20
10.4026100495
 30
0.0
 10
11.4951314599
 20
10.4025665261
 30
0.0
 10
11.4950985725
 20
10.402511185
 30
0.0
 10
11.4950585628
 20
10.402443388
 30
0.0
 10
11.4950113148
 20
10.4023634017
 30
0.0
 10
11.4949339732
 20
10.4022322912
 30
0.0
 10
11.494819462
 20
10.402037936
 30
0.0
 10
11.4946608155
 20
10.4017681965
 30
0.0
 10
11.494473946
 20
10.401449928
 30
0.0
 10
11.4942590503
 20
10.401083289
 30
0.0
 10
11.4940163217
 20
10.4006684423
 30
0.0
 10
11.4936373078
 20
10.4000195244
 30
0.0
 10
11.4930954701
 20
10.399089324
 30
0.0
 10
11.4923656061
 20
10.3978315256
 30
0.0
 10
11.4915321861
 20
10.3963870377
 30
0.0
 10
11.4905992603
 20
10.3947590411
 30
0.0
 10
11.4895709922
 20
10.3929507726
 30
0.0
 10
11.4884515299
 20
10.3909654768
 30
0.0
 10
11.4867819846
 20
10.3879777339
 30
0.0
 10
11.4844973868
 20
10.3838279787
 30
0.0
 10
11.482645072
 20
10.3803821569
 30
0.0
 10
11.4816727807
 20
10.3785493889
 30
0.0
  0
SPLINE
  5
27C
100
AcDbEntity
  8
0
100
AcDbSpline
 62
7
  6
CONTINUOUS
 70
0
 71
3
 72
16
 73
12
 74
0
 42
0.0000001
 43
0.0000001
 44
0.0000000001
 40
0.0
 40
0.0
 40
0.0
 40
0.0
 40
0.1873976981
 40
0.3016155914
 40
0.4268173384
 40
0.5611983083
 40
0.702968917
 40
0.7760085099
 40
0.8501277283
 40
0.9249406629
 40
1.0
 40
1.0
 40
1.0
 40
1.0
 10
11.4816727807
 20
10.3785493889
 30
0.0
 10
11.476125202
 20
10.3680922096
 30
0.0
 10
11.4677121666
 20
10.3509770149
 30
0.0
 10
11.457251397
 20
10.326118967
 30
0.0
 10
11.449219142
 20
10.3039010718
 30
0.0
 10
11.4420674489
 20
10.2795591531
 30
0.0
 10
11.4373825744
 20
10.2579801636
 30
0.0
 10
11.43458151
 20
10.239940677
 30
0.0
 10
11.4330286945
 20
10.2260006509
 30
0.0
 10
11.4320764839
 20
10.2118793478
 30
0.0
 10
11.4318583068
 20
10.2024108661
 30
0.0
 10
11.4318583068
 20
10.1976695021
 30
0.0
  0
SPLINE
  5
27D
100
AcDbEntity
  8
0
100
AcDbSpline
 62
7
  6
CONTINUOUS
 70
0
 71
3
 72
25
 73
21
 74
0
 42
0.0000001
 43
0.0000001
 44
0.0000000001
 40
0.0
 40
0.0
 40
0.0
 40
0.0
 40
0.0010394726
 40
0.0023371779
 40
0.0041520938
 40
0.0093292518
 40
0.0165623389
 40
0.0258427505
 40
0.0371618854
 40
0.0505111461
 40
0.0658819387
 40
0.1026537586
 40
0.147408622
 40
0.2000516019
 40
0.2604176332
 40
0.3283303745
 40
0.4036139221
 40
0.5755919289
 40
0.7749203684
 40
1.0
 40
1.0
 40
1.0
 40
1.0
 10
11.4951923442
 20
9.9926695021
 30
0.0
 10
11.4951857181
 20
9.9926764215
 30
0.0
 10
11.4951774704
 20
9.9926970305
 30
0.0
 10
11.495156551
 20
9.9927288799
 30
0.0
 10
11.4951184392
 20
9.9927952405
 30
0.0
 10
11.4950511274
 20
9.9929076501
 30
0.0
 10
11.4949498141
 20
9.9930800386
 30
0.0
 10
11.4948194944
 20
9.9933009713
 30
0.0
 10
11.4946609144
 20
9.9935707061
 30
0.0
 10
11.4944740623
 20
9.9938889244
 30
0.0
 10
11.49416885
 20
9.9944096838
 30
0.0
 10
11.493718194
 20
9.9951806997
 30
0.0
 10
11.493095787
 20
9.9962492241
 30
0.0
 10
11.4923660008
 20
9.9975068578
 30
0.0
 10
11.4915326535
 20
9.9989511601
 30
0.0
 10
11.4905997975
 20
10.0005789502
 30
0.0
 10
11.4891638311
 20
10.0031040251
 30
0.0
 10
11.4871494111
 20
10.0066934652
 30
0.0
 10
11.484498332
 20
10.0115085832
 30
0.0
 10
11.4826461511
 20
10.0149539568
 30
0.0
 10
11.481673947
 20
10.016786494
 30
0.0
  0
SPLINE
  5
27E
100
AcDbEntity
  8
0
100
AcDbSpline
 62
7
  6
CONTINUOUS
 70
0
 71
3
 72
16
 73
12
 74
0
 42
0.0000001
 43
0.0000001
 44
0.0000000001
 40
0.0
 40
0.0
 40
0.0
 40
0.0
 40
0.1873931638
 40
0.3016111881
 40
0.4268135038
 40
0.5611954719
 40
0.702967056
 40
0.7760070278
 40
0.8501263658
 40
0.9249397987
 40
1.0
 40
1.0
 40
1.0
 40
1.0
 10
11.481673947
 20
10.016786494
 30
0.0
 10
11.4761262488
 20
10.0272435197
 30
0.0
 10
11.4677143764
 20
10.0443593395
 30
0.0
 10
11.4572524718
 20
10.0692171239
 30
0.0
 10
11.4492194501
 20
10.0914353218
 30
0.0
 10
11.4420679535
 20
10.1157779336
 30
0.0
 10
11.4373829421
 20
10.137357429
 30
0.0
 10
11.4345817061
 20
10.1553973057
 30
0.0
 10
11.4330287232
 20
10.1693376235
 30
0.0
 10
11.4320764832
 20
10.1834592678
 30
0.0
 10
11.4318583068
 20
10.1929280008
 30
0.0
 10
11.4318583068
 20
10.1976695021
 30
0.0
  0
SPLINE
  5
27F
100
AcDbEntity
  8
0
100
AcDbSpline
 62
7
  6
CONTINUOUS
 70
0
 71
3
 72
15
 73
11
 74
0
 42
0.0000001
 43
0.0000001
 44
0.0000000001
 40
0.0
 40
0.0
 40
0.0
 40
0.0
 40
0.0750939539
 40
0.1499260808
 40
0.2240498858
 40
0.2971058143
 40
0.4389127373
 40
0.573341426
 40
0.8126956894
 40
1.0
 40
1.0
 40
1.0
 40
1.0
 10
10.4435263787
 20
10.1976695021
 30
0.0
 10
10.4435263787
 20
10.202415616
 30
0.0
 10
10.4433084822
 20
10.211892609
 30
0.0
 10
10.4423559933
 20
10.226025316
 30
0.0
 10
10.4407978373
 20
10.2399749424
 30
0.0
 10
10.4379934071
 20
10.2580274683
 30
0.0
 10
10.4333005335
 20
10.2796238647
 30
0.0
 10
10.4241041998
 20
10.3109079307
 30
0.0
 10
10.4111177571
 20
10.3439826216
 30
0.0
 10
10.3992074251
 20
10.3681969371
 30
0.0
 10
10.3936568116
 20
10.3786530655
 30
0.0
  0
SPLINE
  5
280
100
AcDbEntity
  8
0
100
AcDbSpline
 62
7
  6
CONTINUOUS
 70
0
 71
3
 72
31
 73
27
 74
0
 42
0.0000001
 43
0.0000001
 44
0.0000000001
 40
0.0
 40
0.0
 40
0.0
 40
0.0
 40
0.2250737351
 40
0.424380272
 40
0.5138837055
 40
0.5963765969
 40
0.6716762063
 40
0.739599236
 40
0.7999618724
 40
0.8525806211
 40
0.8973135823
 40
0.9166976678
 40
0.934081037
 40
0.9494543457
 40
0.9628082452
 40
0.9741333829
 40
0.9834204016
 40
0.9872966913
 40
0.9906599403
 40
0.993508978
 40
0.9958426333
 40
0.9976597349
 40
0.9989591111
 40
0.999414286
 40
0.9997395902
 40
1.0
 40
1.0
 40
1.0
 40
1.0
 10
10.3936568116
 20
10.3786530655
 30
0.0
 10
10.392688183
 20
10.3804777476
 30
0.0
 10
10.3908429162
 20
10.3839082154
 30
0.0
 10
10.3885682555
 20
10.3880402443
 30
0.0
 10
10.3869056475
 20
10.3910151922
 30
0.0
 10
10.3857904983
 20
10.3929921858
 30
0.0
 10
10.3847660936
 20
10.3947929334
 30
0.0
 10
10.3838367737
 20
10.3964140693
 30
0.0
 10
10.3830068475
 20
10.3978522173
 30
0.0
 10
10.3822805237
 20
10.3991043971
 30
0.0
 10
10.3817414219
 20
10.4000303559
 30
0.0
 10
10.3813641849
 20
10.4006763246
 30
0.0
 10
10.3811225005
 20
10.4010893893
 30
0.0
 10
10.3809084645
 20
10.4014545053
 30
0.0
 10
10.3807222901
 20
10.4017714968
 30
0.0
 10
10.3805641826
 20
10.4020401918
 30
0.0
 10
10.380450045
 20
10.4022338144
 30
0.0
 10
10.3803729155
 20
10.4023644452
 30
0.0
 10
10.3803258361
 20
10.4024441486
 30
0.0
 10
10.3802858196
 20
10.4025117105
 30
0.0
 10
10.3802533241
 20
10.4025668633
 30
0.0
 10
10.3802272223
 20
10.4026102417
 30
0.0
 10
10.3802117473
 20
10.4026377286
 30
0.0
 10
10.3802003262
 20
10.4026550999
 30
0.0
 10
10.3801983935
 20
10.4026616391
 30
0.0
 10
10.3801899526
 20
10.4026695021
 30
0.0
 10
10.3801923427
 20
10.4026695021
 30
0.0
  0
SPLINE
  5
281
100
AcDbEntity
  8
0
100
AcDbSpline
 62
7
  6
CONTINUOUS
 70
0
 71
3
 72
16
 73
12
 74
0
 42
0.0000001
 43
0.0000001
 44
0.0000000001
 40
0.0
 40
0.0
 40
0.0
 40
0.0
 40
0.0750881695
 40
0.1499142342
 40
0.2240318193
 40
0.2970819273
 40
0.4388777191
 40
0.573296224
 40
0.6984996614
 40
0.8127101875
 40
1.0
 40
1.0
 40
1.0
 40
1.0
 10
10.4435263787
 20
10.1976695021
 30
0.0
 10
10.4435263787
 20
10.1929233545
 30
0.0
 10
10.4433084804
 20
10.1834463134
 30
0.0
 10
10.4423559553
 20
10.169313555
 30
0.0
 10
10.4407976771
 20
10.1553639152
 30
0.0
 10
10.4379931319
 20
10.1373112858
 30
0.0
 10
10.4333003231
 20
10.115715094
 30
0.0
 10
10.4261384485
 20
10.0913554199
 30
0.0
 10
10.4180960661
 20
10.0691233446
 30
0.0
 10
10.4076262068
 20
10.0442586269
 30
0.0
 10
10.3992068433
 20
10.0271413786
 30
0.0
 10
10.3936562464
 20
10.016685151
 30
0.0
  0
SPLINE
  5
282
100
AcDbEntity
  8
0
100
AcDbSpline
 62
7
  6
CONTINUOUS
 70
0
 71
3
 72
25
 73
21
 74
0
 42
0.0000001
 43
0.0000001
 44
0.0000000001
 40
0.0
 40
0.0
 40
0.0
 40
0.0
 40
0.2250735161
 40
0.4243801301
 40
0.5963773273
 40
0.6716775967
 40
0.739601085
 40
0.7999637963
 40
0.8525821072
 40
0.8973146187
 40
0.9340817472
 40
0.9494549309
 40
0.9628087243
 40
0.9741337704
 40
0.9834207078
 40
0.990660171
 40
0.9958427906
 40
0.997659855
 40
0.9989591929
 40
1.0
 40
1.0
 40
1.0
 40
1.0
 10
10.3936562464
 20
10.016685151
 30
0.0
 10
10.3926876626
 20
10.0148605304
 30
0.0
 10
10.3908424855
 20
10.0114301712
 30
0.0
 10
10.3882028489
 20
10.006634962
 30
0.0
 10
10.3861964768
 20
10.0030604987
 30
0.0
 10
10.3847658742
 20
10.0005457886
 30
0.0
 10
10.3838365715
 20
9.9989247072
 30
0.0
 10
10.3830066653
 20
9.9974866127
 30
0.0
 10
10.3822803806
 20
9.9962344845
 30
0.0
 10
10.3816610264
 20
9.9951706691
 30
0.0
 10
10.381212417
 20
9.9944030685
 30
0.0
 10
10.3809083896
 20
9.9938844299
 30
0.0
 10
10.3807223197
 20
9.9935675674
 30
0.0
 10
10.3805639618
 20
9.9932985312
 30
0.0
 10
10.3804348913
 20
9.9930792918
 30
0.0
 10
10.3803316682
 20
9.9929052218
 30
0.0
 10
10.3802690793
 20
9.9927979469
 30
0.0
 10
10.3802249254
 20
9.9927254075
 30
0.0
 10
10.3802148217
 20
9.9927049016
 30
0.0
 10
10.3801857461
 20
9.9926626027
 30
0.0
 10
10.3801923531
 20
9.9926695021
 30
0.0
  0
LINE
  5
283
100
AcDbEntity
  8
0
100
AcDbLine
 62
7
  6
CONTINUOUS
 10
10.8576923513
 20
10.696604508
 11
10.8656991967
 21
10.6964647827
  0
LINE
  5
284
100
AcDbEntity
  8
0
100
AcDbLine
 62
7
  6
CONTINUOUS
 10
10.8656991967
 20
10.6964647827
 11
10.8852731465
 21
10.6963408287
  0
LINE
  5
285
100
AcDbEntity
  8
0
100
AcDbLine
 62
7
  6
CONTINUOUS
 10
10.8852731465
 20
10.6963408287
 11
10.894244439
 21
10.6963348543
  0
LINE
  5
286
100
AcDbEntity
  8
0
100
AcDbLine
 62
7
  6
CONTINUOUS
 10
10.894244439
 20
10.6963348543
 11
10.9045174165
 21
10.6963386933
  0
LINE
  5
287
100
AcDbEntity
  8
0
100
AcDbLine
 62
7
  6
CONTINUOUS
 10
10.9045174165
 20
10.6963386933
 11
10.9279728147
 21
10.6963566641
  0
LINE
  5
288
100
AcDbEntity
  8
0
100
AcDbLine
 62
7
  6
CONTINUOUS
 10
10.9279728147
 20
10.6963566641
 11
10.9401539757
 21
10.6963694963
  0
LINE
  5
289
100
AcDbEntity
  8
0
100
AcDbLine
 62
7
  6
CONTINUOUS
 10
10.9401539757
 20
10.6963694963
 11
10.9737328316
 21
10.6964198343
  0
LINE
  5
28A
100
AcDbEntity
  8
0
100
AcDbLine
 62
7
  6
CONTINUOUS
 10
10.9737328316
 20
10.6964198343
 11
10.9822307365
 21
10.6964388265
  0
LINE
  5
28B
100
AcDbEntity
  8
0
100
AcDbLine
 62
7
  6
CONTINUOUS
 10
10.9822307365
 20
10.6964388265
 11
10.9891070795
 21
10.696462493
  0
LINE
  5
28C
100
AcDbEntity
  8
0
100
AcDbLine
 62
7
  6
CONTINUOUS
 10
11.0035272522
 20
10.6965728365
 11
11.0146923428
 21
10.6967565721
  0
LINE
  5
28D
100
AcDbEntity
  8
0
100
AcDbLine
 62
7
  6
CONTINUOUS
 10
10.7731923427
 20
10.6899143047
 11
10.7791923427
 21
10.6905153867
  0
LINE
  5
28E
100
AcDbEntity
  8
0
100
AcDbLine
 62
7
  6
CONTINUOUS
 10
10.7291923427
 20
10.6845558124
 11
10.7321778356
 21
10.6849829719
  0
LINE
  5
28F
100
AcDbEntity
  8
0
100
AcDbLine
 62
7
  6
CONTINUOUS
 10
10.9376923427
 20
8.1584376289
 11
10.9376923427
 21
8.9708613519
  0
LINE
  5
290
100
AcDbEntity
  8
0
100
AcDbLine
 62
7
  6
CONTINUOUS
 10
10.9789923427
 20
10.6981194209
 11
10.9753001338
 21
10.6979395785
  0
SPLINE
  5
291
100
AcDbEntity
  8
0
100
AcDbSpline
 62
7
  6
CONTINUOUS
 70
0
 71
3
 72
19
 73
15
 74
0
 42
0.0000001
 43
0.0000001
 44
0.0000000001
 40
0.0
 40
0.0
 40
0.0
 40
0.0
 40
0.0915590026
 40
0.242471412
 40
0.4326200326
 40
0.5340414726
 40
0.6327099924
 40
0.806331281
 40
0.8749006925
 40
0.9267593205
 40
0.9621039964
 40
0.983819218
 40
0.9954060636
 40
1.0
 40
1.0
 40
1.0
 40
1.0
 10
10.9753001338
 20
10.6979395785
 30
0.0
 10
10.9728210338
 20
10.6978533385
 30
0.0
 10
10.9662528701
 20
10.6977139072
 30
0.0
 10
10.9545327572
 20
10.6975803797
 30
0.0
 10
10.9425448157
 20
10.6974942168
 30
0.0
 10
10.931972091
 20
10.6974820058
 30
0.0
 10
10.921847203
 20
10.6975133332
 30
0.0
 10
10.9126124828
 20
10.6975761295
 30
0.0
 10
10.9046464113
 20
10.6976742247
 30
0.0
 10
10.9004268202
 20
10.6977573724
 30
0.0
 10
10.8974772293
 20
10.6978472685
 30
0.0
 10
10.8956190859
 20
10.6979298681
 30
0.0
 10
10.8945944775
 20
10.6979956181
 30
0.0
 10
10.8941576082
 20
10.6980334863
 30
0.0
 10
10.8940340231
 20
10.6980482444
 30
0.0
  0
LINE
  5
292
100
AcDbEntity
  8
0
100
AcDbLine
 62
7
  6
CONTINUOUS
 10
10.8939923427
 20
10.6970532207
 11
10.9047947732
 21
10.6966772533
  0
LINE
  5
293
100
AcDbEntity
  8
0
100
AcDbLine
 62
7
  6
CONTINUOUS
 10
10.9709808561
 20
10.6968187907
 11
10.9789923427
 21
10.6971190658
  0
SPLINE
  5
294
100
AcDbEntity
  8
0
100
AcDbSpline
 62
7
  6
CONTINUOUS
 70
0
 71
3
 72
23
 73
19
 74
0
 42
0.0000001
 43
0.0000001
 44
0.0000000001
 40
0.0
 40
0.0
 40
0.0
 40
0.0
 40
0.2070239495
 40
0.3991839148
 40
0.5710038036
 40
0.6479615294
 40
0.7183270852
 40
0.7816440308
 40
0.8375285845
 40
0.8856270255
 40
0.9255878214
 40
0.957091877
 40
0.9696191368
 40
0.9799800852
 40
0.9881668876
 40
0.9941813162
 40
0.9980565498
 40
1.0
 40
1.0
 40
1.0
 40
1.0
 10
10.6726923427
 20
10.6736243813
 30
0.0
 10
10.6738380538
 20
10.6738384604
 30
0.0
 10
10.6760463992
 20
10.6742556385
 30
0.0
 10
10.6792025386
 20
10.6748667027
 30
0.0
 10
10.6816371104
 20
10.6753520961
 30
0.0
 10
10.6833971944
 20
10.6757133422
 30
0.0
 10
10.6845578349
 20
10.6759568191
 30
0.0
 10
10.6856011893
 20
10.6761814708
 30
0.0
 10
10.6865206467
 20
10.6763858495
 30
0.0
 10
10.687310215
 20
10.6765685435
 30
0.0
 10
10.6879641244
 20
10.6767282017
 30
0.0
 10
10.6884215602
 20
10.6768485847
 30
0.0
 10
10.6887155786
 20
10.6769338083
 30
0.0
 10
10.6888827011
 20
10.6769865273
 30
0.0
 10
10.6890125995
 20
10.6770319294
 30
0.0
 10
10.6891080699
 20
10.6770721175
 30
0.0
 10
10.689164103
 20
10.6771016039
 30
0.0
 10
10.6891923427
 20
10.6771274056
 30
0.0
 10
10.6891923427
 20
10.6771383472
 30
0.0
  0
SPLINE
  5
295
100
AcDbEntity
  8
0
100
AcDbSpline
 62
7
  6
CONTINUOUS
 70
0
 71
3
 72
22
 73
18
 74
0
 42
0.0000001
 43
0.0000001
 44
0.0000000001
 40
0.0
 40
0.0
 40
0.0
 40
0.0
 40
0.0016953086
 40
0.0051932941
 40
0.0108096433
 40
0.01859555
 40
0.0406983981
 40
0.0714721052
 40
0.110793409
 40
0.1583723383
 40
0.2138771564
 40
0.276973798
 40
0.3473015664
 40
0.4244088304
 40
0.5970729573
 40
0.7908040424
 40
1.0
 40
1.0
 40
1.0
 40
1.0
 10
10.7291923427
 20
10.6831039178
 30
0.0
 10
10.7291923427
 20
10.683094546
 30
0.0
 10
10.7292211154
 20
10.6830740054
 30
0.0
 10
10.7292768284
 20
10.6830639425
 30
0.0
 10
10.729371112
 20
10.6830511126
 30
0.0
 10
10.7295663578
 20
10.6830420008
 30
0.0
 10
10.7299024922
 20
10.683042648
 30
0.0
 10
10.73041157
 20
10.6830606906
 30
0.0
 10
10.7310612757
 20
10.6830959289
 30
0.0
 10
10.731846705
 20
10.6831486471
 30
0.0
 10
10.73276273
 20
10.6832184746
 30
0.0
 10
10.7338035487
 20
10.6833051011
 30
0.0
 10
10.7349628289
 20
10.6834080476
 30
0.0
 10
10.736724704
 20
10.6835725456
 30
0.0
 10
10.7391644502
 20
10.6838147395
 30
0.0
 10
10.7423289538
 20
10.6841472552
 30
0.0
 10
10.7445430636
 20
10.684390409
 30
0.0
 10
10.7456923427
 20
10.68451901
 30
0.0
  0
SPLINE
  5
296
100
AcDbEntity
  8
0
100
AcDbSpline
 62
7
  6
CONTINUOUS
 70
0
 71
3
 72
23
 73
19
 74
0
 42
0.0000001
 43
0.0000001
 44
0.0000000001
 40
0.0
 40
0.0
 40
0.0
 40
0.0
 40
0.2081142846
 40
0.400997944
 40
0.5730863556
 40
0.6500184292
 40
0.7202699647
 40
0.7833976921
 40
0.839035178
 40
0.8868508504
 40
0.9265154576
 40
0.9577306625
 40
0.9701210229
 40
0.9803525161
 40
0.9884193544
 40
0.9943259144
 40
0.9981101812
 40
1.0
 40
1.0
 40
1.0
 40
1.0
 10
10.7626923427
 20
10.6865479038
 30
0.0
 10
10.7638424856
 20
10.6866937264
 30
0.0
 10
10.7660580309
 20
10.6869792142
 30
0.0
 10
10.7692224512
 20
10.6874019017
 30
0.0
 10
10.7716606418
 20
10.6877416841
 30
0.0
 10
10.7734207597
 20
10.687997324
 30
0.0
 10
10.7745794296
 20
10.6881708616
 30
0.0
 10
10.7756199271
 20
10.6883324547
 30
0.0
 10
10.7765359298
 20
10.6884810824
 30
0.0
 10
10.7773217787
 20
10.6886157298
 30
0.0
 10
10.7779720565
 20
10.688735424
 30
0.0
 10
10.7784267945
 20
10.6888277419
 30
0.0
 10
10.7787190038
 20
10.688894812
 30
0.0
 10
10.7788849267
 20
10.6889371732
 30
0.0
 10
10.7790138455
 20
10.6889743342
 30
0.0
 10
10.779108546
 20
10.6890086639
 30
0.0
 10
10.7791642358
 20
10.6890340976
 30
0.0
 10
10.7791923427
 20
10.6890585791
 30
0.0
 10
10.7791923427
 20
10.6890691068
 30
0.0
  0
LINE
  5
297
100
AcDbEntity
  8
0
100
AcDbLine
 62
7
  6
CONTINUOUS
 10
10.8191923427
 20
10.6926597888
 11
10.8237352998
 21
10.6925902652
  0
LINE
  5
298
100
AcDbEntity
  8
0
100
AcDbLine
 62
7
  6
CONTINUOUS
 10
10.8237352998
 20
10.6925902652
 11
10.8356923427
 21
10.6931054132
  0
LINE
  5
299
100
AcDbEntity
  8
0
100
AcDbLine
 62
7
  6
CONTINUOUS
 10
10.8356923427
 20
10.6941083716
 11
10.8237360884
 21
10.6935935891
  0
LINE
  5
29A
100
AcDbEntity
  8
0
100
AcDbLine
 62
7
  6
CONTINUOUS
 10
10.8237360884
 20
10.6935935891
 11
10.8191923427
 21
10.6936630287
  0
LINE
  5
29B
100
AcDbEntity
  8
0
100
AcDbLine
 62
7
  6
CONTINUOUS
 10
10.7791923427
 20
10.690074684
 11
10.774701713
 21
10.6891967158
  0
LINE
  5
29C
100
AcDbEntity
  8
0
100
AcDbLine
 62
7
  6
CONTINUOUS
 10
10.774701713
 20
10.6891967158
 11
10.7626923427
 21
10.6875551277
  0
LINE
  5
29D
100
AcDbEntity
  8
0
100
AcDbLine
 62
7
  6
CONTINUOUS
 10
10.7456923427
 20
10.685527563
 11
10.7337235802
 21
10.6843086135
  0
LINE
  5
29E
100
AcDbEntity
  8
0
100
AcDbLine
 62
7
  6
CONTINUOUS
 10
10.7337235802
 20
10.6843086135
 11
10.7291923427
 21
10.6841133999
  0
LINE
  5
29F
100
AcDbEntity
  8
0
100
AcDbLine
 62
7
  6
CONTINUOUS
 10
10.6891923427
 20
10.6781517649
 11
10.6847129721
 21
10.6770050471
  0
LINE
  5
2A0
100
AcDbEntity
  8
0
100
AcDbLine
 62
7
  6
CONTINUOUS
 10
10.6847129721
 20
10.6770050471
 11
10.6726923427
 21
10.6746401317
  0
SPLINE
  5
2A1
100
AcDbEntity
  8
0
100
AcDbSpline
 62
7
  6
CONTINUOUS
 70
0
 71
3
 72
23
 73
19
 74
0
 42
0.0000001
 43
0.0000001
 44
0.0000000001
 40
0.0
 40
0.0
 40
0.0
 40
0.0
 40
0.0017474796
 40
0.0053714027
 40
0.0110614012
 40
0.0188487938
 40
0.0287379672
 40
0.0407252246
 40
0.0709641902
 40
0.1094651695
 40
0.1560120854
 40
0.2103629544
 40
0.272274046
 40
0.3414793478
 40
0.4176573013
 40
0.5896080823
 40
0.7851065757
 40
1.0
 40
1.0
 40
1.0
 40
1.0
 10
11.1301923427
 20
10.6853831068
 30
0.0
 10
11.1301923427
 20
10.685372144
 30
0.0
 10
11.1302237078
 20
10.6853471175
 30
0.0
 10
11.1302828161
 20
10.6853196138
 30
0.0
 10
11.1303855994
 20
10.6852816167
 30
0.0
 10
11.1305249775
 20
10.6852391882
 30
0.0
 10
11.1307048276
 20
10.6851899566
 30
0.0
 10
11.1310218346
 20
10.6851105562
 30
0.0
 10
11.1315159325
 20
10.684998698
 30
0.0
 10
11.1322238099
 20
10.6848505136
 30
0.0
 10
11.1330817265
 20
10.6846807468
 30
0.0
 10
11.134085203
 20
10.6844903142
 30
0.0
 10
11.135229611
 20
10.6842801801
 30
0.0
 10
11.1365097835
 20
10.6840513197
 30
0.0
 10
11.1384708416
 20
10.6837084502
 30
0.0
 10
11.1412146887
 20
10.6832425472
 30
0.0
 10
11.144819284
 20
10.6826476984
 30
0.0
 10
11.1473610666
 20
10.6822378807
 30
0.0
 10
11.1486923427
 20
10.6820253217
 30
0.0
  0
SPLINE
  5
2A2
100
AcDbEntity
  8
0
100
AcDbSpline
 62
7
  6
CONTINUOUS
 70
0
 71
3
 72
22
 73
18
 74
0
 42
0.0000001
 43
0.0000001
 44
0.0000000001
 40
0.0
 40
0.0
 40
0.0
 40
0.0
 40
0.2162051588
 40
0.4128373546
 40
0.585612324
 40
0.6618890682
 40
0.7310300359
 40
0.7927665129
 40
0.8468303427
 40
0.8929553163
 40
0.9309361809
 40
0.9606639836
 40
0.9820474843
 40
0.9895909755
 40
0.9950371157
 40
0.9984228133
 40
1.0
 40
1.0
 40
1.0
 40
1.0
 10
11.0756923427
 20
10.6903070184
 30
0.0
 10
11.077025457
 20
10.690217065
 30
0.0
 10
11.0795712735
 20
10.6900493174
 30
0.0
 10
11.0831834097
 20
10.6898251286
 30
0.0
 10
11.0859332405
 20
10.689667588
 30
0.0
 10
11.0878970061
 20
10.6895652431
 30
0.0
 10
11.0891757433
 20
10.6895037025
 30
0.0
 10
11.0903176087
 20
10.6894543032
 30
0.0
 10
11.0913176486
 20
10.6894172287
 30
0.0
 10
11.0921711267
 20
10.6893925628
 30
0.0
 10
11.0928747188
 20
10.6893804437
 30
0.0
 10
11.0934248687
 20
10.6893801657
 30
0.0
 10
11.0937882908
 20
10.6893908247
 30
0.0
 10
11.0939988889
 20
10.6894062737
 30
0.0
 10
11.0941013278
 20
10.6894218676
 30
0.0
 10
11.0941600547
 20
10.6894335731
 30
0.0
 10
11.0941923427
 20
10.6894540317
 30
0.0
 10
11.0941923427
 20
10.6894637787
 30
0.0
  0
SPLINE
  5
2A3
100
AcDbEntity
  8
0
100
AcDbSpline
 62
7
  6
CONTINUOUS
 70
0
 71
3
 72
18
 73
14
 74
0
 42
0.0000001
 43
0.0000001
 44
0.0000000001
 40
0.0
 40
0.0
 40
0.0
 40
0.0
 40
0.2174237009
 40
0.4108961635
 40
0.579032246
 40
0.7204498156
 40
0.8338870685
 40
0.8798733651
 40
0.9186081483
 40
0.9500239282
 40
0.9740627644
 40
0.9906936408
 40
1.0
 40
1.0
 40
1.0
 40
1.0
 10
11.1392759356
 20
10.6845817965
 30
0.0
 10
11.1386146922
 20
10.6846944191
 30
0.0
 10
11.1373654108
 20
10.6849094068
 30
0.0
 10
11.135606304
 20
10.6852202286
 30
0.0
 10
11.1340796621
 20
10.6854989959
 30
0.0
 10
11.1327978198
 20
10.6857435035
 30
0.0
 10
11.131888094
 20
10.6859276986
 30
0.0
 10
11.1312908619
 20
10.6860580776
 30
0.0
 10
11.130941714
 20
10.6861390003
 30
0.0
 10
11.1306602374
 20
10.686210177
 30
0.0
 10
11.1304453819
 20
10.6862702251
 30
0.0
 10
11.1303010161
 20
10.6863208113
 30
0.0
 10
11.1302255139
 20
10.6863528935
 30
0.0
 10
11.1302040704
 20
10.6863719849
 30
0.0
  0
LINE
  5
2A4
100
AcDbEntity
  8
0
100
AcDbLine
 62
7
  6
CONTINUOUS
 10
11.0941923427
 20
10.6904690647
 11
11.0897957176
 21
10.6904820789
  0
LINE
  5
2A5
100
AcDbEntity
  8
0
100
AcDbLine
 62
7
  6
CONTINUOUS
 10
11.0897957176
 20
10.6904820789
 11
11.0839274468
 21
10.6907886219
  0
ELLIPSE
  5
2A6
100
AcDbEntity
  8
0
100
AcDbEllipse
 62
7
  6
CONTINUOUS
 10
10.9376923427
 20
9.1461682725
 30
0.0
 11
-1.0411369379
 21
0.9898582626
 31
0.0
 40
0.5769821704
 41
-4.2106486927
 42
-3.1634511416
  0
ELLIPSE
  5
2A7
100
AcDbEntity
  8
0
100
AcDbEllipse
 62
7
  6
CONTINUOUS
 10
10.9376923427
 20
9.1461682725
 30
0.0
 11
1.0411369379
 21
0.9898582626
 31
0.0
 40
0.5769821704
 41
-3.1197341656
 42
-2.0725366144
  0
ENDSEC
  0
SECTION
  2
OBJECTS
  0
DICTIONARY
  5
C
100
AcDbDictionary
280
0
281
1
  3
ACAD_GROUP
350
D
  3
ACAD_MLINESTYLE
350
17
  3
ACAD_LAYOUT
350
1A
  3
ACAD_PLOTSETTINGS
350
19
  3
ACAD_PLOTSTYLENAME
350
E
  0
DICTIONARY
  5
D
102
{ACAD_REACTORS
330
C
102
}
100
AcDbDictionary
280
0
281
1
  0
ACDBDICTIONARYWDFLT
  5
E
102
{ACAD_REACTORS
330
C
102
}
100
AcDbDictionary
281
1
  3
Normal
350
F
100
AcDbDictionaryWithDefault
340
F
  0
DICTIONARY
  5
17
102
{ACAD_REACTORS
330
C
102
}
100
AcDbDictionary
280
0
281
1
  3
Standard
350
18
  0
DICTIONARY
  5
19
102
{ACAD_REACTORS
330
C
102
}
100
AcDbDictionary
281
1
  0
DICTIONARY
  5
1A
102
{ACAD_REACTORS
330
C
102
}
100
AcDbDictionary
281
1
  3
Model
350
2A8
  3
Layout1
350
2A9
  0
ACDBPLACEHOLDER
  5
F
102
{ACAD_REACTORS
330
E
102
}
  0
MLINESTYLE
  5
18
102
{ACAD_REACTORS
330
17
102
}
100
AcDbMlineStyle
  2
STANDARD
 70
0
  3

 62
256
 51
90.0
 52
90.0
 71
2
 49
0.5
 62
256
  6
BYLAYER
 49
-0.5
 62
256
  6
BYLAYER
  0
LAYOUT
  5
2A8
102
{ACAD_REACTORS
330
1A
102
}
100
AcDbPlotSettings
  1

  2
none_device
  4
ANSI_C_(22.00_x_17.00_Inches)
  6

 40
0.0
 41
0.0
 42
0.0
 43
0.0
 44
558.8
 45
431.8
 46
0.0
 47
0.0
 48
0.0
 49
0.0
140
0.0
141
0.0
142
1.0
143
1.0
 70
1024
 72
0
 73
0
 74
0
  7

 75
0
147
1.0
148
0.0
149
0.0
100
AcDbLayout
  1
Model
 70
0
 71
0
 10
0.0
 20
0.0
 11
22.0
 21
17.0
 12
0.0
 22
0.0
 32
0.0
 14
0.0
 24
0.0
 34
0.0
 15
0.0
 25
0.0
 35
0.0
146
0.0
 13
0.0
 23
0.0
 33
0.0
 16
1.0
 26
0.0
 36
0.0
 17
0.0
 27
1.0
 37
0.0
 76
0
330
202
345
0
346
0
  0
LAYOUT
  5
2A9
102
{ACAD_REACTORS
330
1A
102
}
100
AcDbPlotSettings
  1

  2
none_device
  4
ANSI_C_(22.00_x_17.00_Inches)
  6

 40
0.0
 41
0.0
 42
0.0
 43
0.0
 44
558.8
 45
431.8
 46
0.0
 47
0.0
 48
0.0
 49
0.0
140
0.0
141
0.0
142
1.0
143
1.0
 70
0
 72
0
 73
0
 74
0
  7

 75
0
147
1.0
148
0.0
149
0.0
100
AcDbLayout
  1
Layout1
 70
0
 71
1
 10
0.0
 20
0.0
 11
22.0
 21
17.0
 12
0.0
 22
0.0
 32
0.0
 14
0.0
 24
0.0
 34
0.0
 15
0.0
 25
0.0
 35
0.0
146
0.0
 13
0.0
 23
0.0
 33
0.0
 16
1.0
 26
0.0
 36
0.0
 17
0.0
 27
1.0
 37
0.0
 76
0
330
203
345
0
346
0
  0
ENDSEC
  0
EOF
