999
DXF file: E:\BT Custom\CADOUTPUT\_RIGHT.dxf
999
Pro/ENGINEER 2018400 by Parametric Technology Corporation
  0
SECTION
  2
HEADER
  9
$ACADVER
  1
AC1018
  9
$DWGCODEPAGE
  3
ANSI_1252
  9
$EXTMAX
 10
22.0
 20
17.0
 30
0.0
  9
$EXTMIN
 10
0.0
 20
0.0
 30
0.0
  9
$LIMMIN
 10
0.0
 20
0.0
  9
$LIMMAX
 10
22.0
 20
17.0
  9
$VIEWCTR
 10
11.0
 20
8.5
  9
$VIEWSIZE
 40
17.0
  9
$CLAYER
  8
0
  9
$LTSCALE
 40
1.21
  9
$CELTYPE
  6
BYLAYER
  9
$DIMSCALE
 40
1.0
  9
$DIMASZ
 40
0.1
  9
$DIMEXO
 40
0.0625
  9
$DIMDLI
 40
0.836
  9
$DIMEXE
 40
0.125
  9
$DIMCEN
 40
0.198
  9
$DIMLFAC
 40
1.0
  9
$DIMBLK
  1
_FILLED
  9
$DIMALT
 70
1
  9
$DIMALTD
 70
2
  9
$DIMALTTD
 70
2
  9
$DIMALTF
 40
25.4
  9
$DIMTXT
 40
0.08
  9
$DIMTOL
 70
1
  9
$DIMLIM
 70
0
  9
$DIMTFAC
 40
1.0
  9
$DIMTP
 40
0.001
  9
$DIMTM
 40
0.001
  9
$DIMGAP
 40
0.09
  9
$DIMDSEP
 70
46
  9
$AUNITS
 70
0
  9
$PDMODE
 70
3
  9
$PDSIZE
 40
0.06
  9
$HANDSEED
  5
2B5
  9
$TILEMODE
 70
1
  9
$MEASUREMENT
 70
0
  9
$INSUNITS
 70
1
  0
ENDSEC
  0
SECTION
  2
CLASSES
  0
CLASS
  1
ACDBDICTIONARYWDFLT
  2
AcDbDictionaryWithDefault
  3
AutoCAD 2000
 90
0
 91
1
280
0
281
0
  0
CLASS
  1
ACDBPLACEHOLDER
  2
AcDbPlaceHolder
  3
AutoCAD 2000
 90
0
 91
1
280
0
281
0
  0
CLASS
  1
LAYOUT
  2
AcDbLayout
  3
AutoCAD 2000
 90
0
 91
0
280
0
281
0
  0
ENDSEC
  0
SECTION
  2
TABLES
  0
TABLE
  2
VPORT
  5
8
100
AcDbSymbolTable
 70
2
  0
VPORT
  5
1F4
100
AcDbSymbolTableRecord
100
AcDbViewportTableRecord
  2
*ACTIVE
 70
0
 10
0.0
 20
0.0
 11
1.0
 21
1.0
 12
11.0
 22
8.5
 13
0.0
 23
0.0
 14
1.0
 24
1.0
 15
0.0
 25
0.0
 16
0.0
 26
0.0
 36
1.0
 17
0.0
 27
0.0
 37
0.0
 40
17.0
 41
1.2941176471
 42
50.0
 43
0.0
 44
0.0
 50
0.0
 51
0.0
 71
0
 72
100
 73
1
 74
1
 75
0
 76
0
 77
0
 78
0
  0
ENDTAB
  0
TABLE
  2
LTYPE
  5
5
100
AcDbSymbolTable
 70
6
  0
LTYPE
  5
14
100
AcDbSymbolTableRecord
100
AcDbLinetypeTableRecord
  2
BYBLOCK
 70
0
  3

 72
65
 73
0
 40
0.0
  0
LTYPE
  5
15
100
AcDbSymbolTableRecord
100
AcDbLinetypeTableRecord
  2
BYLAYER
 70
0
  3

 72
65
 73
0
 40
0.0
  0
LTYPE
  5
16
100
AcDbSymbolTableRecord
100
AcDbLinetypeTableRecord
  2
CONTINUOUS
 70
64
  3
Solid line
 72
65
 73
0
 40
0.0
  0
LTYPE
  5
1F5
100
AcDbSymbolTableRecord
100
AcDbLinetypeTableRecord
  2
CENTER
 70
64
  3
____ _ ____ _ ____ _ ____ _ ____ _ ____ _ ____
 72
65
 73
4
 40
0.6
 49
0.375
 74
0
 49
-0.075
 74
0
 49
0.075
 74
0
 49
-0.075
 74
0
  0
LTYPE
  5
1F6
100
AcDbSymbolTableRecord
100
AcDbLinetypeTableRecord
  2
HIDDEN
 70
64
  3
- - - - - - - - - - - - - - - - - - - -
 72
65
 73
2
 40
0.2
 49
0.1
 74
0
 49
-0.1
 74
0
  0
LTYPE
  5
1F7
100
AcDbSymbolTableRecord
100
AcDbLinetypeTableRecord
  2
PHANTOM
 70
64
  3
_____ _ _ _____ _ _ _____ _ _ _____
 72
65
 73
6
 40
0.8
 49
0.45
 74
0
 49
-0.05
 74
0
 49
0.1
 74
0
 49
-0.05
 74
0
 49
0.1
 74
0
 49
-0.05
 74
0
  0
LTYPE
  5
1F8
100
AcDbSymbolTableRecord
100
AcDbLinetypeTableRecord
  2
DOT
 70
64
  3
. . . . . . . . . . . . . . . . . . . .
 72
65
 73
2
 40
0.2
 49
0.1
 74
0
 49
-0.1
 74
0
  0
LTYPE
  5
1F9
100
AcDbSymbolTableRecord
100
AcDbLinetypeTableRecord
  2
DASHED
 70
64
  3
- - - - - - - - - - - - - - - - - - - -
 72
65
 73
2
 40
0.2
 49
0.1
 74
0
 49
-0.1
 74
0
  0
ENDTAB
  0
TABLE
  2
LAYER
  5
2
100
AcDbSymbolTable
 70
36
  0
LAYER
  5
10
100
AcDbSymbolTableRecord
100
AcDbLayerTableRecord
  2
0
 70
0
 62
7
  6
CONTINUOUS
370
-3
390
F
  0
LAYER
  5
1FA
100
AcDbSymbolTableRecord
100
AcDbLayerTableRecord
  2
DEFAULT_1
 70
0
 62
7
  6
CENTER
370
-3
390
F
  0
LAYER
  5
1FB
100
AcDbSymbolTableRecord
100
AcDbLayerTableRecord
  2
DEFAULT_2
 70
0
 62
8
  6
HIDDEN
370
-3
390
F
  0
LAYER
  5
1FC
100
AcDbSymbolTableRecord
100
AcDbLayerTableRecord
  2
DEFAULT_3
 70
0
 62
7
  6
PHANTOM
370
-3
390
F
  0
LAYER
  5
1FD
100
AcDbSymbolTableRecord
100
AcDbLayerTableRecord
  2
ALL_FEATURES
 70
0
 62
7
  6
CONTINUOUS
370
-3
390
F
  0
LAYER
  5
1FE
100
AcDbSymbolTableRecord
100
AcDbLayerTableRecord
  2
AXES_FEATURES
 70
0
 62
7
  6
CONTINUOUS
370
-3
390
F
  0
LAYER
  5
1FF
100
AcDbSymbolTableRecord
100
AcDbLayerTableRecord
  2
DIMENSIONS
 70
0
 62
7
  6
CONTINUOUS
370
-3
390
F
  0
ENDTAB
  0
TABLE
  2
STYLE
  5
3
100
AcDbSymbolTable
 70
1
  0
STYLE
  5
11
100
AcDbSymbolTableRecord
100
AcDbTextStyleTableRecord
  2
STANDARD
 70
0
 40
0.0
 41
0.8
 50
0.0
 71
0
 42
0.2
  3
txt
  4

  0
STYLE
  5
200
100
AcDbSymbolTableRecord
100
AcDbTextStyleTableRecord
  2
TEXTSTYLE_1
 70
0
 40
0.0
 41
0.8
 50
0.0
 71
0
 42
0.2
  3
gdt
  4

  0
ENDTAB
  0
TABLE
  2
VIEW
  5
6
100
AcDbSymbolTable
 70
0
  0
ENDTAB
  0
TABLE
  2
UCS
  5
7
100
AcDbSymbolTable
 70
0
  0
ENDTAB
  0
TABLE
  2
APPID
  5
9
100
AcDbSymbolTable
 70
1
  0
APPID
  5
201
100
AcDbSymbolTableRecord
100
AcDbRegAppTableRecord
  2
ACAD
 70
0
  0
ENDTAB
  0
TABLE
  2
BLOCK_RECORD
  5
1
100
AcDbSymbolTable
 70
0
  0
BLOCK_RECORD
  5
202
100
AcDbSymbolTableRecord
100
AcDbBlockTableRecord
  2
*Model_Space
  0
BLOCK_RECORD
  5
203
100
AcDbSymbolTableRecord
100
AcDbBlockTableRecord
  2
*Paper_Space
  0
BLOCK_RECORD
  5
204
100
AcDbSymbolTableRecord
100
AcDbBlockTableRecord
  2
_FILLED
  0
ENDTAB
  0
TABLE
  2
DIMSTYLE
  5
A
100
AcDbSymbolTable
 70
1
100
AcDbDimStyleTable
 71
0
  0
DIMSTYLE
105
205
100
AcDbSymbolTableRecord
100
AcDbDimStyleTableRecord
  2
STANDARD
 70
0
  3

  4

 40
1.0
 41
0.1
 42
0.0625
 43
0.38
 44
0.125
 45
0.0
 46
0.0
 47
0.001
 48
0.001
140
0.08
141
0.09
142
0.0
143
25.4
144
1.0
145
0.0
146
1.0
147
0.09
 71
1.0
 72
0.0
 73
1
 74
1
 75
0
 76
0
 77
0
 78
4
 79
1
170
1
171
2
172
0
173
0
174
0
175
0
176
0
177
0
178
0
270
2
179
3
271
3
272
3
273
2
274
2
275
0
280
0
281
0
282
0
283
1
284
4
285
0
286
0
287
3
288
0
340
11
278
46
341
204
342
204
343
204
344
204
  0
ENDTAB
  0
ENDSEC
  0
SECTION
  2
BLOCKS
  0
BLOCK
  5
20
100
AcDbEntity
  8
0
100
AcDbBlockBegin
  2
*Model_Space
 70
0
 10
0.0
 20
0.0
 30
0.0
  3
*Model_Space
  1

  0
ENDBLK
  5
21
100
AcDbEntity
  8
0
100
AcDbBlockEnd
  0
BLOCK
  5
1C
100
AcDbEntity
  8
0
100
AcDbBlockBegin
  2
*Paper_Space
 70
0
 10
0.0
 20
0.0
 30
0.0
  3
*Paper_Space
  1

  0
ENDBLK
  5
1D
100
AcDbEntity
  8
0
100
AcDbBlockEnd
  0
BLOCK
  5
206
100
AcDbEntity
  8
0
100
AcDbBlockBegin
  2
_FILLED
 70
64
 10
0.0
 20
0.0
  3
_FILLED
  1

  0
SOLID
  5
207
100
AcDbEntity
  8
0
  6
BYBLOCK
 62
0
100
AcDbTrace
 10
0.0
 20
0.0
 11
-1.0
 21
0.2
 12
-1.0
 22
-0.2
 13
-1.0
 23
-0.2
  0
ENDBLK
  5
208
100
AcDbEntity
  8
0
  6
BYBLOCK
 62
0
100
AcDbBlockEnd
  0
ENDSEC
  0
SECTION
  2
ENTITIES
  0
LINE
  5
209
100
AcDbEntity
  8
0
100
AcDbLine
 62
7
  6
CONTINUOUS
 10
10.255473533
 20
10.365891804
 11
10.1967493369
 21
10.3468111561
  0
LINE
  5
20A
100
AcDbEntity
  8
0
100
AcDbLine
 62
7
  6
CONTINUOUS
 10
9.5224834891
 20
7.578891804
 11
11.8974834891
 21
7.578891804
  0
LINE
  5
20B
100
AcDbEntity
  8
0
100
AcDbLine
 62
7
  6
CONTINUOUS
 10
10.2093302767
 20
10.240391804
 11
10.1824834891
 21
10.224891804
  0
LINE
  5
20C
100
AcDbEntity
  8
0
100
AcDbLine
 62
7
  6
CONTINUOUS
 10
9.5224834891
 20
7.578891804
 11
9.5224834891
 21
7.8856390468
  0
LINE
  5
20D
100
AcDbEntity
  8
0
100
AcDbLine
 62
7
  6
CONTINUOUS
 10
10.1824834891
 20
10.3271759012
 11
10.1967493369
 21
10.3468111561
  0
LINE
  5
20E
100
AcDbEntity
  8
0
100
AcDbLine
 62
7
  6
CONTINUOUS
 10
9.7673062662
 20
9.7721045084
 11
9.6852170091
 21
9.7146249919
  0
LINE
  5
20F
100
AcDbEntity
  8
0
100
AcDbLine
 62
9
  6
CONTINUOUS
 10
11.8796951345
 20
7.9006599308
 11
9.5402718438
 21
7.9006599308
  0
LINE
  5
210
100
AcDbEntity
  8
0
100
AcDbLine
 62
9
  6
CONTINUOUS
 10
9.6852170091
 20
10.1651586162
 11
9.6852170091
 21
9.7146249919
  0
LINE
  5
211
100
AcDbEntity
  8
0
100
AcDbLine
 62
9
  6
CONTINUOUS
 10
9.7673062662
 20
9.7721045084
 11
9.7673062662
 21
10.1076790997
  0
LINE
  5
212
100
AcDbEntity
  8
0
100
AcDbLine
 62
7
  6
CONTINUOUS
 10
9.7924834891
 20
10.1289826937
 11
9.7924834891
 21
9.7508009143
  0
LINE
  5
213
100
AcDbEntity
  8
0
100
AcDbLine
 62
9
  6
CONTINUOUS
 10
9.8173466477
 20
9.7489745108
 11
9.8173466477
 21
10.1308090973
  0
LINE
  5
214
100
AcDbEntity
  8
0
100
AcDbLine
 62
7
  6
CONTINUOUS
 10
11.2374834891
 20
10.255891804
 11
11.2106367016
 21
10.240391804
  0
LINE
  5
215
100
AcDbEntity
  8
0
100
AcDbLine
 62
9
  6
CONTINUOUS
 10
10.1788174793
 20
9.7852730963
 11
10.1788174793
 21
10.094511264
  0
LINE
  5
216
100
AcDbEntity
  8
0
100
AcDbLine
 62
7
  6
CONTINUOUS
 10
10.1824834891
 20
10.3271759012
 11
10.1824834891
 21
10.255891804
  0
LINE
  5
217
100
AcDbEntity
  8
0
100
AcDbLine
 62
7
  6
CONTINUOUS
 10
10.0454418051
 20
8.7130836538
 11
10.1326332199
 21
9.105891804
  0
LINE
  5
218
100
AcDbEntity
  8
0
100
AcDbLine
 62
9
  6
CONTINUOUS
 10
10.200977513
 20
10.03565161
 11
10.200977513
 21
9.8441295015
  0
LINE
  5
219
100
AcDbEntity
  8
0
100
AcDbLine
 62
7
  6
CONTINUOUS
 10
10.2799834891
 20
9.225891804
 11
10.2799834891
 21
9.105891804
  0
LINE
  5
21A
100
AcDbEntity
  8
0
100
AcDbLine
 62
7
  6
CONTINUOUS
 10
11.2374834891
 20
9.655891804
 11
11.0804834891
 21
9.604891804
  0
LINE
  5
21B
100
AcDbEntity
  8
0
100
AcDbLine
 62
7
  6
CONTINUOUS
 10
10.3664834891
 20
9.604891804
 11
10.3664834891
 21
9.245891804
  0
LINE
  5
21C
100
AcDbEntity
  8
0
100
AcDbLine
 62
7
  6
CONTINUOUS
 10
10.3777126471
 20
8.7130836538
 11
10.4213083545
 21
9.105891804
  0
LINE
  5
21D
100
AcDbEntity
  8
0
100
AcDbLine
 62
7
  6
CONTINUOUS
 10
11.6526607121
 20
10.1076790997
 11
11.7347499691
 21
10.1651586162
  0
LINE
  5
21E
100
AcDbEntity
  8
0
100
AcDbLine
 62
9
  6
CONTINUOUS
 10
10.0454418051
 20
8.7130836538
 11
11.3745251731
 21
8.7130836538
  0
LINE
  5
21F
100
AcDbEntity
  8
0
100
AcDbLine
 62
7
  6
CONTINUOUS
 10
10.5104834891
 20
9.225891804
 11
10.5104834891
 21
9.245891804
  0
LINE
  5
220
100
AcDbEntity
  8
0
100
AcDbLine
 62
7
  6
CONTINUOUS
 10
10.6249834891
 20
10.4323983525
 11
10.6249834891
 21
10.4241160516
  0
LINE
  5
221
100
AcDbEntity
  8
0
100
AcDbLine
 62
7
  6
CONTINUOUS
 10
10.6489834891
 20
10.4325292179
 11
10.6489834891
 21
10.4335339885
  0
LINE
  5
222
100
AcDbEntity
  8
0
100
AcDbLine
 62
7
  6
CONTINUOUS
 10
10.6494834824
 20
10.4397101858
 11
10.6494834824
 21
10.4387094227
  0
LINE
  5
223
100
AcDbEntity
  8
0
100
AcDbLine
 62
9
  6
CONTINUOUS
 10
10.6804437816
 20
10.4326914667
 11
10.6804437816
 21
10.4316861469
  0
LINE
  5
224
100
AcDbEntity
  8
0
100
AcDbLine
 62
9
  6
CONTINUOUS
 10
10.7099834891
 20
10.4403417228
 11
10.7099834891
 21
10.4393413677
  0
LINE
  5
225
100
AcDbEntity
  8
0
100
AcDbLine
 62
7
  6
CONTINUOUS
 10
11.8974834891
 20
7.8856390468
 11
11.8796951345
 21
7.9006599308
  0
LINE
  5
226
100
AcDbEntity
  8
0
100
AcDbLine
 62
7
  6
CONTINUOUS
 10
11.3037334891
 20
7.8856390468
 11
11.2948393118
 21
7.9006599308
  0
LINE
  5
227
100
AcDbEntity
  8
0
100
AcDbLine
 62
7
  6
CONTINUOUS
 10
10.7704834958
 20
10.4387094227
 11
10.7704834958
 21
10.4397101858
  0
LINE
  5
228
100
AcDbEntity
  8
0
100
AcDbLine
 62
7
  6
CONTINUOUS
 10
10.7724687705
 20
10.4370162522
 11
10.7724687705
 21
10.436013745
  0
LINE
  5
229
100
AcDbEntity
  8
0
100
AcDbLine
 62
9
  6
CONTINUOUS
 10
10.7730834891
 20
10.4306773573
 11
10.7730834891
 21
10.431683335
  0
LINE
  5
22A
100
AcDbEntity
  8
0
100
AcDbLine
 62
7
  6
CONTINUOUS
 10
10.7760834891
 20
10.4342106941
 11
10.7760834891
 21
10.4308533986
  0
LINE
  5
22B
100
AcDbEntity
  8
0
100
AcDbLine
 62
7
  6
CONTINUOUS
 10
10.7760834891
 20
10.4270978831
 11
10.7760834891
 21
10.4235950319
  0
LINE
  5
22C
100
AcDbEntity
  8
0
100
AcDbLine
 62
7
  6
CONTINUOUS
 10
10.7939834891
 20
10.4182995515
 11
10.7939834891
 21
10.435446864
  0
LINE
  5
22D
100
AcDbEntity
  8
0
100
AcDbLine
 62
7
  6
CONTINUOUS
 10
10.1162334891
 20
7.8856390468
 11
10.1251276664
 21
7.9006599308
  0
LINE
  5
22E
100
AcDbEntity
  8
0
100
AcDbLine
 62
7
  6
CONTINUOUS
 10
9.5224834891
 20
7.8856390468
 11
9.5402718438
 21
7.9006599308
  0
LINE
  5
22F
100
AcDbEntity
  8
0
100
AcDbLine
 62
7
  6
CONTINUOUS
 10
10.1326332199
 20
9.105891804
 11
11.2873337583
 21
9.105891804
  0
LINE
  5
230
100
AcDbEntity
  8
0
100
AcDbLine
 62
7
  6
CONTINUOUS
 10
10.9094834891
 20
9.225891804
 11
10.9094834891
 21
9.245891804
  0
LINE
  5
231
100
AcDbEntity
  8
0
100
AcDbLine
 62
7
  6
CONTINUOUS
 10
11.1399834891
 20
9.225891804
 11
10.2799834891
 21
9.225891804
  0
LINE
  5
232
100
AcDbEntity
  8
0
100
AcDbLine
 62
7
  6
CONTINUOUS
 10
10.3664834891
 20
9.245891804
 11
11.0534834891
 21
9.245891804
  0
LINE
  5
233
100
AcDbEntity
  8
0
100
AcDbLine
 62
7
  6
CONTINUOUS
 10
11.0534834891
 20
9.604891804
 11
11.0534834891
 21
9.245891804
  0
LINE
  5
234
100
AcDbEntity
  8
0
100
AcDbLine
 62
7
  6
CONTINUOUS
 10
9.7673062662
 20
10.1076790997
 11
9.6852170091
 21
10.1651586162
  0
LINE
  5
235
100
AcDbEntity
  8
0
100
AcDbLine
 62
7
  6
CONTINUOUS
 10
11.0422543311
 20
8.7130836538
 11
10.9986586237
 21
9.105891804
  0
LINE
  5
236
100
AcDbEntity
  8
0
100
AcDbLine
 62
7
  6
CONTINUOUS
 10
11.1399834891
 20
9.225891804
 11
11.1399834891
 21
9.105891804
  0
LINE
  5
237
100
AcDbEntity
  8
0
100
AcDbLine
 62
9
  6
CONTINUOUS
 10
11.2189894653
 20
9.8441866156
 11
11.2189894653
 21
10.0355989119
  0
LINE
  5
238
100
AcDbEntity
  8
0
100
AcDbLine
 62
7
  6
CONTINUOUS
 10
11.2374834891
 20
10.3271759012
 11
11.2374834891
 21
10.255891804
  0
LINE
  5
239
100
AcDbEntity
  8
0
100
AcDbLine
 62
9
  6
CONTINUOUS
 10
11.241149499
 20
10.0946289806
 11
11.241149499
 21
9.7851582829
  0
LINE
  5
23A
100
AcDbEntity
  8
0
100
AcDbLine
 62
7
  6
CONTINUOUS
 10
10.1824834891
 20
9.655891804
 11
10.3394834891
 21
9.604891804
  0
LINE
  5
23B
100
AcDbEntity
  8
0
100
AcDbLine
 62
7
  6
CONTINUOUS
 10
10.3394834891
 20
9.604891804
 11
11.0804834891
 21
9.604891804
  0
LINE
  5
23C
100
AcDbEntity
  8
0
100
AcDbLine
 62
7
  6
CONTINUOUS
 10
11.2374834891
 20
9.655891804
 11
10.1824834891
 21
9.655891804
  0
LINE
  5
23D
100
AcDbEntity
  8
0
100
AcDbLine
 62
7
  6
CONTINUOUS
 10
11.3745251731
 20
8.7130836538
 11
11.2873337583
 21
9.105891804
  0
LINE
  5
23E
100
AcDbEntity
  8
0
100
AcDbLine
 62
7
  6
CONTINUOUS
 10
10.1524834891
 20
9.734891804
 11
10.526846813
 21
9.734891804
  0
LINE
  5
23F
100
AcDbEntity
  8
0
100
AcDbLine
 62
7
  6
CONTINUOUS
 10
10.8931201653
 20
9.734891804
 11
11.2674834891
 21
9.734891804
  0
LINE
  5
240
100
AcDbEntity
  8
0
100
AcDbLine
 62
7
  6
CONTINUOUS
 10
10.1824834891
 20
10.255891804
 11
10.2093302767
 21
10.240391804
  0
LINE
  5
241
100
AcDbEntity
  8
0
100
AcDbLine
 62
9
  6
CONTINUOUS
 10
11.6026203305
 20
10.1308090973
 11
11.6026203305
 21
9.7489745108
  0
LINE
  5
242
100
AcDbEntity
  8
0
100
AcDbLine
 62
7
  6
CONTINUOUS
 10
11.6274834891
 20
9.7508009143
 11
11.6274834891
 21
10.1289826937
  0
LINE
  5
243
100
AcDbEntity
  8
0
100
AcDbLine
 62
9
  6
CONTINUOUS
 10
11.6526607121
 20
10.1076790997
 11
11.6526607121
 21
9.7721045084
  0
LINE
  5
244
100
AcDbEntity
  8
0
100
AcDbLine
 62
9
  6
CONTINUOUS
 10
11.7347499691
 20
9.7146249919
 11
11.7347499691
 21
10.1651586162
  0
LINE
  5
245
100
AcDbEntity
  8
0
100
AcDbLine
 62
7
  6
CONTINUOUS
 10
11.8974834891
 20
7.578891804
 11
11.8974834891
 21
7.8856390468
  0
LINE
  5
246
100
AcDbEntity
  8
0
100
AcDbLine
 62
7
  6
CONTINUOUS
 10
11.2674834891
 20
10.144891804
 11
10.8931201653
 21
10.144891804
  0
LINE
  5
247
100
AcDbEntity
  8
0
100
AcDbLine
 62
7
  6
CONTINUOUS
 10
10.526846813
 20
10.144891804
 11
10.1524834891
 21
10.144891804
  0
LINE
  5
248
100
AcDbEntity
  8
0
100
AcDbLine
 62
7
  6
CONTINUOUS
 10
10.1824834891
 20
10.224891804
 11
11.2374834891
 21
10.224891804
  0
LINE
  5
249
100
AcDbEntity
  8
0
100
AcDbLine
 62
7
  6
CONTINUOUS
 10
11.2106367016
 20
10.240391804
 11
10.2093302767
 21
10.240391804
  0
LINE
  5
24A
100
AcDbEntity
  8
0
100
AcDbLine
 62
7
  6
CONTINUOUS
 10
11.6526607121
 20
9.7721045084
 11
11.7347499691
 21
9.7146249919
  0
LINE
  5
24B
100
AcDbEntity
  8
0
100
AcDbLine
 62
7
  6
CONTINUOUS
 10
11.2374834891
 20
10.3271759012
 11
11.2232176414
 21
10.3468111561
  0
LINE
  5
24C
100
AcDbEntity
  8
0
100
AcDbLine
 62
7
  6
CONTINUOUS
 10
10.1824834891
 20
10.255891804
 11
11.2374834891
 21
10.255891804
  0
LINE
  5
24D
100
AcDbEntity
  8
0
100
AcDbLine
 62
7
  6
CONTINUOUS
 10
11.2374834891
 20
10.3271759012
 11
10.1824834891
 21
10.3271759012
  0
LINE
  5
24E
100
AcDbEntity
  8
0
100
AcDbLine
 62
7
  6
CONTINUOUS
 10
11.2232176414
 20
10.3468111561
 11
10.1967493369
 21
10.3468111561
  0
LINE
  5
24F
100
AcDbEntity
  8
0
100
AcDbLine
 62
7
  6
CONTINUOUS
 10
11.1644934452
 20
10.365891804
 11
10.255473533
 21
10.365891804
  0
LINE
  5
250
100
AcDbEntity
  8
0
100
AcDbLine
 62
9
  6
CONTINUOUS
 10
11.1051263975
 20
10.3897016732
 11
10.3148415246
 21
10.389701922
  0
LINE
  5
251
100
AcDbEntity
  8
0
100
AcDbLine
 62
7
  6
CONTINUOUS
 10
11.2106367016
 20
10.240391804
 11
11.2374834891
 21
10.224891804
  0
LINE
  5
252
100
AcDbEntity
  8
0
100
AcDbLine
 62
7
  6
CONTINUOUS
 10
10.6495312122
 20
10.4397130041
 11
10.6494875256
 21
10.4397103436
  0
LINE
  5
253
100
AcDbEntity
  8
0
100
AcDbLine
 62
7
  6
CONTINUOUS
 10
10.7099834891
 20
10.440891804
 11
10.6495292103
 21
10.439712926
  0
LINE
  5
254
100
AcDbEntity
  8
0
100
AcDbLine
 62
7
  6
CONTINUOUS
 10
10.770479692
 20
10.4397103343
 11
10.7704364548
 21
10.4397129773
  0
LINE
  5
255
100
AcDbEntity
  8
0
100
AcDbLine
 62
7
  6
CONTINUOUS
 10
11.1644934452
 20
10.365891804
 11
11.2232176414
 21
10.3468111561
  0
ARC
  5
256
100
AcDbEntity
  8
0
100
AcDbCircle
 62
7
  6
CONTINUOUS
 10
10.7049246915
 20
3.1778779175
 40
7.2611027188
100
AcDbArc
 50
89.5708788982
 51
89.9600821269
  0
ARC
  5
257
100
AcDbEntity
  8
0
100
AcDbCircle
 62
7
  6
CONTINUOUS
 10
10.6934113701
 20
6.0596887952
 40
4.3807101745
100
AcDbArc
 50
89.1416011942
 51
89.647839536
  0
ARC
  5
258
100
AcDbEntity
  8
0
100
AcDbCircle
 62
7
  6
CONTINUOUS
 10
10.7097557061
 20
8.2460904405
 40
2.1942512942
100
AcDbArc
 50
89.7237125515
 51
89.9940521836
  0
ARC
  5
259
100
AcDbEntity
  8
0
100
AcDbCircle
 62
7
  6
CONTINUOUS
 10
10.7098799809
 20
8.2837244068
 40
2.1556169635
100
AcDbArc
 50
89.6794245621
 51
89.9972487767
  0
ARC
  5
25A
100
AcDbEntity
  8
0
100
AcDbCircle
 62
7
  6
CONTINUOUS
 10
10.6187236727
 20
15.8766130094
 40
5.4379926216
100
AcDbArc
 50
270.2217848757
 51
270.3387593979
  0
ARC
  5
25B
100
AcDbEntity
  8
0
100
AcDbCircle
 62
7
  6
CONTINUOUS
 10
10.709983367
 20
8.8902174483
 40
1.5506743607
100
AcDbArc
 50
75.2370079766
 51
86.8769331127
  0
ARC
  5
25C
100
AcDbEntity
  8
0
100
AcDbCircle
 62
7
  6
CONTINUOUS
 10
10.7099834324
 20
8.8902194239
 40
1.5506723788
100
AcDbArc
 50
93.1230481817
 51
104.7630052508
  0
ARC
  5
25D
100
AcDbEntity
  8
0
100
AcDbCircle
 62
7
  6
CONTINUOUS
 10
9.9816847083
 20
10.1779736196
 40
1.36
100
AcDbArc
 50
337.4255442891
 51
340.9862257999
  0
ARC
  5
25E
100
AcDbEntity
  8
0
100
AcDbCircle
 62
7
  6
CONTINUOUS
 10
9.9797041983
 20
9.70759957
 40
1.3599999999
100
AcDbArc
 50
18.7559867835
 51
22.3561036557
  0
ARC
  5
25F
100
AcDbEntity
  8
0
100
AcDbCircle
 62
7
  6
CONTINUOUS
 10
10.687159138
 20
9.1192529367
 40
1.3205218273
100
AcDbArc
 50
85.3599556725
 51
86.1283433258
  0
ARC
  5
260
100
AcDbEntity
  8
0
100
AcDbCircle
 62
7
  6
CONTINUOUS
 10
10.6871661956
 20
9.1192017662
 40
1.319572024
100
AcDbArc
 50
85.3569159742
 51
86.1287763626
  0
ARC
  5
261
100
AcDbEntity
  8
0
100
AcDbCircle
 62
7
  6
CONTINUOUS
 10
10.6717985779
 20
10.8841047709
 40
0.4514961806
100
AcDbArc
 50
270.0071085614
 51
271.097160899
  0
ARC
  5
262
100
AcDbEntity
  8
0
100
AcDbCircle
 62
7
  6
CONTINUOUS
 10
9.5274834891
 20
9.939891804
 40
0.275
100
AcDbArc
 50
54.9999999999
 51
305.0000000001
  0
ARC
  5
263
100
AcDbEntity
  8
0
100
AcDbCircle
 62
7
  6
CONTINUOUS
 10
10.0001075302
 20
10.301391804
 40
0.25
100
AcDbArc
 50
223.0260516848
 51
312.3064745922
  0
ARC
  5
264
100
AcDbEntity
  8
0
100
AcDbCircle
 62
7
  6
CONTINUOUS
 10
10.0001075302
 20
9.578391804
 40
0.25
100
AcDbArc
 50
47.6936527728
 51
136.9739483152
  0
ARC
  5
265
100
AcDbEntity
  8
0
100
AcDbCircle
 62
7
  6
CONTINUOUS
 10
10.3224834891
 20
10.3606915723
 40
0.03
100
AcDbArc
 50
104.7629977427
 51
170.0178676887
  0
ARC
  5
266
100
AcDbEntity
  8
0
100
AcDbCircle
 62
7
  6
CONTINUOUS
 10
9.8056499512
 20
9.759891804
 40
0.016
100
AcDbArc
 50
214.6234510998
 51
316.9739483152
  0
ARC
  5
267
100
AcDbEntity
  8
0
100
AcDbCircle
 62
7
  6
CONTINUOUS
 10
9.8056499512
 20
10.119891804
 40
0.016
100
AcDbArc
 50
43.0260516848
 51
145.3765489002
  0
ARC
  5
268
100
AcDbEntity
  8
0
100
AcDbCircle
 62
7
  6
CONTINUOUS
 10
9.7764834891
 20
10.1207855324
 40
0.016
100
AcDbArc
 50
235.0000000002
 51
360.0
  0
ARC
  5
269
100
AcDbEntity
  8
0
100
AcDbCircle
 62
7
  6
CONTINUOUS
 10
9.7764834891
 20
9.7589980757
 40
0.016
100
AcDbArc
 50
0.0
 51
124.9999999998
  0
ARC
  5
26A
100
AcDbEntity
  8
0
100
AcDbCircle
 62
7
  6
CONTINUOUS
 10
10.7266560104
 20
0.8626580888
 40
9.5763486077
100
AcDbArc
 50
90.1670622164
 51
90.4173383495
  0
ARC
  5
26B
100
AcDbEntity
  8
0
100
AcDbCircle
 62
7
  6
CONTINUOUS
 10
10.7101579294
 20
5.3756792945
 40
5.0632995826
100
AcDbArc
 50
90.001973948
 51
90.1292781291
  0
ARC
  5
26C
100
AcDbEntity
  8
0
100
AcDbCircle
 62
7
  6
CONTINUOUS
 10
10.7102969009
 20
8.2093485161
 40
2.2299928737
100
AcDbArc
 50
90.0080525702
 51
90.315134808
  0
ARC
  5
26D
100
AcDbEntity
  8
0
100
AcDbCircle
 62
7
  6
CONTINUOUS
 10
10.7100587698
 20
8.3079821473
 40
2.1323595769
100
AcDbArc
 50
90.0020227655
 51
90.2802911788
  0
ARC
  5
26E
100
AcDbEntity
  8
0
100
AcDbCircle
 62
7
  6
CONTINUOUS
 10
10.7304870399
 20
8.3418732949
 40
2.0982283318
100
AcDbArc
 50
89.001990969
 51
89.2202818057
  0
ARC
  5
26F
100
AcDbEntity
  8
0
100
AcDbCircle
 62
7
  6
CONTINUOUS
 10
10.7099834891
 20
8.890218412
 40
1.550673392
100
AcDbArc
 50
88.0020743113
 51
90.0
  0
ARC
  5
270
100
AcDbEntity
  8
0
100
AcDbCircle
 62
7
  6
CONTINUOUS
 10
10.7099834891
 20
8.890218412
 40
1.5445206275
100
AcDbArc
 50
92.2634542576
 51
93.1547671566
  0
ARC
  5
271
100
AcDbEntity
  8
0
100
AcDbCircle
 62
7
  6
CONTINUOUS
 10
10.7099834891
 20
8.890218412
 40
1.5435166413
100
AcDbArc
 50
92.264927297
 51
93.156821265
  0
ARC
  5
272
100
AcDbEntity
  8
0
100
AcDbCircle
 62
7
  6
CONTINUOUS
 10
10.7099834891
 20
8.890218412
 40
1.5427558844
100
AcDbArc
 50
87.6559010444
 51
91.0971301576
  0
ARC
  5
273
100
AcDbEntity
  8
0
100
AcDbCircle
 62
7
  6
CONTINUOUS
 10
10.7099834891
 20
8.890218412
 40
1.541750749
100
AcDbArc
 50
87.6543719687
 51
91.0978455127
  0
ARC
  5
274
100
AcDbEntity
  8
0
100
AcDbCircle
 62
7
  6
CONTINUOUS
 10
10.7099834891
 20
8.890218412
 40
1.5386785625
100
AcDbArc
 50
87.649685969
 51
91.1000377836
  0
ARC
  5
275
100
AcDbEntity
  8
0
100
AcDbCircle
 62
7
  6
CONTINUOUS
 10
10.7099834891
 20
8.890218412
 40
1.5362509459
100
AcDbArc
 50
92.2756448885
 51
93.1717666779
  0
ARC
  5
276
100
AcDbEntity
  8
0
100
AcDbCircle
 62
7
  6
CONTINUOUS
 10
11.4382854873
 20
10.1779748413
 40
1.3600034399
100
AcDbArc
 50
199.0137787036
 51
202.5744512055
  0
ARC
  5
277
100
AcDbEntity
  8
0
100
AcDbCircle
 62
7
  6
CONTINUOUS
 10
11.4402627799
 20
9.70759957
 40
1.3599999999
100
AcDbArc
 50
157.6438963443
 51
161.2440132165
  0
CIRCLE
  5
278
100
AcDbEntity
  8
0
100
AcDbCircle
 62
7
  6
CONTINUOUS
 10
10.7099834891
 20
9.939891804
 40
0.275
  0
ARC
  5
279
100
AcDbEntity
  8
0
100
AcDbCircle
 62
7
  6
CONTINUOUS
 10
11.8924834891
 20
9.939891804
 40
0.275
100
AcDbArc
 50
234.9999999999
 51
125.0000000001
  0
ARC
  5
27A
100
AcDbEntity
  8
0
100
AcDbCircle
 62
7
  6
CONTINUOUS
 10
11.4198594481
 20
9.578391804
 40
0.25
100
AcDbArc
 50
43.0260516848
 51
132.3140445677
  0
ARC
  5
27B
100
AcDbEntity
  8
0
100
AcDbCircle
 62
7
  6
CONTINUOUS
 10
11.4198594481
 20
10.301391804
 40
0.25
100
AcDbArc
 50
227.6858657852
 51
316.9739483152
  0
ARC
  5
27C
100
AcDbEntity
  8
0
100
AcDbCircle
 62
7
  6
CONTINUOUS
 10
11.0974834891
 20
10.3606915723
 40
0.03
100
AcDbArc
 50
9.9821323113
 51
75.2370022573
  0
ARC
  5
27D
100
AcDbEntity
  8
0
100
AcDbCircle
 62
7
  6
CONTINUOUS
 10
11.614317027
 20
10.119891804
 40
0.016
100
AcDbArc
 50
34.6234510998
 51
136.9739483152
  0
ARC
  5
27E
100
AcDbEntity
  8
0
100
AcDbCircle
 62
7
  6
CONTINUOUS
 10
11.614317027
 20
9.759891804
 40
0.016
100
AcDbArc
 50
223.0260516848
 51
325.3765489002
  0
ARC
  5
27F
100
AcDbEntity
  8
0
100
AcDbCircle
 62
7
  6
CONTINUOUS
 10
11.6434834891
 20
9.7589980757
 40
0.016
100
AcDbArc
 50
55.0000000002
 51
180.0
  0
ARC
  5
280
100
AcDbEntity
  8
0
100
AcDbCircle
 62
7
  6
CONTINUOUS
 10
11.6434834891
 20
10.1207855324
 40
0.016
100
AcDbArc
 50
180.0
 51
304.9999999998
  0
SPLINE
  5
281
100
AcDbEntity
  8
0
100
AcDbSpline
 62
7
  6
CONTINUOUS
 70
0
 71
3
 72
18
 73
14
 74
0
 42
0.0000001
 43
0.0000001
 44
0.0000000001
 40
0.0
 40
0.0
 40
0.0
 40
0.0
 40
0.1249738438
 40
0.2499855011
 40
0.3124923385
 40
0.3749938395
 40
0.4374972427
 40
0.5000057248
 40
0.6249949333
 40
0.7499844159
 40
0.8125013675
 40
0.8750281194
 40
1.0
 40
1.0
 40
1.0
 40
1.0
 10
9.5402718438
 20
7.9006599308
 30
0.0
 10
9.5712616324
 20
7.9268284006
 30
0.0
 10
9.6313863023
 20
7.9814273742
 30
0.0
 10
9.7012754367
 20
8.0550621655
 30
0.0
 10
9.7536674848
 20
8.1170488772
 30
0.0
 10
9.7911224167
 20
8.1650352106
 30
0.0
 10
9.8266475703
 20
8.214468944
 30
0.0
 10
9.8713199337
 20
8.2822241465
 30
0.0
 10
9.9219276628
 20
8.370255466
 30
0.0
 10
9.9649616322
 20
8.4622382438
 30
0.0
 10
9.9945399382
 20
8.5378299457
 30
0.0
 10
10.0207840682
 20
8.6146307121
 30
0.0
 10
10.0366526686
 20
8.6734875024
 30
0.0
 10
10.0454418051
 20
8.7130836538
 30
0.0
  0
LINE
  5
282
100
AcDbEntity
  8
0
100
AcDbLine
 62
7
  6
CONTINUOUS
 10
10.7944834862
 20
10.4385868377
 11
10.7910526032
 21
10.4385666504
  0
SPLINE
  5
283
100
AcDbEntity
  8
0
100
AcDbSpline
 62
7
  6
CONTINUOUS
 70
0
 71
3
 72
18
 73
14
 74
0
 42
0.0000001
 43
0.0000001
 44
0.0000000001
 40
0.0
 40
0.0
 40
0.0
 40
0.0
 40
0.1249738438
 40
0.2499855011
 40
0.3124923385
 40
0.3749938395
 40
0.4374972427
 40
0.5000057248
 40
0.6249949333
 40
0.7499844159
 40
0.8125013675
 40
0.8750281194
 40
1.0
 40
1.0
 40
1.0
 40
1.0
 10
11.8796951345
 20
7.9006599308
 30
0.0
 10
11.8487053459
 20
7.9268284006
 30
0.0
 10
11.788580676
 20
7.9814273742
 30
0.0
 10
11.7186915415
 20
8.0550621655
 30
0.0
 10
11.6662994934
 20
8.1170488772
 30
0.0
 10
11.6288445616
 20
8.1650352106
 30
0.0
 10
11.593319408
 20
8.214468944
 30
0.0
 10
11.5486470446
 20
8.2822241465
 30
0.0
 10
11.4980393155
 20
8.370255466
 30
0.0
 10
11.4550053461
 20
8.4622382438
 30
0.0
 10
11.4254270401
 20
8.5378299457
 30
0.0
 10
11.39918291
 20
8.6146307121
 30
0.0
 10
11.3833143097
 20
8.6734875024
 30
0.0
 10
11.3745251731
 20
8.7130836538
 30
0.0
  0
LINE
  5
284
100
AcDbEntity
  8
0
100
AcDbLine
 62
7
  6
CONTINUOUS
 10
10.6255033592
 20
10.4385888672
 11
10.63466402
 21
10.4386421362
  0
LINE
  5
285
100
AcDbEntity
  8
0
100
AcDbLine
 62
7
  6
CONTINUOUS
 10
10.63466402
 20
10.4386421362
 11
10.6397734169
 21
10.4386611284
  0
LINE
  5
286
100
AcDbEntity
  8
0
100
AcDbLine
 62
7
  6
CONTINUOUS
 10
10.6508754365
 20
10.4387154363
 11
10.6569031907
 21
10.4387526581
  0
SPLINE
  5
287
100
AcDbEntity
  8
0
100
AcDbSpline
 62
7
  6
CONTINUOUS
 70
0
 71
3
 72
11
 73
7
 74
0
 42
0.0000001
 43
0.0000001
 44
0.0000000001
 40
0.0
 40
0.0
 40
0.0
 40
0.0
 40
0.0833120659
 40
0.2831727021
 40
0.5920693306
 40
1.0
 40
1.0
 40
1.0
 40
1.0
 10
11.2674510441
 20
10.1448370492
 30
0.0
 10
11.2670606086
 20
10.1441778232
 30
0.0
 10
11.265744059
 20
10.1419309423
 30
0.0
 10
11.2630119793
 20
10.1372210194
 30
0.0
 10
11.2588701285
 20
10.1298781135
 30
0.0
 10
11.2557219792
 20
10.1240856182
 30
0.0
 10
11.2539638733
 20
10.1207715901
 30
0.0
  0
SPLINE
  5
288
100
AcDbEntity
  8
0
100
AcDbSpline
 62
7
  6
CONTINUOUS
 70
0
 71
3
 72
16
 73
12
 74
0
 42
0.0000001
 43
0.0000001
 44
0.0000000001
 40
0.0
 40
0.0
 40
0.0
 40
0.0
 40
0.1873978002
 40
0.3016157351
 40
0.4268175022
 40
0.5611984389
 40
0.7029689847
 40
0.7760085546
 40
0.8501277656
 40
0.9249406869
 40
1.0
 40
1.0
 40
1.0
 40
1.0
 10
11.2539638733
 20
10.1207715901
 30
0.0
 10
11.2484162955
 20
10.110314411
 30
0.0
 10
11.2400032689
 20
10.0931992147
 30
0.0
 10
11.2295424943
 20
10.0683411753
 30
0.0
 10
11.2215102478
 20
10.0461232897
 30
0.0
 10
11.214358579
 20
10.0217813847
 30
0.0
 10
11.2096737136
 20
10.0002024147
 30
0.0
 10
11.2068726545
 20
9.9821629443
 30
0.0
 10
11.2053198425
 20
9.968222929
 30
0.0
 10
11.204367631
 20
9.9541016373
 30
0.0
 10
11.2041494532
 20
9.9446331636
 30
0.0
 10
11.2041494532
 20
9.939891804
 30
0.0
  0
SPLINE
  5
289
100
AcDbEntity
  8
0
100
AcDbSpline
 62
7
  6
CONTINUOUS
 70
0
 71
3
 72
15
 73
11
 74
0
 42
0.0000001
 43
0.0000001
 44
0.0000000001
 40
0.0
 40
0.0
 40
0.0
 40
0.0
 40
0.0750939497
 40
0.1499260812
 40
0.2240498896
 40
0.2971058024
 40
0.4389126872
 40
0.5733413718
 40
0.8126956787
 40
1.0
 40
1.0
 40
1.0
 40
1.0
 10
10.2158175251
 20
9.939891804
 30
0.0
 10
10.2158175251
 20
9.9446379166
 30
0.0
 10
10.2155996276
 20
9.9541149077
 30
0.0
 10
10.2146471367
 20
9.9682476117
 30
0.0
 10
10.2130889821
 20
9.9821972347
 30
0.0
 10
10.2102845523
 20
10.0002497536
 30
0.0
 10
10.2055916839
 20
10.021846142
 30
0.0
 10
10.1963953725
 20
10.053130208
 30
0.0
 10
10.1834089056
 20
10.0862048848
 30
0.0
 10
10.1714985915
 20
10.1104192059
 30
0.0
 10
10.1659479782
 20
10.1208753324
 30
0.0
  0
SPLINE
  5
28A
100
AcDbEntity
  8
0
100
AcDbSpline
 62
7
  6
CONTINUOUS
 70
0
 71
3
 72
31
 73
27
 74
0
 42
0.0000001
 43
0.0000001
 44
0.0000000001
 40
0.0
 40
0.0
 40
0.0
 40
0.0
 40
0.2250737395
 40
0.424380295
 40
0.513883737
 40
0.5963766381
 40
0.6716762601
 40
0.7395993071
 40
0.7999619674
 40
0.8525807453
 40
0.8973137089
 40
0.9166977851
 40
0.9340811401
 40
0.9494544311
 40
0.9628083113
 40
0.9741334294
 40
0.9834204299
 40
0.9872967113
 40
0.9906599532
 40
0.9935089848
 40
0.9958426353
 40
0.9976597336
 40
0.9989591083
 40
0.9994142831
 40
0.9997395877
 40
1.0
 40
1.0
 40
1.0
 40
1.0
 10
10.1659479782
 20
10.1208753324
 30
0.0
 10
10.164979348
 20
10.1227000172
 30
0.0
 10
10.163134078
 20
10.12613049
 30
0.0
 10
10.1608594131
 20
10.1302625248
 30
0.0
 10
10.1591968023
 20
10.1332374772
 30
0.0
 10
10.1580816512
 20
10.1352144739
 30
0.0
 10
10.1570572448
 20
10.1370152244
 30
0.0
 10
10.1561279233
 20
10.1386363631
 30
0.0
 10
10.1552979955
 20
10.1400745138
 30
0.0
 10
10.1545716702
 20
10.1413266958
 30
0.0
 10
10.1540325676
 20
10.1422526562
 30
0.0
 10
10.1536553305
 20
10.1428986258
 30
0.0
 10
10.1534136462
 20
10.1433116909
 30
0.0
 10
10.1531996103
 20
10.1436768072
 30
0.0
 10
10.1530134361
 20
10.1439937988
 30
0.0
 10
10.1528553289
 20
10.1442624939
 30
0.0
 10
10.1527411915
 20
10.1444561165
 30
0.0
 10
10.1526640621
 20
10.1445867473
 30
0.0
 10
10.1526169828
 20
10.1446664506
 30
0.0
 10
10.1525769663
 20
10.1447340125
 30
0.0
 10
10.1525444708
 20
10.1447891653
 30
0.0
 10
10.152518369
 20
10.1448325437
 30
0.0
 10
10.152502894
 20
10.1448600305
 30
0.0
 10
10.1524914729
 20
10.1448774018
 30
0.0
 10
10.1524895401
 20
10.144883941
 30
0.0
 10
10.1524810989
 20
10.144891804
 30
0.0
 10
10.1524834891
 20
10.144891804
 30
0.0
  0
SPLINE
  5
28B
100
AcDbEntity
  8
0
100
AcDbSpline
 62
7
  6
CONTINUOUS
 70
0
 71
3
 72
16
 73
12
 74
0
 42
0.0000001
 43
0.0000001
 44
0.0000000001
 40
0.0
 40
0.0
 40
0.0
 40
0.0
 40
0.0750881735
 40
0.1499142366
 40
0.2240318074
 40
0.2970818938
 40
0.4388776409
 40
0.5732961614
 40
0.6984996189
 40
0.8127101644
 40
1.0
 40
1.0
 40
1.0
 40
1.0
 10
10.2158175251
 20
9.939891804
 30
0.0
 10
10.2158175251
 20
9.9351456566
 30
0.0
 10
10.2155996255
 20
9.925668616
 30
0.0
 10
10.2146470973
 20
9.9115358597
 30
0.0
 10
10.2130888166
 20
9.8975862238
 30
0.0
 10
10.2102842744
 20
9.8795336006
 30
0.0
 10
10.2055914691
 20
9.8579374134
 30
0.0
 10
10.1984296104
 20
9.8335777372
 30
0.0
 10
10.1903872208
 20
9.8113456625
 30
0.0
 10
10.1799173589
 20
9.7864809444
 30
0.0
 10
10.1714980051
 20
9.7693636896
 30
0.0
 10
10.1659474006
 20
9.7589074654
 30
0.0
  0
SPLINE
  5
28C
100
AcDbEntity
  8
0
100
AcDbSpline
 62
7
  6
CONTINUOUS
 70
0
 71
3
 72
11
 73
7
 74
0
 42
0.0000001
 43
0.0000001
 44
0.0000000001
 40
0.0
 40
0.0
 40
0.0
 40
0.0
 40
0.4118476895
 40
0.722293546
 40
0.920827869
 40
1.0
 40
1.0
 40
1.0
 40
1.0
 10
10.1659474006
 20
9.7589074654
 30
0.0
 10
10.1641773693
 20
9.7555730817
 30
0.0
 10
10.1610151047
 20
9.7497558851
 30
0.0
 10
10.1568647127
 20
9.7424060484
 30
0.0
 10
10.1541592263
 20
9.7377429105
 30
0.0
 10
10.1528720657
 20
9.7355468004
 30
0.0
 10
10.1525018087
 20
9.7349226546
 30
0.0
  0
SPLINE
  5
28D
100
AcDbEntity
  8
0
100
AcDbSpline
 62
7
  6
CONTINUOUS
 70
0
 71
3
 72
13
 73
9
 74
0
 42
0.0000001
 43
0.0000001
 44
0.0000000001
 40
0.0
 40
0.0
 40
0.0
 40
0.0
 40
0.0837986061
 40
0.1831363994
 40
0.2963423199
 40
0.4216097428
 40
0.7004766543
 40
1.0
 40
1.0
 40
1.0
 40
1.0
 10
10.6489834891
 20
10.425257815
 30
0.0
 10
10.649834733
 20
10.4255019916
 30
0.0
 10
10.6517169527
 20
10.4259590956
 30
0.0
 10
10.6547939436
 20
10.4265458425
 30
0.0
 10
10.6583245731
 20
10.4270794268
 30
0.0
 10
10.6637537716
 20
10.4277283449
 30
0.0
 10
10.6711695762
 20
10.4283160877
 30
0.0
 10
10.6772790375
 20
10.4285529015
 30
0.0
 10
10.6804437816
 20
10.4286133952
 30
0.0
  0
SPLINE
  5
28E
100
AcDbEntity
  8
0
100
AcDbSpline
 62
7
  6
CONTINUOUS
 70
0
 71
3
 72
25
 73
21
 74
0
 42
0.0000001
 43
0.0000001
 44
0.0000000001
 40
0.0
 40
0.0
 40
0.0
 40
0.0
 40
0.0010395208
 40
0.0023372468
 40
0.0041521812
 40
0.0093293705
 40
0.0165624818
 40
0.0258429113
 40
0.037162059
 40
0.0505113283
 40
0.065882126
 40
0.1026539498
 40
0.1474088148
 40
0.2000518041
 40
0.2604178513
 40
0.328330608
 40
0.4036141638
 40
0.575592138
 40
0.7749204845
 40
1.0
 40
1.0
 40
1.0
 40
1.0
 10
11.2674834948
 20
9.734891804
 30
0.0
 10
11.2674768683
 20
9.7348987237
 30
0.0
 10
11.2674686202
 20
9.734919333
 30
0.0
 10
11.2674477004
 20
9.734951183
 30
0.0
 10
11.2674095884
 20
9.7350175439
 30
0.0
 10
11.2673422766
 20
9.7351299538
 30
0.0
 10
11.2672409636
 20
9.7353023422
 30
0.0
 10
11.2671106444
 20
9.7355232747
 30
0.0
 10
11.2669520653
 20
9.7357930089
 30
0.0
 10
11.2667652142
 20
9.7361112263
 30
0.0
 10
11.2664600036
 20
9.7366319843
 30
0.0
 10
11.26600935
 20
9.7374029976
 30
0.0
 10
11.2653869462
 20
9.7384715183
 30
0.0
 10
11.2646571632
 20
9.7397291474
 30
0.0
 10
11.2638238191
 20
9.7411734444
 30
0.0
 10
11.2628909664
 20
9.7428012282
 30
0.0
 10
11.261455005
 20
9.7453262926
 30
0.0
 10
11.259440592
 20
9.7489157167
 30
0.0
 10
11.2567895209
 20
9.7537308116
 30
0.0
 10
11.2549373449
 20
9.757176168
 30
0.0
 10
11.2539651436
 20
9.7590086961
 30
0.0
  0
SPLINE
  5
28F
100
AcDbEntity
  8
0
100
AcDbSpline
 62
7
  6
CONTINUOUS
 70
0
 71
3
 72
16
 73
12
 74
0
 42
0.0000001
 43
0.0000001
 44
0.0000000001
 40
0.0
 40
0.0
 40
0.0
 40
0.0
 40
0.1873930282
 40
0.3016110666
 40
0.4268134124
 40
0.5611954074
 40
0.7029669859
 40
0.7760069616
 40
0.8501263088
 40
0.924939766
 40
1.0
 40
1.0
 40
1.0
 40
1.0
 10
11.2539651436
 20
9.7590086961
 30
0.0
 10
11.2484174372
 20
9.7694657157
 30
0.0
 10
11.2400055754
 20
9.7865815449
 30
0.0
 10
11.2295436483
 20
9.8114393303
 30
0.0
 10
11.2215106136
 20
9.8336575435
 30
0.0
 10
11.2143591204
 20
9.8580001752
 30
0.0
 10
11.2096741027
 20
9.8795796839
 30
0.0
 10
11.2068728616
 20
9.8976195711
 30
0.0
 10
11.205319873
 20
9.911559899
 30
0.0
 10
11.2043676303
 20
9.9256815557
 30
0.0
 10
11.2041494532
 20
9.9351502979
 30
0.0
 10
11.2041494532
 20
9.939891804
 30
0.0
  0
LINE
  5
290
100
AcDbEntity
  8
0
100
AcDbLine
 62
7
  6
CONTINUOUS
 10
10.7593067646
 20
10.438776986
 11
10.7680059286
 21
10.4387219161
  0
LINE
  5
291
100
AcDbEntity
  8
0
100
AcDbLine
 62
7
  6
CONTINUOUS
 10
10.7680059286
 20
10.4387219161
 11
10.7754657555
 21
10.4386814216
  0
LINE
  5
292
100
AcDbEntity
  8
0
100
AcDbLine
 62
7
  6
CONTINUOUS
 10
10.7754657555
 20
10.4386814216
 11
10.7761577679
 21
10.4386781744
  0
LINE
  5
293
100
AcDbEntity
  8
0
100
AcDbLine
 62
7
  6
CONTINUOUS
 10
10.7761577679
 20
10.4386781744
 11
10.7818351845
 21
10.4386547617
  0
LINE
  5
294
100
AcDbEntity
  8
0
100
AcDbLine
 62
7
  6
CONTINUOUS
 10
10.7818351845
 20
10.4386547617
 11
10.7871069105
 21
10.4386354337
  0
LINE
  5
295
100
AcDbEntity
  8
0
100
AcDbLine
 62
7
  6
CONTINUOUS
 10
10.7871069105
 20
10.4386354337
 11
10.7941852791
 21
10.4385952932
  0
LINE
  5
296
100
AcDbEntity
  8
0
100
AcDbLine
 62
7
  6
CONTINUOUS
 10
10.7941852791
 20
10.4385952932
 11
10.7944653263
 21
10.4385887757
  0
SPLINE
  5
297
100
AcDbEntity
  8
0
100
AcDbSpline
 62
7
  6
CONTINUOUS
 70
0
 71
3
 72
12
 73
8
 74
0
 42
0.0000001
 43
0.0000001
 44
0.0000000001
 40
0.0
 40
0.0
 40
0.0
 40
0.0
 40
0.3314381215
 40
0.6118043889
 40
0.8355955148
 40
0.9253352182
 40
1.0
 40
1.0
 40
1.0
 40
1.0
 10
10.7639834891
 20
10.4368187457
 30
0.0
 10
10.765180484
 20
10.4367007293
 30
0.0
 10
10.7673880801
 20
10.4364610887
 30
0.0
 10
10.7703927499
 20
10.4360497711
 30
0.0
 10
10.7725162196
 20
10.4356732145
 30
0.0
 10
10.7738882043
 20
10.4353520885
 30
0.0
 10
10.7744622886
 20
10.4351879394
 30
0.0
 10
10.7747195968
 20
10.4351030146
 30
0.0
  0
SPLINE
  5
298
100
AcDbEntity
  8
0
100
AcDbSpline
 62
7
  6
CONTINUOUS
 70
0
 71
3
 72
12
 73
8
 74
0
 42
0.0000001
 43
0.0000001
 44
0.0000000001
 40
0.0
 40
0.0
 40
0.0
 40
0.0
 40
0.3746323342
 40
0.658775742
 40
0.7689916583
 40
0.8601622932
 40
1.0
 40
1.0
 40
1.0
 40
1.0
 10
10.7747195968
 20
10.4351030146
 30
0.0
 10
10.7749206698
 20
10.4350366503
 30
0.0
 10
10.7752705822
 20
10.4349085344
 30
0.0
 10
10.7756621865
 20
10.4347155772
 30
0.0
 10
10.7758849986
 20
10.4345530146
 30
0.0
 10
10.7760218001
 20
10.4344182384
 30
0.0
 10
10.7760834891
 20
10.4342897382
 30
0.0
 10
10.7760834891
 20
10.4342107021
 30
0.0
  0
LINE
  5
299
100
AcDbEntity
  8
0
100
AcDbLine
 62
7
  6
CONTINUOUS
 10
10.7724687705
 20
10.4178317657
 11
10.7796391284
 21
10.4181052113
  0
LINE
  5
29A
100
AcDbEntity
  8
0
100
AcDbLine
 62
7
  6
CONTINUOUS
 10
10.7796391284
 20
10.4181052113
 11
10.7939834891
 21
10.4182995515
  0
SPLINE
  5
29B
100
AcDbEntity
  8
0
100
AcDbSpline
 62
7
  6
CONTINUOUS
 70
0
 71
3
 72
15
 73
11
 74
0
 42
0.0000001
 43
0.0000001
 44
0.0000000001
 40
0.0
 40
0.0
 40
0.0
 40
0.0
 40
0.3740840609
 40
0.5439796452
 40
0.6926384698
 40
0.8153878695
 40
0.9081050337
 40
0.9425082808
 40
0.9689160414
 40
1.0
 40
1.0
 40
1.0
 40
1.0
 10
10.7730834891
 20
10.4276025894
 30
0.0
 10
10.773467679
 20
10.4275868208
 30
0.0
 10
10.7740259612
 20
10.4275505716
 30
0.0
 10
10.7747340186
 20
10.4274747955
 30
0.0
 10
10.7751830581
 20
10.4274108386
 30
0.0
 10
10.775551315
 20
10.4273404763
 30
0.0
 10
10.7757991401
 20
10.4272759464
 30
0.0
 10
10.7759481858
 20
10.4272177987
 30
0.0
 10
10.7760285325
 20
10.4271764108
 30
0.0
 10
10.7760834891
 20
10.4271298337
 30
0.0
 10
10.7760834891
 20
10.4270978831
 30
0.0
  0
LINE
  5
29C
100
AcDbEntity
  8
0
100
AcDbLine
 62
7
  6
CONTINUOUS
 10
10.7639834891
 20
10.4195693673
 11
10.7667810089
 21
10.4190071226
  0
LINE
  5
29D
100
AcDbEntity
  8
0
100
AcDbLine
 62
7
  6
CONTINUOUS
 10
10.7667810089
 20
10.4190071226
 11
10.7696094535
 21
10.4184280386
  0
LINE
  5
29E
100
AcDbEntity
  8
0
100
AcDbLine
 62
7
  6
CONTINUOUS
 10
10.7696094535
 20
10.4184280386
 11
10.7724687705
 21
10.4178317657
  0
LINE
  5
29F
100
AcDbEntity
  8
0
100
AcDbLine
 62
7
  6
CONTINUOUS
 10
10.7704368889
 20
10.4397129596
 11
10.7670332734
 21
10.4397833276
  0
SPLINE
  5
2A0
100
AcDbEntity
  8
0
100
AcDbSpline
 62
7
  6
CONTINUOUS
 70
0
 71
3
 72
11
 73
7
 74
0
 42
0.0000001
 43
0.0000001
 44
0.0000000001
 40
0.0
 40
0.0
 40
0.0
 40
0.0
 40
0.3038111018
 40
0.5790329921
 40
0.8144500044
 40
1.0
 40
1.0
 40
1.0
 40
1.0
 10
10.6718545941
 20
10.4326085937
 30
0.0
 10
10.6695355039
 20
10.4326086791
 30
0.0
 10
10.6651154637
 20
10.4326441951
 30
0.0
 10
10.6589002103
 20
10.432813429
 30
0.0
 10
10.6535927864
 20
10.4330891263
 30
0.0
 10
10.6503895596
 20
10.4333636029
 30
0.0
 10
10.6489834891
 20
10.4335340539
 30
0.0
  0
SPLINE
  5
2A1
100
AcDbEntity
  8
0
100
AcDbSpline
 62
7
  6
CONTINUOUS
 70
0
 71
3
 72
12
 73
8
 74
0
 42
0.0000001
 43
0.0000001
 44
0.0000000001
 40
0.0
 40
0.0
 40
0.0
 40
0.0
 40
0.0826516128
 40
0.1815293374
 40
0.4202163586
 40
0.6997259723
 40
1.0
 40
1.0
 40
1.0
 40
1.0
 10
10.6489834891
 20
10.4325293203
 30
0.0
 10
10.6498447313
 20
10.4324248483
 30
0.0
 10
10.6517415537
 20
10.4322390157
 30
0.0
 10
10.6561417025
 20
10.4319283275
 30
0.0
 10
10.6626155095
 20
10.4316781829
 30
0.0
 10
10.6712064817
 20
10.4315709865
 30
0.0
 10
10.6772925236
 20
10.4316256919
 30
0.0
 10
10.6804437816
 20
10.4316860806
 30
0.0
  0
SPLINE
  5
2A2
100
AcDbEntity
  8
0
100
AcDbSpline
 62
7
  6
CONTINUOUS
 70
0
 71
3
 72
11
 73
7
 74
0
 42
0.0000001
 43
0.0000001
 44
0.0000000001
 40
0.0
 40
0.0
 40
0.0
 40
0.0
 40
0.3186673241
 40
0.592648142
 40
0.8198842491
 40
1.0
 40
1.0
 40
1.0
 40
1.0
 10
10.7669665378
 20
10.4189886268
 30
0.0
 10
10.7678025294
 20
10.4191256456
 30
0.0
 10
10.7693531915
 20
10.4194066986
 30
0.0
 10
10.7714785139
 20
10.4198958894
 30
0.0
 10
10.7732144069
 20
10.4204165334
 30
0.0
 10
10.7742210862
 20
10.420825947
 30
0.0
 10
10.7746462409
 20
10.4210462017
 30
0.0
  0
SPLINE
  5
2A3
100
AcDbEntity
  8
0
100
AcDbSpline
 62
7
  6
CONTINUOUS
 70
0
 71
3
 72
11
 73
7
 74
0
 42
0.0000001
 43
0.0000001
 44
0.0000000001
 40
0.0
 40
0.0
 40
0.0
 40
0.0
 40
0.3324542645
 40
0.6012003729
 40
0.8167616846
 40
1.0
 40
1.0
 40
1.0
 40
1.0
 10
10.7746462409
 20
10.4210462017
 30
0.0
 10
10.7748623112
 20
10.4211581386
 30
0.0
 10
10.7752441493
 20
10.42137974
 30
0.0
 10
10.7757102193
 20
10.4217594949
 30
0.0
 10
10.7760086915
 20
10.4221558729
 30
0.0
 10
10.7760834891
 20
10.4224496208
 30
0.0
 10
10.7760834891
 20
10.4225837443
 30
0.0
  0
LINE
  5
2A4
100
AcDbEntity
  8
0
100
AcDbLine
 62
7
  6
CONTINUOUS
 10
10.7730834891
 20
10.4306773573
 11
10.7756721083
 21
10.430719213
  0
LINE
  5
2A5
100
AcDbEntity
  8
0
100
AcDbLine
 62
7
  6
CONTINUOUS
 10
10.7756721083
 20
10.430719213
 11
10.7760834891
 21
10.4308533986
  0
SPLINE
  5
2A6
100
AcDbEntity
  8
0
100
AcDbSpline
 62
7
  6
CONTINUOUS
 70
0
 71
3
 72
15
 73
11
 74
0
 42
0.0000001
 43
0.0000001
 44
0.0000000001
 40
0.0
 40
0.0
 40
0.0
 40
0.0
 40
0.1090055239
 40
0.2230764863
 40
0.3420583159
 40
0.4657743934
 40
0.59390955
 40
0.7260376329
 40
0.8616431605
 40
1.0
 40
1.0
 40
1.0
 40
1.0
 10
11.2948393118
 20
7.9006599308
 30
0.0
 10
11.2789760621
 20
7.9274504957
 30
0.0
 10
11.2483010373
 20
7.9833525083
 30
0.0
 10
11.2065040743
 20
8.0717190836
 30
0.0
 10
11.1682216957
 20
8.1662147225
 30
0.0
 10
11.1338045945
 20
8.2664386251
 30
0.0
 10
11.1035835981
 20
8.3719161931
 30
0.0
 10
11.0778928028
 20
8.4820766397
 30
0.0
 10
11.0570386742
 20
8.5962192816
 30
0.0
 10
11.0466134964
 20
8.6738064919
 30
0.0
 10
11.0422543311
 20
8.7130836538
 30
0.0
  0
LINE
  5
2A7
100
AcDbEntity
  8
0
100
AcDbLine
 62
7
  6
CONTINUOUS
 10
10.7762560489
 20
10.43576294
 11
10.7724687705
 21
10.436013745
  0
LINE
  5
2A8
100
AcDbEntity
  8
0
100
AcDbLine
 62
7
  6
CONTINUOUS
 10
10.6996272999
 20
10.4403162087
 11
10.6495305731
 21
10.4397129778
  0
LINE
  5
2A9
100
AcDbEntity
  8
0
100
AcDbLine
 62
7
  6
CONTINUOUS
 10
10.7760834891
 20
10.4318592615
 11
10.7745870981
 21
10.4316620627
  0
LINE
  5
2AA
100
AcDbEntity
  8
0
100
AcDbLine
 62
7
  6
CONTINUOUS
 10
10.7745870981
 20
10.4316620627
 11
10.7730834891
 21
10.431683335
  0
LINE
  5
2AB
100
AcDbEntity
  8
0
100
AcDbLine
 62
7
  6
CONTINUOUS
 10
10.7724687705
 20
10.4370162522
 11
10.7639834891
 21
10.4368187541
  0
SPLINE
  5
2AC
100
AcDbEntity
  8
0
100
AcDbSpline
 62
7
  6
CONTINUOUS
 70
0
 71
3
 72
15
 73
11
 74
0
 42
0.0000001
 43
0.0000001
 44
0.0000000001
 40
0.0
 40
0.0
 40
0.0
 40
0.0
 40
0.1090055676
 40
0.2230765517
 40
0.3420583363
 40
0.465774393
 40
0.5939095619
 40
0.7260376581
 40
0.8616431746
 40
1.0
 40
1.0
 40
1.0
 40
1.0
 10
10.1251276664
 20
7.9006599308
 30
0.0
 10
10.140990923
 20
7.9274505072
 30
0.0
 10
10.1716660305
 20
7.9833524955
 30
0.0
 10
10.2134630601
 20
8.0717190534
 30
0.0
 10
10.2517453054
 20
8.1662147368
 30
0.0
 10
10.2861623611
 20
8.2664386389
 30
0.0
 10
10.316383416
 20
8.3719161934
 30
0.0
 10
10.3420742995
 20
8.4820766278
 30
0.0
 10
10.3629283818
 20
8.5962192805
 30
0.0
 10
10.3733534822
 20
8.6738064948
 30
0.0
 10
10.3777126471
 20
8.7130836538
 30
0.0
  0
LINE
  5
2AD
100
AcDbEntity
  8
0
100
AcDbLine
 62
7
  6
CONTINUOUS
 10
10.7763230742
 20
10.4367610728
 11
10.7724687705
 21
10.4370162522
  0
SPLINE
  5
2AE
100
AcDbEntity
  8
0
100
AcDbSpline
 62
7
  6
CONTINUOUS
 70
0
 71
3
 72
15
 73
11
 74
0
 42
0.0000001
 43
0.0000001
 44
0.0000000001
 40
0.0
 40
0.0
 40
0.0
 40
0.0
 40
0.060729723
 40
0.1320690153
 40
0.2208921322
 40
0.3306822168
 40
0.4631074442
 40
0.6187765762
 40
0.7977892854
 40
1.0
 40
1.0
 40
1.0
 40
1.0
 10
10.7760834891
 20
10.4235950319
 30
0.0
 10
10.7760834891
 20
10.4234618505
 30
0.0
 10
10.7760097456
 20
10.4231703804
 30
0.0
 10
10.7757150326
 20
10.4227765535
 30
0.0
 10
10.775254499
 20
10.4223991563
 30
0.0
 10
10.7746259002
 20
10.4220319906
 30
0.0
 10
10.7738287755
 20
10.4216743562
 30
0.0
 10
10.7728643822
 20
10.4213268506
 30
0.0
 10
10.771735437
 20
10.4209908788
 30
0.0
 10
10.7709241718
 20
10.4207878677
 30
0.0
 10
10.7704922423
 20
10.4206874358
 30
0.0
  0
LINE
  5
2AF
100
AcDbEntity
  8
0
100
AcDbLine
 62
7
  6
CONTINUOUS
 10
10.7704922423
 20
10.4206874358
 11
10.7639834891
 21
10.4195693673
  0
ELLIPSE
  5
2B0
100
AcDbEntity
  8
0
100
AcDbEllipse
 62
7
  6
CONTINUOUS
 10
10.7099834891
 20
8.8883905744
 30
0.0
 11
1.1492470711
 21
1.1162095399
 31
0.0
 40
0.2678505055
 41
-3.3961017501
 42
-2.3489041989
  0
ELLIPSE
  5
2B1
100
AcDbEntity
  8
0
100
AcDbEllipse
 62
7
  6
CONTINUOUS
 10
10.7099834891
 20
8.8883905744
 30
0.0
 11
1.1875
 21
-0.0
 31
0.0
 40
0.9750549296
 41
-2.0943951024
 42
-1.0471975512
  0
ELLIPSE
  5
2B2
100
AcDbEntity
  8
0
100
AcDbEllipse
 62
7
  6
CONTINUOUS
 10
10.7099834891
 20
8.8883905744
 30
0.0
 11
-1.1492470711
 21
1.1162095399
 31
0.0
 40
0.2678505055
 41
-3.9342811082
 42
-2.887083557
  0
ENDSEC
  0
SECTION
  2
OBJECTS
  0
DICTIONARY
  5
C
100
AcDbDictionary
280
0
281
1
  3
ACAD_GROUP
350
D
  3
ACAD_MLINESTYLE
350
17
  3
ACAD_LAYOUT
350
1A
  3
ACAD_PLOTSETTINGS
350
19
  3
ACAD_PLOTSTYLENAME
350
E
  0
DICTIONARY
  5
D
102
{ACAD_REACTORS
330
C
102
}
100
AcDbDictionary
280
0
281
1
  0
ACDBDICTIONARYWDFLT
  5
E
102
{ACAD_REACTORS
330
C
102
}
100
AcDbDictionary
281
1
  3
Normal
350
F
100
AcDbDictionaryWithDefault
340
F
  0
DICTIONARY
  5
17
102
{ACAD_REACTORS
330
C
102
}
100
AcDbDictionary
280
0
281
1
  3
Standard
350
18
  0
DICTIONARY
  5
19
102
{ACAD_REACTORS
330
C
102
}
100
AcDbDictionary
281
1
  0
DICTIONARY
  5
1A
102
{ACAD_REACTORS
330
C
102
}
100
AcDbDictionary
281
1
  3
Model
350
2B3
  3
Layout1
350
2B4
  0
ACDBPLACEHOLDER
  5
F
102
{ACAD_REACTORS
330
E
102
}
  0
MLINESTYLE
  5
18
102
{ACAD_REACTORS
330
17
102
}
100
AcDbMlineStyle
  2
STANDARD
 70
0
  3

 62
256
 51
90.0
 52
90.0
 71
2
 49
0.5
 62
256
  6
BYLAYER
 49
-0.5
 62
256
  6
BYLAYER
  0
LAYOUT
  5
2B3
102
{ACAD_REACTORS
330
1A
102
}
100
AcDbPlotSettings
  1

  2
none_device
  4
ANSI_C_(22.00_x_17.00_Inches)
  6

 40
0.0
 41
0.0
 42
0.0
 43
0.0
 44
558.8
 45
431.8
 46
0.0
 47
0.0
 48
0.0
 49
0.0
140
0.0
141
0.0
142
1.0
143
1.0
 70
1024
 72
0
 73
0
 74
0
  7

 75
0
147
1.0
148
0.0
149
0.0
100
AcDbLayout
  1
Model
 70
0
 71
0
 10
0.0
 20
0.0
 11
22.0
 21
17.0
 12
0.0
 22
0.0
 32
0.0
 14
0.0
 24
0.0
 34
0.0
 15
0.0
 25
0.0
 35
0.0
146
0.0
 13
0.0
 23
0.0
 33
0.0
 16
1.0
 26
0.0
 36
0.0
 17
0.0
 27
1.0
 37
0.0
 76
0
330
202
345
0
346
0
  0
LAYOUT
  5
2B4
102
{ACAD_REACTORS
330
1A
102
}
100
AcDbPlotSettings
  1

  2
none_device
  4
ANSI_C_(22.00_x_17.00_Inches)
  6

 40
0.0
 41
0.0
 42
0.0
 43
0.0
 44
558.8
 45
431.8
 46
0.0
 47
0.0
 48
0.0
 49
0.0
140
0.0
141
0.0
142
1.0
143
1.0
 70
0
 72
0
 73
0
 74
0
  7

 75
0
147
1.0
148
0.0
149
0.0
100
AcDbLayout
  1
Layout1
 70
0
 71
1
 10
0.0
 20
0.0
 11
22.0
 21
17.0
 12
0.0
 22
0.0
 32
0.0
 14
0.0
 24
0.0
 34
0.0
 15
0.0
 25
0.0
 35
0.0
146
0.0
 13
0.0
 23
0.0
 33
0.0
 16
1.0
 26
0.0
 36
0.0
 17
0.0
 27
1.0
 37
0.0
 76
0
330
203
345
0
346
0
  0
ENDSEC
  0
EOF
