999
DXF file: E:\BT Custom\CADOUTPUT\_RIGHT.dxf
999
Pro/ENGINEER 2018400 by Parametric Technology Corporation
  0
SECTION
  2
HEADER
  9
$ACADVER
  1
AC1018
  9
$DWGCODEPAGE
  3
ANSI_1252
  9
$EXTMAX
 10
22.0
 20
17.0
 30
0.0
  9
$EXTMIN
 10
0.0
 20
0.0
 30
0.0
  9
$LIMMIN
 10
0.0
 20
0.0
  9
$LIMMAX
 10
22.0
 20
17.0
  9
$VIEWCTR
 10
11.0
 20
8.5
  9
$VIEWSIZE
 40
17.0
  9
$CLAYER
  8
0
  9
$LTSCALE
 40
1.21
  9
$CELTYPE
  6
BYLAYER
  9
$DIMSCALE
 40
1.0
  9
$DIMASZ
 40
0.1
  9
$DIMEXO
 40
0.0625
  9
$DIMDLI
 40
0.836
  9
$DIMEXE
 40
0.125
  9
$DIMCEN
 40
0.198
  9
$DIMLFAC
 40
1.0
  9
$DIMBLK
  1
_FILLED
  9
$DIMALT
 70
1
  9
$DIMALTD
 70
2
  9
$DIMALTTD
 70
2
  9
$DIMALTF
 40
25.4
  9
$DIMTXT
 40
0.08
  9
$DIMTOL
 70
1
  9
$DIMLIM
 70
0
  9
$DIMTFAC
 40
1.0
  9
$DIMTP
 40
0.001
  9
$DIMTM
 40
0.001
  9
$DIMGAP
 40
0.09
  9
$DIMDSEP
 70
46
  9
$AUNITS
 70
0
  9
$PDMODE
 70
3
  9
$PDSIZE
 40
0.06
  9
$HANDSEED
  5
2FA
  9
$TILEMODE
 70
1
  9
$MEASUREMENT
 70
0
  9
$INSUNITS
 70
1
  0
ENDSEC
  0
SECTION
  2
CLASSES
  0
CLASS
  1
ACDBDICTIONARYWDFLT
  2
AcDbDictionaryWithDefault
  3
AutoCAD 2000
 90
0
 91
1
280
0
281
0
  0
CLASS
  1
ACDBPLACEHOLDER
  2
AcDbPlaceHolder
  3
AutoCAD 2000
 90
0
 91
1
280
0
281
0
  0
CLASS
  1
LAYOUT
  2
AcDbLayout
  3
AutoCAD 2000
 90
0
 91
0
280
0
281
0
  0
ENDSEC
  0
SECTION
  2
TABLES
  0
TABLE
  2
VPORT
  5
8
100
AcDbSymbolTable
 70
2
  0
VPORT
  5
1F4
100
AcDbSymbolTableRecord
100
AcDbViewportTableRecord
  2
*ACTIVE
 70
0
 10
0.0
 20
0.0
 11
1.0
 21
1.0
 12
11.0
 22
8.5
 13
0.0
 23
0.0
 14
1.0
 24
1.0
 15
0.0
 25
0.0
 16
0.0
 26
0.0
 36
1.0
 17
0.0
 27
0.0
 37
0.0
 40
17.0
 41
1.2941176471
 42
50.0
 43
0.0
 44
0.0
 50
0.0
 51
0.0
 71
0
 72
100
 73
1
 74
1
 75
0
 76
0
 77
0
 78
0
  0
ENDTAB
  0
TABLE
  2
LTYPE
  5
5
100
AcDbSymbolTable
 70
6
  0
LTYPE
  5
14
100
AcDbSymbolTableRecord
100
AcDbLinetypeTableRecord
  2
BYBLOCK
 70
0
  3

 72
65
 73
0
 40
0.0
  0
LTYPE
  5
15
100
AcDbSymbolTableRecord
100
AcDbLinetypeTableRecord
  2
BYLAYER
 70
0
  3

 72
65
 73
0
 40
0.0
  0
LTYPE
  5
16
100
AcDbSymbolTableRecord
100
AcDbLinetypeTableRecord
  2
CONTINUOUS
 70
64
  3
Solid line
 72
65
 73
0
 40
0.0
  0
LTYPE
  5
1F5
100
AcDbSymbolTableRecord
100
AcDbLinetypeTableRecord
  2
CENTER
 70
64
  3
____ _ ____ _ ____ _ ____ _ ____ _ ____ _ ____
 72
65
 73
4
 40
0.6
 49
0.375
 74
0
 49
-0.075
 74
0
 49
0.075
 74
0
 49
-0.075
 74
0
  0
LTYPE
  5
1F6
100
AcDbSymbolTableRecord
100
AcDbLinetypeTableRecord
  2
HIDDEN
 70
64
  3
- - - - - - - - - - - - - - - - - - - -
 72
65
 73
2
 40
0.2
 49
0.1
 74
0
 49
-0.1
 74
0
  0
LTYPE
  5
1F7
100
AcDbSymbolTableRecord
100
AcDbLinetypeTableRecord
  2
PHANTOM
 70
64
  3
_____ _ _ _____ _ _ _____ _ _ _____
 72
65
 73
6
 40
0.8
 49
0.45
 74
0
 49
-0.05
 74
0
 49
0.1
 74
0
 49
-0.05
 74
0
 49
0.1
 74
0
 49
-0.05
 74
0
  0
LTYPE
  5
1F8
100
AcDbSymbolTableRecord
100
AcDbLinetypeTableRecord
  2
DOT
 70
64
  3
. . . . . . . . . . . . . . . . . . . .
 72
65
 73
2
 40
0.2
 49
0.1
 74
0
 49
-0.1
 74
0
  0
LTYPE
  5
1F9
100
AcDbSymbolTableRecord
100
AcDbLinetypeTableRecord
  2
DASHED
 70
64
  3
- - - - - - - - - - - - - - - - - - - -
 72
65
 73
2
 40
0.2
 49
0.1
 74
0
 49
-0.1
 74
0
  0
ENDTAB
  0
TABLE
  2
LAYER
  5
2
100
AcDbSymbolTable
 70
36
  0
LAYER
  5
10
100
AcDbSymbolTableRecord
100
AcDbLayerTableRecord
  2
0
 70
0
 62
7
  6
CONTINUOUS
370
-3
390
F
  0
LAYER
  5
1FA
100
AcDbSymbolTableRecord
100
AcDbLayerTableRecord
  2
DEFAULT_1
 70
0
 62
7
  6
CENTER
370
-3
390
F
  0
LAYER
  5
1FB
100
AcDbSymbolTableRecord
100
AcDbLayerTableRecord
  2
DEFAULT_2
 70
0
 62
8
  6
HIDDEN
370
-3
390
F
  0
LAYER
  5
1FC
100
AcDbSymbolTableRecord
100
AcDbLayerTableRecord
  2
DEFAULT_3
 70
0
 62
7
  6
PHANTOM
370
-3
390
F
  0
LAYER
  5
1FD
100
AcDbSymbolTableRecord
100
AcDbLayerTableRecord
  2
ALL_FEATURES
 70
0
 62
7
  6
CONTINUOUS
370
-3
390
F
  0
LAYER
  5
1FE
100
AcDbSymbolTableRecord
100
AcDbLayerTableRecord
  2
AXES_FEATURES
 70
0
 62
7
  6
CONTINUOUS
370
-3
390
F
  0
LAYER
  5
1FF
100
AcDbSymbolTableRecord
100
AcDbLayerTableRecord
  2
DIMENSIONS
 70
0
 62
7
  6
CONTINUOUS
370
-3
390
F
  0
ENDTAB
  0
TABLE
  2
STYLE
  5
3
100
AcDbSymbolTable
 70
1
  0
STYLE
  5
11
100
AcDbSymbolTableRecord
100
AcDbTextStyleTableRecord
  2
STANDARD
 70
0
 40
0.0
 41
0.8
 50
0.0
 71
0
 42
0.2
  3
txt
  4

  0
STYLE
  5
200
100
AcDbSymbolTableRecord
100
AcDbTextStyleTableRecord
  2
TEXTSTYLE_1
 70
0
 40
0.0
 41
0.8
 50
0.0
 71
0
 42
0.2
  3
gdt
  4

  0
ENDTAB
  0
TABLE
  2
VIEW
  5
6
100
AcDbSymbolTable
 70
0
  0
ENDTAB
  0
TABLE
  2
UCS
  5
7
100
AcDbSymbolTable
 70
0
  0
ENDTAB
  0
TABLE
  2
APPID
  5
9
100
AcDbSymbolTable
 70
1
  0
APPID
  5
201
100
AcDbSymbolTableRecord
100
AcDbRegAppTableRecord
  2
ACAD
 70
0
  0
ENDTAB
  0
TABLE
  2
BLOCK_RECORD
  5
1
100
AcDbSymbolTable
 70
0
  0
BLOCK_RECORD
  5
202
100
AcDbSymbolTableRecord
100
AcDbBlockTableRecord
  2
*Model_Space
  0
BLOCK_RECORD
  5
203
100
AcDbSymbolTableRecord
100
AcDbBlockTableRecord
  2
*Paper_Space
  0
BLOCK_RECORD
  5
204
100
AcDbSymbolTableRecord
100
AcDbBlockTableRecord
  2
_FILLED
  0
ENDTAB
  0
TABLE
  2
DIMSTYLE
  5
A
100
AcDbSymbolTable
 70
1
100
AcDbDimStyleTable
 71
0
  0
DIMSTYLE
105
205
100
AcDbSymbolTableRecord
100
AcDbDimStyleTableRecord
  2
STANDARD
 70
0
  3

  4

 40
1.0
 41
0.1
 42
0.0625
 43
0.38
 44
0.125
 45
0.0
 46
0.0
 47
0.001
 48
0.001
140
0.08
141
0.09
142
0.0
143
25.4
144
1.0
145
0.0
146
1.0
147
0.09
 71
1.0
 72
0.0
 73
1
 74
1
 75
0
 76
0
 77
0
 78
4
 79
1
170
1
171
2
172
0
173
0
174
0
175
0
176
0
177
0
178
0
270
2
179
3
271
3
272
3
273
2
274
2
275
0
280
0
281
0
282
0
283
1
284
4
285
0
286
0
287
3
288
0
340
11
278
46
341
204
342
204
343
204
344
204
  0
ENDTAB
  0
ENDSEC
  0
SECTION
  2
BLOCKS
  0
BLOCK
  5
20
100
AcDbEntity
  8
0
100
AcDbBlockBegin
  2
*Model_Space
 70
0
 10
0.0
 20
0.0
 30
0.0
  3
*Model_Space
  1

  0
ENDBLK
  5
21
100
AcDbEntity
  8
0
100
AcDbBlockEnd
  0
BLOCK
  5
1C
100
AcDbEntity
  8
0
100
AcDbBlockBegin
  2
*Paper_Space
 70
0
 10
0.0
 20
0.0
 30
0.0
  3
*Paper_Space
  1

  0
ENDBLK
  5
1D
100
AcDbEntity
  8
0
100
AcDbBlockEnd
  0
BLOCK
  5
206
100
AcDbEntity
  8
0
100
AcDbBlockBegin
  2
_FILLED
 70
64
 10
0.0
 20
0.0
  3
_FILLED
  1

  0
SOLID
  5
207
100
AcDbEntity
  8
0
  6
BYBLOCK
 62
0
100
AcDbTrace
 10
0.0
 20
0.0
 11
-1.0
 21
0.2
 12
-1.0
 22
-0.2
 13
-1.0
 23
-0.2
  0
ENDBLK
  5
208
100
AcDbEntity
  8
0
  6
BYBLOCK
 62
0
100
AcDbBlockEnd
  0
ENDSEC
  0
SECTION
  2
ENTITIES
  0
LINE
  5
209
100
AcDbEntity
  8
0
100
AcDbLine
 62
7
  6
CONTINUOUS
 10
10.6038629905
 20
10.4330712588
 11
10.6024834891
 21
10.4325004566
  0
LINE
  5
20A
100
AcDbEntity
  8
0
100
AcDbLine
 62
7
  6
CONTINUOUS
 10
10.255473533
 20
10.365891804
 11
10.1967493369
 21
10.3468111561
  0
LINE
  5
20B
100
AcDbEntity
  8
0
100
AcDbLine
 62
7
  6
CONTINUOUS
 10
9.5224834891
 20
7.578891804
 11
11.8974834891
 21
7.578891804
  0
LINE
  5
20C
100
AcDbEntity
  8
0
100
AcDbLine
 62
7
  6
CONTINUOUS
 10
10.2093302767
 20
10.240391804
 11
10.1824834891
 21
10.224891804
  0
LINE
  5
20D
100
AcDbEntity
  8
0
100
AcDbLine
 62
7
  6
CONTINUOUS
 10
9.5224834891
 20
7.578891804
 11
9.5224834891
 21
7.8856390468
  0
LINE
  5
20E
100
AcDbEntity
  8
0
100
AcDbLine
 62
7
  6
CONTINUOUS
 10
10.1967493369
 20
10.3468111561
 11
10.1824834891
 21
10.3271759012
  0
LINE
  5
20F
100
AcDbEntity
  8
0
100
AcDbLine
 62
9
  6
CONTINUOUS
 10
11.8796951345
 20
7.9006599308
 11
9.5402718438
 21
7.9006599308
  0
LINE
  5
210
100
AcDbEntity
  8
0
100
AcDbLine
 62
7
  6
CONTINUOUS
 10
10.1824834891
 20
10.224891804
 11
10.1524834891
 21
10.144891804
  0
LINE
  5
211
100
AcDbEntity
  8
0
100
AcDbLine
 62
7
  6
CONTINUOUS
 10
10.1264851295
 20
9.8201018503
 11
10.0968986036
 21
9.7790649613
  0
LINE
  5
212
100
AcDbEntity
  8
0
100
AcDbLine
 62
7
  6
CONTINUOUS
 10
11.2106367016
 20
10.240391804
 11
11.2374834891
 21
10.255891804
  0
LINE
  5
213
100
AcDbEntity
  8
0
100
AcDbLine
 62
7
  6
CONTINUOUS
 10
10.1824834891
 20
10.3271759012
 11
10.1824834891
 21
10.255891804
  0
LINE
  5
214
100
AcDbEntity
  8
0
100
AcDbLine
 62
7
  6
CONTINUOUS
 10
10.0454418051
 20
8.7130836538
 11
10.1326332199
 21
9.105891804
  0
LINE
  5
215
100
AcDbEntity
  8
0
100
AcDbLine
 62
7
  6
CONTINUOUS
 10
10.2799834891
 20
9.225891804
 11
10.2799834891
 21
9.105891804
  0
LINE
  5
216
100
AcDbEntity
  8
0
100
AcDbLine
 62
7
  6
CONTINUOUS
 10
11.0804834891
 20
9.604891804
 11
11.2374834891
 21
9.655891804
  0
LINE
  5
217
100
AcDbEntity
  8
0
100
AcDbLine
 62
7
  6
CONTINUOUS
 10
10.3664834891
 20
9.604891804
 11
10.3664834891
 21
9.245891804
  0
LINE
  5
218
100
AcDbEntity
  8
0
100
AcDbLine
 62
7
  6
CONTINUOUS
 10
10.4024834891
 20
10.4100971815
 11
10.4024834891
 21
10.409634503
  0
LINE
  5
219
100
AcDbEntity
  8
0
100
AcDbLine
 62
7
  6
CONTINUOUS
 10
10.3777126471
 20
8.7130836538
 11
10.4213083545
 21
9.105891804
  0
LINE
  5
21A
100
AcDbEntity
  8
0
100
AcDbLine
 62
9
  6
CONTINUOUS
 10
10.0454418051
 20
8.7130836538
 11
11.3745251731
 21
8.7130836538
  0
LINE
  5
21B
100
AcDbEntity
  8
0
100
AcDbLine
 62
7
  6
CONTINUOUS
 10
10.1524834891
 20
9.734891804
 11
10.1824834891
 21
9.655891804
  0
LINE
  5
21C
100
AcDbEntity
  8
0
100
AcDbLine
 62
7
  6
CONTINUOUS
 10
10.5104834891
 20
9.245891804
 11
10.5104834891
 21
9.225891804
  0
LINE
  5
21D
100
AcDbEntity
  8
0
100
AcDbLine
 62
7
  6
CONTINUOUS
 10
11.2934818487
 20
10.0596817577
 11
11.3230683747
 21
10.1007186468
  0
LINE
  5
21E
100
AcDbEntity
  8
0
100
AcDbLine
 62
9
  6
CONTINUOUS
 10
10.6038629905
 20
10.4330712588
 11
10.6038629905
 21
10.4320661866
  0
LINE
  5
21F
100
AcDbEntity
  8
0
100
AcDbLine
 62
7
  6
CONTINUOUS
 10
10.6281872319
 20
10.4339068184
 11
10.6281872319
 21
10.434910693
  0
LINE
  5
220
100
AcDbEntity
  8
0
100
AcDbLine
 62
7
  6
CONTINUOUS
 10
10.6424834891
 20
10.4391314847
 11
10.6424834891
 21
10.4381303475
  0
LINE
  5
221
100
AcDbEntity
  8
0
100
AcDbLine
 62
7
  6
CONTINUOUS
 10
11.8974834891
 20
7.8856390468
 11
11.8796951345
 21
7.9006599308
  0
LINE
  5
222
100
AcDbEntity
  8
0
100
AcDbLine
 62
7
  6
CONTINUOUS
 10
11.3037334891
 20
7.8856390468
 11
11.2948393118
 21
7.9006599308
  0
LINE
  5
223
100
AcDbEntity
  8
0
100
AcDbLine
 62
7
  6
CONTINUOUS
 10
10.1162334891
 20
7.8856390468
 11
10.1251276664
 21
7.9006599308
  0
LINE
  5
224
100
AcDbEntity
  8
0
100
AcDbLine
 62
7
  6
CONTINUOUS
 10
9.5224834891
 20
7.8856390468
 11
9.5402718438
 21
7.9006599308
  0
LINE
  5
225
100
AcDbEntity
  8
0
100
AcDbLine
 62
7
  6
CONTINUOUS
 10
10.1326332199
 20
9.105891804
 11
11.2873337583
 21
9.105891804
  0
LINE
  5
226
100
AcDbEntity
  8
0
100
AcDbLine
 62
7
  6
CONTINUOUS
 10
10.9094834891
 20
9.245891804
 11
10.9094834891
 21
9.225891804
  0
LINE
  5
227
100
AcDbEntity
  8
0
100
AcDbLine
 62
7
  6
CONTINUOUS
 10
11.2674834891
 20
9.734891804
 11
11.2374834891
 21
9.655891804
  0
LINE
  5
228
100
AcDbEntity
  8
0
100
AcDbLine
 62
7
  6
CONTINUOUS
 10
11.1399834891
 20
9.225891804
 11
10.2799834891
 21
9.225891804
  0
LINE
  5
229
100
AcDbEntity
  8
0
100
AcDbLine
 62
7
  6
CONTINUOUS
 10
10.3664840167
 20
9.245891804
 11
11.0534829616
 21
9.245891804
  0
LINE
  5
22A
100
AcDbEntity
  8
0
100
AcDbLine
 62
7
  6
CONTINUOUS
 10
10.1264851295
 20
10.0596817577
 11
10.0968986036
 21
10.1007186468
  0
LINE
  5
22B
100
AcDbEntity
  8
0
100
AcDbLine
 62
7
  6
CONTINUOUS
 10
11.0534834891
 20
9.604891804
 11
11.0534834891
 21
9.245891804
  0
LINE
  5
22C
100
AcDbEntity
  8
0
100
AcDbLine
 62
7
  6
CONTINUOUS
 10
11.0422543311
 20
8.7130836538
 11
10.9986586237
 21
9.105891804
  0
LINE
  5
22D
100
AcDbEntity
  8
0
100
AcDbLine
 62
7
  6
CONTINUOUS
 10
11.1399834891
 20
9.225891804
 11
11.1399834891
 21
9.105891804
  0
LINE
  5
22E
100
AcDbEntity
  8
0
100
AcDbLine
 62
7
  6
CONTINUOUS
 10
10.3394834891
 20
9.604891804
 11
10.1824834891
 21
9.655891804
  0
LINE
  5
22F
100
AcDbEntity
  8
0
100
AcDbLine
 62
7
  6
CONTINUOUS
 10
11.2374834891
 20
10.3271759012
 11
11.2374834891
 21
10.255891804
  0
LINE
  5
230
100
AcDbEntity
  8
0
100
AcDbLine
 62
7
  6
CONTINUOUS
 10
10.3394840893
 20
9.604891804
 11
11.080482889
 21
9.604891804
  0
LINE
  5
231
100
AcDbEntity
  8
0
100
AcDbLine
 62
7
  6
CONTINUOUS
 10
11.3745251731
 20
8.7130836538
 11
11.2873337583
 21
9.105891804
  0
LINE
  5
232
100
AcDbEntity
  8
0
100
AcDbLine
 62
7
  6
CONTINUOUS
 10
11.2374834891
 20
9.655891804
 11
10.1824834891
 21
9.655891804
  0
LINE
  5
233
100
AcDbEntity
  8
0
100
AcDbLine
 62
7
  6
CONTINUOUS
 10
10.1524834891
 20
9.734891804
 11
11.2674834891
 21
9.734891804
  0
LINE
  5
234
100
AcDbEntity
  8
0
100
AcDbLine
 62
7
  6
CONTINUOUS
 10
10.359559701
 20
9.743891804
 11
10.3500619117
 21
9.743891804
  0
LINE
  5
235
100
AcDbEntity
  8
0
100
AcDbLine
 62
7
  6
CONTINUOUS
 10
11.0606367068
 20
9.743891804
 11
11.0699050665
 21
9.743891804
  0
LINE
  5
236
100
AcDbEntity
  8
0
100
AcDbLine
 62
7
  6
CONTINUOUS
 10
10.2093302767
 20
10.240391804
 11
10.1824834891
 21
10.255891804
  0
LINE
  5
237
100
AcDbEntity
  8
0
100
AcDbLine
 62
7
  6
CONTINUOUS
 10
11.2934818487
 20
9.8201018503
 11
11.3230683747
 21
9.7790649613
  0
LINE
  5
238
100
AcDbEntity
  8
0
100
AcDbLine
 62
7
  6
CONTINUOUS
 10
11.2374834891
 20
10.224891804
 11
11.2674834891
 21
10.144891804
  0
LINE
  5
239
100
AcDbEntity
  8
0
100
AcDbLine
 62
7
  6
CONTINUOUS
 10
10.3593305931
 20
10.135891804
 11
10.3500619117
 21
10.135891804
  0
LINE
  5
23A
100
AcDbEntity
  8
0
100
AcDbLine
 62
7
  6
CONTINUOUS
 10
11.0604076225
 20
10.135891804
 11
11.0699050665
 21
10.135891804
  0
LINE
  5
23B
100
AcDbEntity
  8
0
100
AcDbLine
 62
7
  6
CONTINUOUS
 10
11.8974834891
 20
7.578891804
 11
11.8974834891
 21
7.8856390468
  0
LINE
  5
23C
100
AcDbEntity
  8
0
100
AcDbLine
 62
7
  6
CONTINUOUS
 10
11.2674834891
 20
10.144891804
 11
10.1524834891
 21
10.144891804
  0
LINE
  5
23D
100
AcDbEntity
  8
0
100
AcDbLine
 62
7
  6
CONTINUOUS
 10
10.1824834891
 20
10.224891804
 11
11.2374834891
 21
10.224891804
  0
LINE
  5
23E
100
AcDbEntity
  8
0
100
AcDbLine
 62
7
  6
CONTINUOUS
 10
10.2093302767
 20
10.240391804
 11
11.2106367016
 21
10.240391804
  0
LINE
  5
23F
100
AcDbEntity
  8
0
100
AcDbLine
 62
7
  6
CONTINUOUS
 10
10.1824834891
 20
10.255891804
 11
11.2374834891
 21
10.255891804
  0
LINE
  5
240
100
AcDbEntity
  8
0
100
AcDbLine
 62
7
  6
CONTINUOUS
 10
11.2232176414
 20
10.3468111561
 11
11.2374834891
 21
10.3271759012
  0
LINE
  5
241
100
AcDbEntity
  8
0
100
AcDbLine
 62
7
  6
CONTINUOUS
 10
11.2374834891
 20
10.3271759012
 11
10.1824834891
 21
10.3271759012
  0
LINE
  5
242
100
AcDbEntity
  8
0
100
AcDbLine
 62
7
  6
CONTINUOUS
 10
10.1967493369
 20
10.3468111561
 11
11.2232176414
 21
10.3468111561
  0
LINE
  5
243
100
AcDbEntity
  8
0
100
AcDbLine
 62
7
  6
CONTINUOUS
 10
11.1644771541
 20
10.365891804
 11
10.2554898241
 21
10.365891804
  0
LINE
  5
244
100
AcDbEntity
  8
0
100
AcDbLine
 62
9
  6
CONTINUOUS
 10
11.1051281457
 20
10.3897010973
 11
10.3148398206
 21
10.3897013575
  0
LINE
  5
245
100
AcDbEntity
  8
0
100
AcDbLine
 62
7
  6
CONTINUOUS
 10
11.2106367016
 20
10.240391804
 11
11.2374834891
 21
10.224891804
  0
LINE
  5
246
100
AcDbEntity
  8
0
100
AcDbLine
 62
7
  6
CONTINUOUS
 10
11.0174834891
 20
10.4100971936
 11
11.1051281457
 21
10.3897010973
  0
LINE
  5
247
100
AcDbEntity
  8
0
100
AcDbLine
 62
7
  6
CONTINUOUS
 10
11.1644934452
 20
10.365891804
 11
11.2232176414
 21
10.3468111561
  0
ARC
  5
248
100
AcDbEntity
  8
0
100
AcDbCircle
 62
7
  6
CONTINUOUS
 10
9.2298446002
 20
9.939891804
 40
0.9451388889
100
AcDbArc
 50
347.4730187713
 51
350.6558033147
  0
ARC
  5
249
100
AcDbEntity
  8
0
100
AcDbCircle
 62
7
  6
CONTINUOUS
 10
9.2298446002
 20
9.939891804
 40
0.9451388889
100
AcDbArc
 50
9.3556020554
 51
12.5269812287
  0
ARC
  5
24A
100
AcDbEntity
  8
0
100
AcDbCircle
 62
7
  6
CONTINUOUS
 10
9.873829446
 20
9.9398916178
 40
0.2749991351
100
AcDbArc
 50
35.7908157028
 51
324.2094451791
  0
ARC
  5
24B
100
AcDbEntity
  8
0
100
AcDbCircle
 62
7
  6
CONTINUOUS
 10
9.9452626148
 20
9.9398918736
 40
0.2685397179
100
AcDbArc
 50
359.8020381698
 51
0.1976970707
  0
ARC
  5
24C
100
AcDbEntity
  8
0
100
AcDbCircle
 62
7
  6
CONTINUOUS
 10
10.6679173519
 20
10.1520309703
 40
0.2872676167
100
AcDbArc
 50
100.8673646919
 51
102.8840062821
  0
ARC
  5
24D
100
AcDbEntity
  8
0
100
AcDbCircle
 62
7
  6
CONTINUOUS
 10
10.6676985327
 20
10.1538802147
 40
0.286395907
100
AcDbArc
 50
100.9032078513
 51
102.8789891683
  0
ARC
  5
24E
100
AcDbEntity
  8
0
100
AcDbCircle
 62
7
  6
CONTINUOUS
 10
10.6853912154
 20
10.1566636755
 40
0.2840663627
100
AcDbArc
 50
99.330345798
 51
101.6174014672
  0
ARC
  5
24F
100
AcDbEntity
  8
0
100
AcDbCircle
 62
7
  6
CONTINUOUS
 10
10.666909255
 20
10.1571567715
 40
0.2820436786
100
AcDbArc
 50
98.8545984604
 51
100.8625665182
  0
ARC
  5
250
100
AcDbEntity
  8
0
100
AcDbCircle
 62
7
  6
CONTINUOUS
 10
10.6668647862
 20
10.1582452302
 40
0.2819519849
100
AcDbArc
 50
98.9123333541
 51
100.904619916
  0
ARC
  5
251
100
AcDbEntity
  8
0
100
AcDbCircle
 62
7
  6
CONTINUOUS
 10
10.6665075206
 20
10.1605092148
 40
0.2796599857
100
AcDbArc
 50
97.976935697
 51
98.9118808333
  0
ARC
  5
252
100
AcDbEntity
  8
0
100
AcDbCircle
 62
7
  6
CONTINUOUS
 10
10.666493688
 20
10.1597467629
 40
0.2794205874
100
AcDbArc
 50
97.9522016407
 51
98.8521494342
  0
ARC
  5
253
100
AcDbEntity
  8
0
100
AcDbCircle
 62
7
  6
CONTINUOUS
 10
10.6662841712
 20
10.1612413849
 40
0.2779113519
100
AcDbArc
 50
96.8647100523
 51
97.9520520231
  0
ARC
  5
254
100
AcDbEntity
  8
0
100
AcDbCircle
 62
7
  6
CONTINUOUS
 10
10.6662454405
 20
10.1623819616
 40
0.2777689895
100
AcDbArc
 50
96.9088710966
 51
97.9770068871
  0
ARC
  5
255
100
AcDbEntity
  8
0
100
AcDbCircle
 62
7
  6
CONTINUOUS
 10
10.6843453533
 20
10.1629663672
 40
0.277677494
100
AcDbArc
 50
93.5922478985
 51
99.3282427643
  0
ARC
  5
256
100
AcDbEntity
  8
0
100
AcDbCircle
 62
9
  6
CONTINUOUS
 10
10.2114760408
 20
9.9398918156
 40
0.2771788
100
AcDbArc
 50
359.9999976148
 51
0.4371261492
  0
ARC
  5
257
100
AcDbEntity
  8
0
100
AcDbCircle
 62
7
  6
CONTINUOUS
 10
10.6660041517
 20
10.1635737007
 40
0.2755622868
100
AcDbArc
 50
94.8964481477
 51
96.8648678095
  0
ARC
  5
258
100
AcDbEntity
  8
0
100
AcDbCircle
 62
7
  6
CONTINUOUS
 10
10.6659575064
 20
10.1648256261
 40
0.2753084336
100
AcDbArc
 50
94.8912309268
 51
96.9105581719
  0
ARC
  5
259
100
AcDbEntity
  8
0
100
AcDbCircle
 62
7
  6
CONTINUOUS
 10
10.6839515157
 20
10.1665842722
 40
0.2740420718
100
AcDbArc
 50
92.0398066942
 51
93.55746126
  0
ARC
  5
25A
100
AcDbEntity
  8
0
100
AcDbCircle
 62
9
  6
CONTINUOUS
 10
10.2023978898
 20
9.939891815
 40
0.2639957462
100
AcDbArc
 50
359.9999976148
 51
0.4371261493
  0
ARC
  5
25B
100
AcDbEntity
  8
0
100
AcDbCircle
 62
7
  6
CONTINUOUS
 10
10.4733880981
 20
9.8817487258
 40
0.2538515459
100
AcDbArc
 50
192.8295147752
 51
194.7608950301
  0
ARC
  5
25C
100
AcDbEntity
  8
0
100
AcDbCircle
 62
7
  6
CONTINUOUS
 10
10.4691252626
 20
9.9990783771
 40
0.2494635854
100
AcDbArc
 50
165.2901332323
 51
167.2596354602
  0
ARC
  5
25D
100
AcDbEntity
  8
0
100
AcDbCircle
 62
7
  6
CONTINUOUS
 10
10.4052809818
 20
9.919584211
 40
0.1991110288
100
AcDbArc
 50
208.8635067751
 51
210.568287662
  0
ARC
  5
25E
100
AcDbEntity
  8
0
100
AcDbCircle
 62
7
  6
CONTINUOUS
 10
10.4046615448
 20
9.9605535805
 40
0.1983975881
100
AcDbArc
 50
149.5658004095
 51
151.1169027854
  0
ARC
  5
25F
100
AcDbEntity
  8
0
100
AcDbCircle
 62
7
  6
CONTINUOUS
 10
10.0121646312
 20
9.9166534678
 40
0.197223208
100
AcDbArc
 50
329.6562566915
 51
330.1365229914
  0
ARC
  5
260
100
AcDbEntity
  8
0
100
AcDbCircle
 62
7
  6
CONTINUOUS
 10
10.0123454739
 20
9.9632335578
 40
0.197014907
100
AcDbArc
 50
29.9871541703
 51
30.3194978429
  0
ARC
  5
261
100
AcDbEntity
  8
0
100
AcDbCircle
 62
7
  6
CONTINUOUS
 10
10.4019796769
 20
9.9621247774
 40
0.1952893634
100
AcDbArc
 50
148.9408391827
 51
149.5646878259
  0
ARC
  5
262
100
AcDbEntity
  8
0
100
AcDbCircle
 62
7
  6
CONTINUOUS
 10
10.4016836491
 20
9.9174812736
 40
0.194944161
100
AcDbArc
 50
210.5738126831
 51
211.1487031112
  0
ARC
  5
263
100
AcDbEntity
  8
0
100
AcDbCircle
 62
7
  6
CONTINUOUS
 10
10.2945302558
 20
9.9551701534
 40
0.1928940502
100
AcDbArc
 50
64.1049514241
 51
67.7334331511
  0
ARC
  5
264
100
AcDbEntity
  8
0
100
AcDbCircle
 62
9
  6
CONTINUOUS
 10
10.3970295558
 20
9.9170119301
 40
0.1903873484
100
AcDbArc
 50
209.2392012976
 51
209.4172907033
  0
ARC
  5
265
100
AcDbEntity
  8
0
100
AcDbCircle
 62
9
  6
CONTINUOUS
 10
10.3961835663
 20
9.9632468625
 40
0.1894170502
100
AcDbArc
 50
150.0177845119
 51
150.6994444601
  0
ARC
  5
266
100
AcDbEntity
  8
0
100
AcDbCircle
 62
9
  6
CONTINUOUS
 10
10.3958577667
 20
9.9163491856
 40
0.1890411252
100
AcDbArc
 50
209.416760245
 51
210.080302735
  0
ARC
  5
267
100
AcDbEntity
  8
0
100
AcDbCircle
 62
7
  6
CONTINUOUS
 10
10.2968122533
 20
9.9193560262
 40
0.187164127
100
AcDbArc
 50
292.2856806456
 51
294.4508806547
  0
ARC
  5
268
100
AcDbEntity
  8
0
100
AcDbCircle
 62
9
  6
CONTINUOUS
 10
10.3934475697
 20
9.9149503686
 40
0.1862544188
100
AcDbArc
 50
210.0795623372
 51
211.4755677279
  0
ARC
  5
269
100
AcDbEntity
  8
0
100
AcDbCircle
 62
9
  6
CONTINUOUS
 10
10.3932261069
 20
9.9649645038
 40
0.1859969977
100
AcDbArc
 50
148.684951048
 51
150.0208196611
  0
ARC
  5
26A
100
AcDbEntity
  8
0
100
AcDbCircle
 62
9
  6
CONTINUOUS
 10
10.3667811503
 20
9.9841471715
 40
0.1532833057
100
AcDbArc
 50
138.4624579165
 51
139.3474544133
  0
ARC
  5
26B
100
AcDbEntity
  8
0
100
AcDbCircle
 62
9
  6
CONTINUOUS
 10
10.3663184402
 20
9.8952262145
 40
0.1526649397
100
AcDbArc
 50
221.1231496756
 51
221.6515557757
  0
ARC
  5
26C
100
AcDbEntity
  8
0
100
AcDbCircle
 62
7
  6
CONTINUOUS
 10
10.3741677869
 20
9.8539777231
 40
0.1200346188
100
AcDbArc
 50
243.0165341899
 51
244.0314800073
  0
ARC
  5
26D
100
AcDbEntity
  8
0
100
AcDbCircle
 62
7
  6
CONTINUOUS
 10
10.3741476284
 20
10.0258473035
 40
0.1199885165
100
AcDbArc
 50
115.9521277884
 51
116.9310694495
  0
ARC
  5
26E
100
AcDbEntity
  8
0
100
AcDbCircle
 62
9
  6
CONTINUOUS
 10
10.3500226132
 20
9.8426613404
 40
0.0987695327
100
AcDbArc
 50
270.0227968957
 51
280.562228337
  0
ARC
  5
26F
100
AcDbEntity
  8
0
100
AcDbCircle
 62
9
  6
CONTINUOUS
 10
10.3500449928
 20
10.0374505981
 40
0.098441196
100
AcDbArc
 50
80.6138660418
 51
89.9901526484
  0
ARC
  5
270
100
AcDbEntity
  8
0
100
AcDbCircle
 62
7
  6
CONTINUOUS
 10
10.6067499947
 20
10.6088255087
 40
0.1769191516
100
AcDbArc
 50
271.5656016906
 51
273.4781141214
  0
ARC
  5
271
100
AcDbEntity
  8
0
100
AcDbCircle
 62
7
  6
CONTINUOUS
 10
10.3224834891
 20
10.3606914571
 40
0.03
100
AcDbArc
 50
104.7630312683
 51
170.0176441513
  0
ARC
  5
272
100
AcDbEntity
  8
0
100
AcDbCircle
 62
7
  6
CONTINUOUS
 10
10.7099877952
 20
8.8902030245
 40
1.5506892606
100
AcDbArc
 50
101.4376642154
 51
104.7630083101
  0
ARC
  5
273
100
AcDbEntity
  8
0
100
AcDbCircle
 62
7
  6
CONTINUOUS
 10
10.7099834891
 20
8.8902217886
 40
1.5506700155
100
AcDbArc
 50
79.3153285428
 51
79.4702643985
  0
ARC
  5
274
100
AcDbEntity
  8
0
100
AcDbCircle
 62
7
  6
CONTINUOUS
 10
10.7099834891
 20
8.8902217886
 40
1.5506700155
100
AcDbArc
 50
87.8558787558
 51
91.3220614647
  0
ARC
  5
275
100
AcDbEntity
  8
0
100
AcDbCircle
 62
7
  6
CONTINUOUS
 10
10.711013695
 20
8.8902218912
 40
1.550425486
100
AcDbArc
 50
93.4701331616
 51
93.9104079613
  0
ARC
  5
276
100
AcDbEntity
  8
0
100
AcDbCircle
 62
7
  6
CONTINUOUS
 10
10.7102329444
 20
8.8916939515
 40
1.5491780019
100
AcDbArc
 50
95.4223011626
 51
100.7044722708
  0
ARC
  5
277
100
AcDbEntity
  8
0
100
AcDbCircle
 62
7
  6
CONTINUOUS
 10
10.7102298
 20
8.8917272989
 40
1.5491445041
100
AcDbArc
 50
91.3328087593
 51
95.3150359754
  0
ARC
  5
278
100
AcDbEntity
  8
0
100
AcDbCircle
 62
7
  6
CONTINUOUS
 10
10.7107949962
 20
8.8920788803
 40
1.5485577334
100
AcDbArc
 50
94.0238946787
 51
101.4840951428
  0
ARC
  5
279
100
AcDbEntity
  8
0
100
AcDbCircle
 62
7
  6
CONTINUOUS
 10
10.7102298074
 20
8.8917255472
 40
1.5481462425
100
AcDbArc
 50
92.1336038698
 51
92.5068501667
  0
ARC
  5
27A
100
AcDbEntity
  8
0
100
AcDbCircle
 62
7
  6
CONTINUOUS
 10
10.7108455145
 20
8.8929721474
 40
1.5476700927
100
AcDbArc
 50
93.207633735
 51
93.4700811855
  0
ARC
  5
27B
100
AcDbEntity
  8
0
100
AcDbCircle
 62
7
  6
CONTINUOUS
 10
10.710610018
 20
8.8973406844
 40
1.543295207
100
AcDbArc
 50
92.5300612527
 51
93.0708845319
  0
ARC
  5
27C
100
AcDbEntity
  8
0
100
AcDbCircle
 62
7
  6
CONTINUOUS
 10
10.7332565769
 20
9.1968485792
 40
1.2426339155
100
AcDbArc
 50
90.5932092624
 51
91.072160654
  0
ARC
  5
27D
100
AcDbEntity
  8
0
100
AcDbCircle
 62
7
  6
CONTINUOUS
 10
10.7331661178
 20
9.2010444306
 40
1.2374364324
100
AcDbArc
 50
90.7911059314
 51
91.0737030449
  0
ARC
  5
27E
100
AcDbEntity
  8
0
100
AcDbCircle
 62
7
  6
CONTINUOUS
 10
10.7322710304
 20
9.2381359461
 40
1.2003346736
100
AcDbArc
 50
91.0641617175
 51
92.766275718
  0
ARC
  5
27F
100
AcDbEntity
  8
0
100
AcDbCircle
 62
7
  6
CONTINUOUS
 10
10.7316472736
 20
9.2618066189
 40
1.1776572016
100
AcDbArc
 50
91.0530135285
 51
95.0400706977
  0
ARC
  5
280
100
AcDbEntity
  8
0
100
AcDbCircle
 62
7
  6
CONTINUOUS
 10
10.738879152
 20
9.274960431
 40
1.1635193574
100
AcDbArc
 50
91.4238035837
 51
93.1770168836
  0
ARC
  5
281
100
AcDbEntity
  8
0
100
AcDbCircle
 62
7
  6
CONTINUOUS
 10
10.7284895537
 20
9.3093266946
 40
1.1290444329
100
AcDbArc
 50
92.7489571418
 51
95.0967755
  0
ARC
  5
282
100
AcDbEntity
  8
0
100
AcDbCircle
 62
7
  6
CONTINUOUS
 10
10.7356211383
 20
9.3313547886
 40
1.1070311186
100
AcDbArc
 50
93.1704140807
 51
94.8119984731
  0
ARC
  5
283
100
AcDbEntity
  8
0
100
AcDbCircle
 62
7
  6
CONTINUOUS
 10
10.7324334929
 20
9.3694563213
 40
1.0687964815
100
AcDbArc
 50
94.8130596382
 51
95.5951665685
  0
ARC
  5
284
100
AcDbEntity
  8
0
100
AcDbCircle
 62
7
  6
CONTINUOUS
 10
10.7310383271
 20
9.3838300582
 40
1.0543551993
100
AcDbArc
 50
95.5958678783
 51
95.7965892457
  0
ARC
  5
285
100
AcDbEntity
  8
0
100
AcDbCircle
 62
7
  6
CONTINUOUS
 10
12.190122378
 20
9.939891804
 40
0.9451388889
100
AcDbArc
 50
189.3454314595
 51
192.5269812287
  0
ARC
  5
286
100
AcDbEntity
  8
0
100
AcDbCircle
 62
7
  6
CONTINUOUS
 10
12.190122378
 20
9.939891804
 40
0.9451388889
100
AcDbArc
 50
167.4730187713
 51
170.6448301548
  0
ARC
  5
287
100
AcDbEntity
  8
0
100
AcDbCircle
 62
7
  6
CONTINUOUS
 10
11.5461364579
 20
9.939892277
 40
0.275
100
AcDbArc
 50
215.792139036
 51
144.2078711207
  0
ARC
  5
288
100
AcDbEntity
  8
0
100
AcDbCircle
 62
7
  6
CONTINUOUS
 10
11.5461001736
 20
9.9400908338
 40
0.2747975016
100
AcDbArc
 50
95.8600473078
 51
100.017536561
  0
ARC
  5
289
100
AcDbEntity
  8
0
100
AcDbCircle
 62
7
  6
CONTINUOUS
 10
10.9431261962
 20
9.9972209132
 40
0.2573987991
100
AcDbArc
 50
12.779047821
 51
14.3618944683
  0
ARC
  5
28A
100
AcDbEntity
  8
0
100
AcDbCircle
 62
7
  6
CONTINUOUS
 10
10.9516093237
 20
9.8805236144
 40
0.2486749321
100
AcDbArc
 50
345.1801886059
 51
347.3034443603
  0
ARC
  5
28B
100
AcDbEntity
  8
0
100
AcDbCircle
 62
7
  6
CONTINUOUS
 10
11.0141283211
 20
9.9598834791
 40
0.1997520539
100
AcDbArc
 50
28.9149142425
 51
30.0762682732
  0
ARC
  5
28C
100
AcDbEntity
  8
0
100
AcDbCircle
 62
7
  6
CONTINUOUS
 10
11.015527988
 20
9.9191099762
 40
0.19814494
100
AcDbArc
 50
329.4436168054
 51
331.1251201825
  0
ARC
  5
28D
100
AcDbEntity
  8
0
100
AcDbCircle
 62
7
  6
CONTINUOUS
 10
11.4085407409
 20
9.9170868973
 40
0.1980794016
100
AcDbArc
 50
209.49905592
 51
210.4309547065
  0
ARC
  5
28E
100
AcDbEntity
  8
0
100
AcDbCircle
 62
7
  6
CONTINUOUS
 10
11.0178872627
 20
9.9177243074
 40
0.1954088449
100
AcDbArc
 50
329.1442448688
 51
329.441804092
  0
ARC
  5
28F
100
AcDbEntity
  8
0
100
AcDbCircle
 62
7
  6
CONTINUOUS
 10
11.1254363931
 20
9.9246127631
 40
0.1928932839
100
AcDbArc
 50
244.105206129
 51
247.7335030688
  0
ARC
  5
290
100
AcDbEntity
  8
0
100
AcDbCircle
 62
9
  6
CONTINUOUS
 10
11.0223500027
 20
9.9173501506
 40
0.1910651471
100
AcDbArc
 50
330.7109334599
 51
330.9685629033
  0
ARC
  5
291
100
AcDbEntity
  8
0
100
AcDbCircle
 62
9
  6
CONTINUOUS
 10
11.0231303056
 20
9.9628790685
 40
0.1901665813
100
AcDbArc
 50
29.2756301363
 51
29.5732014628
  0
ARC
  5
292
100
AcDbEntity
  8
0
100
AcDbCircle
 62
9
  6
CONTINUOUS
 10
11.0250590434
 20
9.9639772839
 40
0.1879471004
100
AcDbArc
 50
29.5722117697
 51
30.8740817922
  0
ARC
  5
293
100
AcDbEntity
  8
0
100
AcDbCircle
 62
7
  6
CONTINUOUS
 10
11.1231548918
 20
9.960427151
 40
0.1871645882
100
AcDbArc
 50
112.2856054578
 51
114.451168668
  0
ARC
  5
294
100
AcDbEntity
  8
0
100
AcDbCircle
 62
9
  6
CONTINUOUS
 10
11.026106508
 20
9.9152064563
 40
0.1867401367
100
AcDbArc
 50
328.521934812
 51
330.720723345
  0
ARC
  5
295
100
AcDbEntity
  8
0
100
AcDbCircle
 62
7
  6
CONTINUOUS
 10
11.0458026643
 20
10.0258128958
 40
0.1200267937
100
AcDbArc
 50
63.0277213215
 51
64.0315455753
  0
ARC
  5
296
100
AcDbEntity
  8
0
100
AcDbCircle
 62
7
  6
CONTINUOUS
 10
11.0458139425
 20
9.8539472625
 40
0.1200007348
100
AcDbArc
 50
295.9521287633
 51
296.9482305632
  0
ARC
  5
297
100
AcDbEntity
  8
0
100
AcDbCircle
 62
7
  6
CONTINUOUS
 10
11.3494420725
 20
9.8494834122
 40
0.1055916082
100
AcDbArc
 50
270.0009733336
 51
272.1459362937
  0
ARC
  5
298
100
AcDbEntity
  8
0
100
AcDbCircle
 62
7
  6
CONTINUOUS
 10
11.3494420128
 20
10.0303032728
 40
0.1055885312
100
AcDbArc
 50
87.8312473168
 51
89.9989942454
  0
ARC
  5
299
100
AcDbEntity
  8
0
100
AcDbCircle
 62
9
  6
CONTINUOUS
 10
11.0699971591
 20
10.0367291912
 40
0.0991639109
100
AcDbArc
 50
90.9172145449
 51
100.4072027728
  0
ARC
  5
29A
100
AcDbEntity
  8
0
100
AcDbCircle
 62
9
  6
CONTINUOUS
 10
11.0699257543
 20
9.8422721259
 40
0.098380324
100
AcDbArc
 50
260.4299997684
 51
269.9879516271
  0
ARC
  5
29B
100
AcDbEntity
  8
0
100
AcDbCircle
 62
7
  6
CONTINUOUS
 10
11.0699050339
 20
9.8418989338
 40
0.0980071298
100
AcDbArc
 50
270.0000190795
 51
270.8742157275
  0
ARC
  5
29C
100
AcDbEntity
  8
0
100
AcDbCircle
 62
9
  6
CONTINUOUS
 10
11.0699050992
 20
10.0378846742
 40
0.0980071298
100
AcDbArc
 50
90.0000190796
 51
90.8742157274
  0
ARC
  5
29D
100
AcDbEntity
  8
0
100
AcDbCircle
 62
9
  6
CONTINUOUS
 10
11.0855745455
 20
9.8465596268
 40
0.0933457587
100
AcDbArc
 50
270.0000190797
 51
270.8742157273
  0
ARC
  5
29E
100
AcDbEntity
  8
0
100
AcDbCircle
 62
9
  6
CONTINUOUS
 10
11.0855746077
 20
10.0332239813
 40
0.0933457587
100
AcDbArc
 50
90.0000190797
 51
90.8742157273
  0
ARC
  5
29F
100
AcDbEntity
  8
0
100
AcDbCircle
 62
7
  6
CONTINUOUS
 10
11.0974834891
 20
10.3606914571
 40
0.03
100
AcDbArc
 50
9.9823558487
 51
75.2369687317
  0
SPLINE
  5
2A0
100
AcDbEntity
  8
0
100
AcDbSpline
 62
7
  6
CONTINUOUS
 70
0
 71
3
 72
16
 73
12
 74
0
 42
0.0000001
 43
0.0000001
 44
0.0000000001
 40
0.0
 40
0.0
 40
0.0
 40
0.0
 40
0.0296438757
 40
0.0527665377
 40
0.0827449678
 40
0.1199280684
 40
0.1644621829
 40
0.2757440248
 40
0.416338847
 40
0.5849462927
 40
1.0
 40
1.0
 40
1.0
 40
1.0
 10
10.6024832631
 20
10.4324997204
 30
0.0
 10
10.6024830896
 20
10.4324571887
 30
0.0
 10
10.6025429199
 20
10.4323902741
 30
0.0
 10
10.602645231
 20
10.4323361787
 30
0.0
 10
10.6027670475
 20
10.4322883774
 30
0.0
 10
10.6029209074
 20
10.432244399
 30
0.0
 10
10.6031913479
 20
10.4321836331
 30
0.0
 10
10.6036119664
 20
10.4321189153
 30
0.0
 10
10.6042120996
 20
10.4320559079
 30
0.0
 10
10.6052487493
 20
10.4319821201
 30
0.0
 10
10.6060859951
 20
10.4319540663
 30
0.0
 10
10.6066813713
 20
10.4319416443
 30
0.0
  0
LINE
  5
2A1
100
AcDbEntity
  8
0
100
AcDbLine
 62
7
  6
CONTINUOUS
 10
10.6066813713
 20
10.4319416443
 11
10.611583692
 21
10.4319724014
  0
SPLINE
  5
2A2
100
AcDbEntity
  8
0
100
AcDbSpline
 62
7
  6
CONTINUOUS
 70
0
 71
3
 72
18
 73
14
 74
0
 42
0.0000001
 43
0.0000001
 44
0.0000000001
 40
0.0
 40
0.0
 40
0.0
 40
0.0
 40
0.1249738438
 40
0.2499855011
 40
0.3124923385
 40
0.3749938395
 40
0.4374972427
 40
0.5000057248
 40
0.6249949333
 40
0.7499844159
 40
0.8125013675
 40
0.8750281194
 40
1.0
 40
1.0
 40
1.0
 40
1.0
 10
9.5402718438
 20
7.9006599308
 30
0.0
 10
9.5712616324
 20
7.9268284006
 30
0.0
 10
9.6313863023
 20
7.9814273742
 30
0.0
 10
9.7012754367
 20
8.0550621655
 30
0.0
 10
9.7536674848
 20
8.1170488772
 30
0.0
 10
9.7911224167
 20
8.1650352106
 30
0.0
 10
9.8266475703
 20
8.214468944
 30
0.0
 10
9.8713199337
 20
8.2822241465
 30
0.0
 10
9.9219276628
 20
8.370255466
 30
0.0
 10
9.9649616322
 20
8.4622382438
 30
0.0
 10
9.9945399382
 20
8.5378299457
 30
0.0
 10
10.0207840682
 20
8.6146307121
 30
0.0
 10
10.0366526686
 20
8.6734875024
 30
0.0
 10
10.0454418051
 20
8.7130836538
 30
0.0
  0
SPLINE
  5
2A3
100
AcDbEntity
  8
0
100
AcDbSpline
 62
7
  6
CONTINUOUS
 70
0
 71
3
 72
18
 73
14
 74
0
 42
0.0000001
 43
0.0000001
 44
0.0000000001
 40
0.0
 40
0.0
 40
0.0
 40
0.0
 40
0.1249738438
 40
0.2499855011
 40
0.3124923385
 40
0.3749938395
 40
0.4374972427
 40
0.5000057248
 40
0.6249949333
 40
0.7499844159
 40
0.8125013675
 40
0.8750281194
 40
1.0
 40
1.0
 40
1.0
 40
1.0
 10
11.8796951345
 20
7.9006599308
 30
0.0
 10
11.8487053459
 20
7.9268284006
 30
0.0
 10
11.788580676
 20
7.9814273742
 30
0.0
 10
11.7186915415
 20
8.0550621655
 30
0.0
 10
11.6662994934
 20
8.1170488772
 30
0.0
 10
11.6288445616
 20
8.1650352106
 30
0.0
 10
11.593319408
 20
8.214468944
 30
0.0
 10
11.5486470446
 20
8.2822241465
 30
0.0
 10
11.4980393155
 20
8.370255466
 30
0.0
 10
11.4550053461
 20
8.4622382438
 30
0.0
 10
11.4254270401
 20
8.5378299457
 30
0.0
 10
11.39918291
 20
8.6146307121
 30
0.0
 10
11.3833143097
 20
8.6734875024
 30
0.0
 10
11.3745251731
 20
8.7130836538
 30
0.0
  0
LINE
  5
2A4
100
AcDbEntity
  8
0
100
AcDbLine
 62
7
  6
CONTINUOUS
 10
11.0174834848
 20
10.4100972235
 11
11.0161195309
 21
10.4103551904
  0
LINE
  5
2A5
100
AcDbEntity
  8
0
100
AcDbLine
 62
7
  6
CONTINUOUS
 10
11.0161195309
 20
10.4103551904
 11
11.0144967445
 21
10.4106620704
  0
LINE
  5
2A6
100
AcDbEntity
  8
0
100
AcDbLine
 62
7
  6
CONTINUOUS
 10
11.0144967445
 20
10.4106620704
 11
11.0123179068
 21
10.4110740117
  0
SPLINE
  5
2A7
100
AcDbEntity
  8
0
100
AcDbSpline
 62
7
  6
CONTINUOUS
 70
0
 71
3
 72
9
 73
5
 74
0
 42
0.0000001
 43
0.0000001
 44
0.0000000001
 40
0.0
 40
0.0
 40
0.0
 40
0.0
 40
0.4831441583
 40
1.0
 40
1.0
 40
1.0
 40
1.0
 10
10.3157713555
 20
9.734891804
 30
0.0
 10
10.3215185589
 20
9.7348917979
 30
0.0
 10
10.3334247382
 20
9.7358960098
 30
0.0
 10
10.3450580316
 20
9.7385468223
 30
0.0
 10
10.3509611082
 20
9.7402656217
 30
0.0
  0
SPLINE
  5
2A8
100
AcDbEntity
  8
0
100
AcDbSpline
 62
7
  6
CONTINUOUS
 70
0
 71
3
 72
9
 73
5
 74
0
 42
0.0000001
 43
0.0000001
 44
0.0000000001
 40
0.0
 40
0.0
 40
0.0
 40
0.0
 40
0.2453022095
 40
1.0
 40
1.0
 40
1.0
 40
1.0
 10
10.3509611082
 20
9.7402656217
 30
0.0
 10
10.3523616477
 20
9.740673417
 30
0.0
 10
10.3580474939
 20
9.7424162742
 30
0.0
 10
10.3636367881
 20
9.7444706592
 30
0.0
 10
10.3677895543
 20
9.7461722129
 30
0.0
  0
SPLINE
  5
2A9
100
AcDbEntity
  8
0
100
AcDbSpline
 62
7
  6
CONTINUOUS
 70
0
 71
3
 72
20
 73
16
 74
0
 42
0.0000001
 43
0.0000001
 44
0.0000000001
 40
0.0
 40
0.0
 40
0.0
 40
0.0
 40
0.1148299211
 40
0.2348893154
 40
0.2964065579
 40
0.3586730923
 40
0.484840318
 40
0.5485950507
 40
0.6126407458
 40
0.6769078854
 40
0.7413546685
 40
0.8059225499
 40
0.8706005656
 40
0.9353366196
 40
1.0
 40
1.0
 40
1.0
 40
1.0
 10
10.374281916
 20
9.7489774425
 30
0.0
 10
10.3827804249
 20
9.7528391539
 30
0.0
 10
10.399609913
 20
9.7619977098
 30
0.0
 10
10.4192169451
 20
9.7761068028
 30
0.0
 10
10.4342091774
 20
9.7890915553
 30
0.0
 10
10.4487401266
 20
9.8033075829
 30
0.0
 10
10.4620444873
 20
9.8189922514
 30
0.0
 10
10.4737937215
 20
9.835983506
 30
0.0
 10
10.4817740598
 20
9.8494194791
 30
0.0
 10
10.4887811786
 20
9.8634514861
 30
0.0
 10
10.494707106
 20
9.8780208494
 30
0.0
 10
10.4994577962
 20
9.8930513873
 30
0.0
 10
10.5029229909
 20
9.9084556164
 30
0.0
 10
10.5050320467
 20
9.924110322
 30
0.0
 10
10.5055122751
 20
9.9346351934
 30
0.0
 10
10.5055122751
 20
9.939891804
 30
0.0
  0
SPLINE
  5
2AA
100
AcDbEntity
  8
0
100
AcDbSpline
 62
7
  6
CONTINUOUS
 70
0
 71
3
 72
18
 73
14
 74
0
 42
0.0000001
 43
0.0000001
 44
0.0000000001
 40
0.0
 40
0.0
 40
0.0
 40
0.0
 40
0.0645184619
 40
0.1290982519
 40
0.1936194261
 40
0.2580436718
 40
0.3223544959
 40
0.386500423
 40
0.5140396615
 40
0.6401241189
 40
0.7639530095
 40
0.8843973711
 40
1.0
 40
1.0
 40
1.0
 40
1.0
 10
10.5055122751
 20
9.939891804
 30
0.0
 10
10.5055122751
 20
9.9450294279
 30
0.0
 10
10.5050545922
 20
9.9553149326
 30
0.0
 10
10.5030404186
 20
9.9706189693
 30
0.0
 10
10.4997256694
 20
9.9856879183
 30
0.0
 10
10.4951813047
 20
10.0004079914
 30
0.0
 10
10.4895044407
 20
10.0146965363
 30
0.0
 10
10.4805605793
 20
10.0330324226
 30
0.0
 10
10.4670570776
 20
10.0545346539
 30
0.0
 10
10.4478635835
 20
10.0777618924
 30
0.0
 10
10.4264245851
 20
10.0981166929
 30
0.0
 10
10.4034160582
 20
10.11530454
 30
0.0
 10
10.3870538185
 20
10.1246783643
 30
0.0
 10
10.3787717262
 20
10.1286967774
 30
0.0
  0
SPLINE
  5
2AB
100
AcDbEntity
  8
0
100
AcDbSpline
 62
7
  6
CONTINUOUS
 70
0
 71
3
 72
9
 73
5
 74
0
 42
0.0000001
 43
0.0000001
 44
0.0000000001
 40
0.0
 40
0.0
 40
0.0
 40
0.0
 40
0.2546012226
 40
1.0
 40
1.0
 40
1.0
 40
1.0
 10
10.3676209397
 20
10.1336802834
 30
0.0
 10
10.3662440799
 20
10.1342428906
 30
0.0
 10
10.3608095353
 20
10.1363865462
 30
0.0
 10
10.3552675906
 20
10.1382606722
 30
0.0
 10
10.3510876121
 20
10.1394814224
 30
0.0
  0
SPLINE
  5
2AC
100
AcDbEntity
  8
0
100
AcDbSpline
 62
7
  6
CONTINUOUS
 70
0
 71
3
 72
9
 73
5
 74
0
 42
0.0000001
 43
0.0000001
 44
0.0000000001
 40
0.0
 40
0.0
 40
0.0
 40
0.0
 40
0.5169483154
 40
1.0
 40
1.0
 40
1.0
 40
1.0
 10
10.3510876121
 20
10.1394814224
 30
0.0
 10
10.345163175
 20
10.1412116365
 30
0.0
 10
10.3334884388
 20
10.1438783551
 30
0.0
 10
10.3215386818
 20
10.144891804
 30
0.0
 10
10.3157714586
 20
10.144891804
 30
0.0
  0
SPLINE
  5
2AD
100
AcDbEntity
  8
0
100
AcDbSpline
 62
7
  6
CONTINUOUS
 70
0
 71
3
 72
9
 73
5
 74
0
 42
0.0000001
 43
0.0000001
 44
0.0000000001
 40
0.0
 40
0.0
 40
0.0
 40
0.0
 40
0.4825978198
 40
1.0
 40
1.0
 40
1.0
 40
1.0
 10
11.1041955281
 20
10.144891804
 30
0.0
 10
11.0982313633
 20
10.144891804
 30
0.0
 10
11.0858611941
 20
10.143809689
 30
0.0
 10
11.073793981
 20
10.1409649625
 30
0.0
 10
11.0676707995
 20
10.1391227815
 30
0.0
  0
SPLINE
  5
2AE
100
AcDbEntity
  8
0
100
AcDbSpline
 62
7
  6
CONTINUOUS
 70
0
 71
3
 72
9
 73
5
 74
0
 42
0.0000001
 43
0.0000001
 44
0.0000000001
 40
0.0
 40
0.0
 40
0.0
 40
0.0
 40
0.2457055797
 40
1.0
 40
1.0
 40
1.0
 40
1.0
 10
11.0676707995
 20
10.1391227815
 30
0.0
 10
11.0663808053
 20
10.1387346821
 30
0.0
 10
11.0611510386
 20
10.1370878383
 30
0.0
 10
11.0560043827
 20
10.1351794457
 30
0.0
 10
11.0521776432
 20
10.1336114841
 30
0.0
  0
SPLINE
  5
2AF
100
AcDbEntity
  8
0
100
AcDbSpline
 62
7
  6
CONTINUOUS
 70
0
 71
3
 72
20
 73
16
 74
0
 42
0.0000001
 43
0.0000001
 44
0.0000000001
 40
0.0
 40
0.0
 40
0.0
 40
0.0
 40
0.1148300742
 40
0.2348895222
 40
0.2964067753
 40
0.3586733225
 40
0.484840563
 40
0.5485952832
 40
0.6126409542
 40
0.6769080569
 40
0.7413547959
 40
0.8059226361
 40
0.87060062
 40
0.9353366473
 40
1.0
 40
1.0
 40
1.0
 40
1.0
 10
11.0456841818
 20
10.1308057651
 30
0.0
 10
11.0371857144
 20
10.1269440217
 30
0.0
 10
11.020356318
 20
10.1177854226
 30
0.0
 10
11.0007493994
 20
10.1036763062
 30
0.0
 10
10.9857572616
 20
10.0906915551
 30
0.0
 10
10.9712264058
 20
10.0764755429
 30
0.0
 10
10.9579221328
 20
10.0607909053
 30
0.0
 10
10.9461729875
 20
10.0437996906
 30
0.0
 10
10.9381927155
 20
10.030363757
 30
0.0
 10
10.9311856566
 20
10.0163317992
 30
0.0
 10
10.9252597801
 20
10.0017624933
 30
0.0
 10
10.9205091312
 20
9.9867320178
 30
0.0
 10
10.917043967
 20
9.9713278544
 30
0.0
 10
10.9149349282
 20
9.9556732169
 30
0.0
 10
10.9144547032
 20
9.9451483916
 30
0.0
 10
10.9144547032
 20
9.939891804
 30
0.0
  0
SPLINE
  5
2B0
100
AcDbEntity
  8
0
100
AcDbSpline
 62
7
  6
CONTINUOUS
 70
0
 71
3
 72
18
 73
14
 74
0
 42
0.0000001
 43
0.0000001
 44
0.0000000001
 40
0.0
 40
0.0
 40
0.0
 40
0.0
 40
0.0645184927
 40
0.1290983205
 40
0.1936195259
 40
0.2580437857
 40
0.3223546203
 40
0.3865005628
 40
0.5140398464
 40
0.6401243507
 40
0.7639532226
 40
0.8843974957
 40
1.0
 40
1.0
 40
1.0
 40
1.0
 10
10.9144547032
 20
9.939891804
 30
0.0
 10
10.9144547032
 20
9.9347541592
 30
0.0
 10
10.9149123912
 20
9.9244686119
 30
0.0
 10
10.9169265832
 20
9.9091645134
 30
0.0
 10
10.9202413571
 20
9.8940955059
 30
0.0
 10
10.9247857573
 20
9.8793753807
 30
0.0
 10
10.930462663
 20
9.8650867893
 30
0.0
 10
10.9394065849
 20
9.8467508444
 30
0.0
 10
10.952910177
 20
9.8252485504
 30
0.0
 10
10.9721038054
 20
9.8020212735
 30
0.0
 10
10.9935429308
 20
9.7816664588
 30
0.0
 10
11.0165515769
 20
9.7644786281
 30
0.0
 10
11.0329138977
 20
9.7551048406
 30
0.0
 10
11.0411960287
 20
9.7510864539
 30
0.0
  0
SPLINE
  5
2B1
100
AcDbEntity
  8
0
100
AcDbSpline
 62
7
  6
CONTINUOUS
 70
0
 71
3
 72
9
 73
5
 74
0
 42
0.0000001
 43
0.0000001
 44
0.0000000001
 40
0.0
 40
0.0
 40
0.0
 40
0.0
 40
0.2546012383
 40
1.0
 40
1.0
 40
1.0
 40
1.0
 10
11.0523462173
 20
9.7461032531
 30
0.0
 10
11.0537230734
 20
9.7455406492
 30
0.0
 10
11.0591576025
 20
9.7433970066
 30
0.0
 10
11.0646995307
 20
9.7415228918
 30
0.0
 10
11.0688794964
 20
9.7403021487
 30
0.0
  0
SPLINE
  5
2B2
100
AcDbEntity
  8
0
100
AcDbSpline
 62
7
  6
CONTINUOUS
 70
0
 71
3
 72
9
 73
5
 74
0
 42
0.0000001
 43
0.0000001
 44
0.0000000001
 40
0.0
 40
0.0
 40
0.0
 40
0.0
 40
0.5169481491
 40
1.0
 40
1.0
 40
1.0
 40
1.0
 10
11.0688794964
 20
9.7403021487
 30
0.0
 10
11.0748038986
 20
9.7385719494
 30
0.0
 10
11.0864785681
 20
9.7359052502
 30
0.0
 10
11.0984282557
 20
9.7348918084
 30
0.0
 10
11.1041954475
 20
9.734891804
 30
0.0
  0
SPLINE
  5
2B3
100
AcDbEntity
  8
0
100
AcDbSpline
 62
7
  6
CONTINUOUS
 70
0
 71
3
 72
25
 73
21
 74
0
 42
0.0000001
 43
0.0000001
 44
0.0000000001
 40
0.0
 40
0.0
 40
0.0
 40
0.0
 40
0.0262682942
 40
0.0526087676
 40
0.0791057696
 40
0.1058391505
 40
0.1602628664
 40
0.2164226882
 40
0.2746835096
 40
0.3352266378
 40
0.3980470492
 40
0.4629560738
 40
0.5296143129
 40
0.5975538732
 40
0.6662275996
 40
0.7350359553
 40
0.8033746452
 40
0.8371961492
 40
0.8706898774
 40
1.0
 40
1.0
 40
1.0
 40
1.0
 10
11.3494438662
 20
10.135891804
 30
0.0
 10
11.3460000317
 20
10.135891804
 30
0.0
 10
11.3390982261
 20
10.1355528606
 30
0.0
 10
11.3288227269
 20
10.1340420038
 30
0.0
 10
11.3186775422
 20
10.1315431591
 30
0.0
 10
11.3053353539
 20
10.1268876272
 30
0.0
 10
11.2892175746
 20
10.118640302
 30
0.0
 10
11.2714213364
 20
10.1053193563
 30
0.0
 10
11.255327581
 20
10.0888579559
 30
0.0
 10
11.24118378
 20
10.0696143701
 30
0.0
 10
11.2291923869
 20
10.0479693506
 30
0.0
 10
11.2195253142
 20
10.0243300155
 30
0.0
 10
11.2123349308
 20
9.9991298624
 30
0.0
 10
11.2077279514
 20
9.9728343187
 30
0.0
 10
11.2057814812
 20
9.9459278573
 30
0.0
 10
11.2065291878
 20
9.918910665
 30
0.0
 10
11.2093920058
 20
9.8966385103
 30
0.0
 10
11.2130240544
 20
9.8792191193
 30
0.0
 10
11.2195990489
 20
9.8542973537
 30
0.0
 10
11.2277916865
 20
9.8343058327
 30
0.0
 10
11.2361395983
 20
9.8195507739
 30
0.0
  0
SPLINE
  5
2B4
100
AcDbEntity
  8
0
100
AcDbSpline
 62
7
  6
CONTINUOUS
 70
0
 71
3
 72
15
 73
11
 74
0
 42
0.0000001
 43
0.0000001
 44
0.0000000001
 40
0.0
 40
0.0
 40
0.0
 40
0.0
 40
0.1368892641
 40
0.2697293927
 40
0.398607576
 40
0.5238153005
 40
0.6458619358
 40
0.7653601005
 40
0.8831077912
 40
1.0
 40
1.0
 40
1.0
 40
1.0
 10
11.2377487274
 20
9.8167597451
 30
0.0
 10
11.2409743315
 20
9.8112690701
 30
0.0
 10
11.2478620942
 20
9.8007504425
 30
0.0
 10
11.2596164004
 20
9.7863628342
 30
0.0
 10
11.2725435169
 20
9.7737774754
 30
0.0
 10
11.2865127737
 20
9.7631624542
 30
0.0
 10
11.3013835193
 20
9.7546927865
 30
0.0
 10
11.3169730902
 20
9.7485038782
 30
0.0
 10
11.3330729039
 20
9.7447411476
 30
0.0
 10
11.3440060754
 20
9.743891804
 30
0.0
 10
11.3494438662
 20
9.743891804
 30
0.0
  0
SPLINE
  5
2B5
100
AcDbEntity
  8
0
100
AcDbSpline
 62
7
  6
CONTINUOUS
 70
0
 71
3
 72
31
 73
27
 74
0
 42
0.0000001
 43
0.0000001
 44
0.0000000001
 40
0.0
 40
0.0
 40
0.0
 40
0.0
 40
0.0208970983
 40
0.0370496173
 40
0.0486067911
 40
0.0527065174
 40
0.0557094262
 40
0.0584887389
 40
0.0599098813
 40
0.0653777327
 40
0.0746933024
 40
0.0876593549
 40
0.1040843636
 40
0.1237831131
 40
0.1465773655
 40
0.1722965949
 40
0.200777818
 40
0.2318492385
 40
0.2653279058
 40
0.3387774412
 40
0.4197109774
 40
0.5067686769
 40
0.598764891
 40
0.6948581694
 40
0.7942730971
 40
1.0
 40
1.0
 40
1.0
 40
1.0
 10
11.1830597523
 20
10.0579626177
 30
0.0
 10
11.1828962579
 20
10.0581313539
 30
0.0
 10
11.1826043856
 20
10.0584264211
 30
0.0
 10
11.1822060445
 20
10.0588083148
 30
0.0
 10
11.1819504562
 20
10.0590429193
 30
0.0
 10
11.1817808917
 20
10.0591899689
 30
0.0
 10
11.1817180836
 20
10.059245128
 30
0.0
 10
11.1815962706
 20
10.05934253
 30
0.0
 10
11.1817190454
 20
10.0592490745
 30
0.0
 10
11.1818388477
 20
10.0591643465
 30
0.0
 10
11.182111613
 20
10.0589732708
 30
0.0
 10
11.1824668928
 20
10.0587382351
 30
0.0
 10
11.1829361004
 20
10.0584408661
 30
0.0
 10
11.1835030552
 20
10.0581005388
 30
0.0
 10
11.1841704478
 20
10.0577216931
 30
0.0
 10
11.1849341172
 20
10.0573140753
 30
0.0
 10
11.1857922132
 20
10.0568861076
 30
0.0
 10
11.1867404907
 20
10.0564444509
 30
0.0
 10
11.1881630042
 20
10.055824575
 30
0.0
 10
11.1901301485
 20
10.0550529682
 30
0.0
 10
11.1927022636
 20
10.0541819566
 30
0.0
 10
11.1955152799
 20
10.05338238
 30
0.0
 10
11.1985328259
 20
10.0526947158
 30
0.0
 10
11.201717726
 20
10.0521338786
 30
0.0
 10
11.2061945598
 20
10.0515691252
 30
0.0
 10
11.2096285495
 20
10.051391804
 30
0.0
 10
11.2119415935
 20
10.051391804
 30
0.0
  0
SPLINE
  5
2B6
100
AcDbEntity
  8
0
100
AcDbSpline
 62
7
  6
CONTINUOUS
 70
0
 71
3
 72
28
 73
24
 74
0
 42
0.0000001
 43
0.0000001
 44
0.0000000001
 40
0.0
 40
0.0
 40
0.0
 40
0.0
 40
0.1878373521
 40
0.3680626717
 40
0.4540917743
 40
0.5366948686
 40
0.615335253
 40
0.6892833184
 40
0.7576373287
 40
0.8194474902
 40
0.8737289769
 40
0.9194746736
 40
0.9388505597
 40
0.9557535365
 40
0.9700741746
 40
0.9762306266
 40
0.9816982115
 40
0.9905063855
 40
0.9963756792
 40
0.9981687404
 40
0.9991793766
 40
0.9993935935
 40
1.0
 40
1.0
 40
1.0
 40
1.0
 10
11.2119415935
 20
9.828391804
 30
0.0
 10
11.2099519662
 20
9.828391804
 30
0.0
 10
11.2060515302
 20
9.8282171072
 30
0.0
 10
11.2012756675
 20
9.8275997328
 30
0.0
 10
11.1976473397
 20
9.8268949387
 30
0.0
 10
11.195098983
 20
9.8262861704
 30
0.0
 10
11.1927038686
 20
9.8255978058
 30
0.0
 10
11.1904847072
 20
9.824852429
 30
0.0
 10
11.1884647049
 20
9.824080136
 30
0.0
 10
11.1866687574
 20
9.8233096958
 30
0.0
 10
11.1851213752
 20
9.8225709214
 30
0.0
 10
11.1840047048
 20
9.8219759247
 30
0.0
 10
11.1832543766
 20
9.821537764
 30
0.0
 10
11.1827977716
 20
9.8212569683
 30
0.0
 10
11.1824651425
 20
9.8210422655
 30
0.0
 10
11.1822365457
 20
9.8208895147
 30
0.0
 10
11.182058177
 20
9.8207675672
 30
0.0
 10
11.1818816187
 20
9.8206444584
 30
0.0
 10
11.1817447777
 20
9.8205430667
 30
0.0
 10
11.1816658557
 20
9.8204871777
 30
0.0
 10
11.1816455988
 20
9.8204697187
 30
0.0
 10
11.1816228159
 20
9.8204567658
 30
0.0
 10
11.1816388037
 20
9.8204696549
 30
0.0
 10
11.181643608
 20
9.8204739182
 30
0.0
  0
SPLINE
  5
2B7
100
AcDbEntity
  8
0
100
AcDbSpline
 62
7
  6
CONTINUOUS
 70
0
 71
3
 72
11
 73
7
 74
0
 42
0.0000001
 43
0.0000001
 44
0.0000000001
 40
0.0
 40
0.0
 40
0.0
 40
0.0
 40
0.2159295559
 40
0.460190852
 40
0.7239218736
 40
1.0
 40
1.0
 40
1.0
 40
1.0
 10
11.2349310638
 20
9.8242631894
 30
0.0
 10
11.2333574446
 20
9.8248798623
 30
0.0
 10
11.2299401
 20
9.8260372549
 30
0.0
 10
11.2244161505
 20
9.8273368025
 30
0.0
 10
11.2183301761
 20
9.8281870326
 30
0.0
 10
11.214102529
 20
9.828391804
 30
0.0
 10
11.2119415935
 20
9.828391804
 30
0.0
  0
SPLINE
  5
2B8
100
AcDbEntity
  8
0
100
AcDbSpline
 62
7
  6
CONTINUOUS
 70
0
 71
3
 72
11
 73
7
 74
0
 42
0.0000001
 43
0.0000001
 44
0.0000000001
 40
0.0
 40
0.0
 40
0.0
 40
0.0
 40
0.2767940654
 40
0.5407037288
 40
0.7845795531
 40
1.0
 40
1.0
 40
1.0
 40
1.0
 10
11.2119415935
 20
10.051391804
 30
0.0
 10
11.2141140229
 20
10.051391804
 30
0.0
 10
11.2183603057
 20
10.0515992747
 30
0.0
 10
11.2244656393
 20
10.0524590044
 30
0.0
 10
11.2299996345
 20
10.0537592246
 30
0.0
 10
11.2334170717
 20
10.0549258501
 30
0.0
 10
11.2349896358
 20
10.0555468419
 30
0.0
  0
SPLINE
  5
2B9
100
AcDbEntity
  8
0
100
AcDbSpline
 62
7
  6
CONTINUOUS
 70
0
 71
3
 72
15
 73
11
 74
0
 42
0.0000001
 43
0.0000001
 44
0.0000000001
 40
0.0
 40
0.0
 40
0.0
 40
0.0
 40
0.11935357
 40
0.2391787862
 40
0.3602220381
 40
0.4830203121
 40
0.6079978329
 40
0.7356391803
 40
0.8662473717
 40
1.0
 40
1.0
 40
1.0
 40
1.0
 10
11.071599944
 20
9.7439045114
 30
0.0
 10
11.077239291
 20
9.7439890566
 30
0.0
 10
11.0885450296
 20
9.7450068763
 30
0.0
 10
11.1051466069
 20
9.7490194631
 30
0.0
 10
11.121153155
 20
9.7554280284
 30
0.0
 10
11.1363504927
 20
9.7640632655
 30
0.0
 10
11.1505507136
 20
9.7747734629
 30
0.0
 10
11.1636246431
 20
9.7873633302
 30
0.0
 10
11.1754628348
 20
9.8016561405
 30
0.0
 10
11.1823965691
 20
9.8120775038
 30
0.0
 10
11.1856381772
 20
9.817503315
 30
0.0
  0
SPLINE
  5
2BA
100
AcDbEntity
  8
0
100
AcDbSpline
 62
7
  6
CONTINUOUS
 70
0
 71
3
 72
15
 73
11
 74
0
 42
0.0000001
 43
0.0000001
 44
0.0000000001
 40
0.0
 40
0.0
 40
0.0
 40
0.0
 40
0.1340281387
 40
0.2648103032
 40
0.392520085
 40
0.5174713598
 40
0.6401656621
 40
0.7610681873
 40
0.8807534557
 40
1.0
 40
1.0
 40
1.0
 40
1.0
 10
11.1869855727
 20
10.0599896906
 30
0.0
 10
11.1837140401
 20
10.0656381542
 30
0.0
 10
11.1766905224
 20
10.0764869683
 30
0.0
 10
11.1646233761
 20
10.0913622407
 30
0.0
 10
11.15123768
 20
10.1044476923
 30
0.0
 10
11.1366507151
 20
10.1155492668
 30
0.0
 10
11.12100275
 20
10.1244551709
 30
0.0
 10
11.1044965392
 20
10.1309964671
 30
0.0
 10
11.0873682956
 20
10.1349905539
 30
0.0
 10
11.0757126536
 20
10.135891804
 30
0.0
 10
11.0699050665
 20
10.135891804
 30
0.0
  0
SPLINE
  5
2BB
100
AcDbEntity
  8
0
100
AcDbSpline
 62
7
  6
CONTINUOUS
 70
0
 71
3
 72
12
 73
8
 74
0
 42
0.0000001
 43
0.0000001
 44
0.0000000001
 40
0.0
 40
0.0
 40
0.0
 40
0.0
 40
0.1290483849
 40
0.2578343681
 40
0.5123382473
 40
0.7604464648
 40
1.0
 40
1.0
 40
1.0
 40
1.0
 10
10.2138007341
 20
9.9408183222
 30
0.0
 10
10.2137820249
 20
9.9462409335
 30
0.0
 10
10.2134168031
 20
9.9570772674
 30
0.0
 10
10.211400324
 20
9.9785207829
 30
0.0
 10
10.2065108653
 20
10.0046748577
 30
0.0
 10
10.1969209074
 20
10.0344350698
 30
0.0
 10
10.1880185873
 20
10.0529841464
 30
0.0
 10
10.1829874695
 20
10.0617027555
 30
0.0
  0
SPLINE
  5
2BC
100
AcDbEntity
  8
0
100
AcDbSpline
 62
7
  6
CONTINUOUS
 70
0
 71
3
 72
17
 73
13
 74
0
 42
0.0000001
 43
0.0000001
 44
0.0000000001
 40
0.0
 40
0.0
 40
0.0
 40
0.0
 40
0.1371261322
 40
0.2700535095
 40
0.398885982
 40
0.5239481647
 40
0.6457984665
 40
0.7057696584
 40
0.7652210596
 40
0.8829308979
 40
0.9414969961
 40
1.0
 40
1.0
 40
1.0
 40
1.0
 10
10.1824134323
 20
10.0626909008
 30
0.0
 10
10.1790864301
 20
10.0683799009
 30
0.0
 10
10.1719650689
 20
10.0792644203
 30
0.0
 10
10.1597600577
 20
10.0940993176
 30
0.0
 10
10.1463040466
 20
10.1069960582
 30
0.0
 10
10.1317449574
 20
10.1177665361
 30
0.0
 10
10.1187475029
 20
10.1248525305
 30
0.0
 10
10.108009301
 20
10.1292550427
 30
0.0
 10
10.0971610959
 20
10.1327758483
 30
0.0
 10
10.0859999332
 20
10.1350194
 30
0.0
 10
10.0747435816
 20
10.1359199687
 30
0.0
 10
10.069109567
 20
10.1359196065
 30
0.0
 10
10.0663001085
 20
10.1358070025
 30
0.0
  0
SPLINE
  5
2BD
100
AcDbEntity
  8
0
100
AcDbSpline
 62
7
  6
CONTINUOUS
 70
0
 71
3
 72
18
 73
14
 74
0
 42
0.0000001
 43
0.0000001
 44
0.0000000001
 40
0.0
 40
0.0
 40
0.0
 40
0.0
 40
0.0585275242
 40
0.1171074294
 40
0.2348144064
 40
0.2942539262
 40
0.3542096971
 40
0.4760216961
 40
0.6010478162
 40
0.7298598865
 40
0.7958259841
 40
0.8628440198
 40
1.0
 40
1.0
 40
1.0
 40
1.0
 10
10.0653979618
 20
9.7440162863
 30
0.0
 10
10.0682235892
 20
9.7438789887
 30
0.0
 10
10.0738915421
 20
9.743831942
 30
0.0
 10
10.0852206936
 20
9.7446497449
 30
0.0
 10
10.0964618902
 20
9.7468277956
 30
0.0
 10
10.1073918707
 20
9.7503027962
 30
0.0
 10
10.1182125078
 20
9.7546705125
 30
0.0
 10
10.1313135813
 20
9.7617359655
 30
0.0
 10
10.1459888444
 20
9.7725156229
 30
0.0
 10
10.1572049615
 20
9.7832141147
 30
0.0
 10
10.1655561707
 20
9.7927289419
 30
0.0
 10
10.1735981106
 20
9.8030228586
 30
0.0
 10
10.1790210771
 20
9.8112976209
 30
0.0
 10
10.1823702536
 20
9.8170189363
 30
0.0
  0
SPLINE
  5
2BE
100
AcDbEntity
  8
0
100
AcDbSpline
 62
7
  6
CONTINUOUS
 70
0
 71
3
 72
12
 73
8
 74
0
 42
0.0000001
 43
0.0000001
 44
0.0000000001
 40
0.0
 40
0.0
 40
0.0
 40
0.0
 40
0.2396234459
 40
0.487747105
 40
0.7422233653
 40
0.8709822656
 40
1.0
 40
1.0
 40
1.0
 40
1.0
 10
10.1831994238
 20
9.8184491222
 30
0.0
 10
10.1881962877
 20
9.8271516434
 30
0.0
 10
10.1970376123
 20
9.8456560643
 30
0.0
 10
10.2065613303
 20
9.8753286516
 30
0.0
 10
10.2114167972
 20
9.9013954864
 30
0.0
 10
10.2134192799
 20
9.9227636775
 30
0.0
 10
10.2137820632
 20
9.9335610139
 30
0.0
 10
10.2138007298
 20
9.9389640477
 30
0.0
  0
SPLINE
  5
2BF
100
AcDbEntity
  8
0
100
AcDbSpline
 62
7
  6
CONTINUOUS
 70
0
 71
3
 72
34
 73
30
 74
0
 42
0.0000001
 43
0.0000001
 44
0.0000000001
 40
0.0
 40
0.0
 40
0.0
 40
0.0
 40
0.0008181885
 40
0.0011211674
 40
0.002519936
 40
0.0049907842
 40
0.0085080295
 40
0.013036777
 40
0.018540555
 40
0.0249834077
 40
0.0323299528
 40
0.040545431
 40
0.0594469761
 40
0.0814247551
 40
0.1062284101
 40
0.1336213184
 40
0.163370478
 40
0.1952439871
 40
0.2290138746
 40
0.3013500762
 40
0.3787044739
 40
0.4595559457
 40
0.542424054
 40
0.6258408438
 40
0.7083872375
 40
0.7886292336
 40
0.8650398702
 40
0.9360384212
 40
1.0
 40
1.0
 40
1.0
 40
1.0
 10
10.2383007189
 20
9.8204947495
 30
0.0
 10
10.2383123936
 20
9.8204852044
 30
0.0
 10
10.2383504157
 20
9.8204546492
 30
0.0
 10
10.2383017574
 20
9.8204955361
 30
0.0
 10
10.2382505358
 20
9.8205325591
 30
0.0
 10
10.2381343991
 20
9.8206188424
 30
0.0
 10
10.2379784407
 20
9.8207273531
 30
0.0
 10
10.2377705027
 20
9.8208683822
 30
0.0
 10
10.2375168148
 20
9.8210343077
 30
0.0
 10
10.237216274
 20
9.8212247315
 30
0.0
 10
10.2368704932
 20
9.8214366052
 30
0.0
 10
10.2363239164
 20
9.8217603187
 30
0.0
 10
10.235534373
 20
9.822202679
 30
0.0
 10
10.2344595918
 20
9.8227603068
 30
0.0
 10
10.233224965
 20
9.8233481018
 30
0.0
 10
10.2318381463
 20
9.8239471485
 30
0.0
 10
10.2303106143
 20
9.8245465924
 30
0.0
 10
10.2286536902
 20
9.825135621
 30
0.0
 10
10.2262310963
 20
9.8259103382
 30
0.0
 10
10.2229612442
 20
9.8267824111
 30
0.0
 10
10.2187862097
 20
9.8275904959
 30
0.0
 10
10.2143736934
 20
9.8281387547
 30
0.0
 10
10.209823873
 20
9.8284117269
 30
0.0
 10
10.2052341083
 20
9.8283893067
 30
0.0
 10
10.2007055029
 20
9.8280474336
 30
0.0
 10
10.196337964
 20
9.8274246215
 30
0.0
 10
10.1922272191
 20
9.8265698111
 30
0.0
 10
10.18846981
 20
9.8255293764
 30
0.0
 10
10.1861238629
 20
9.82469531
 30
0.0
 10
10.185027375
 20
9.8242623278
 30
0.0
  0
SPLINE
  5
2C0
100
AcDbEntity
  8
0
100
AcDbSpline
 62
7
  6
CONTINUOUS
 70
0
 71
3
 72
22
 73
18
 74
0
 42
0.0000001
 43
0.0000001
 44
0.0000000001
 40
0.0
 40
0.0
 40
0.0
 40
0.0
 40
0.0593177337
 40
0.1246398071
 40
0.1946408212
 40
0.2681100006
 40
0.3439093252
 40
0.4209011166
 40
0.4979679675
 40
0.5740288886
 40
0.6479688252
 40
0.7186080959
 40
0.7847310489
 40
0.8450978081
 40
0.8983437897
 40
0.9429662437
 40
1.0
 40
1.0
 40
1.0
 40
1.0
 10
10.1852315996
 20
10.0554399369
 30
0.0
 10
10.1862370121
 20
10.0550520757
 30
0.0
 10
10.1883756373
 20
10.0543034524
 30
0.0
 10
10.1917768007
 20
10.0533290329
 30
0.0
 10
10.1954827937
 20
10.0525084038
 30
0.0
 10
10.1994217407
 20
10.051897512
 30
0.0
 10
10.203515988
 20
10.0515073964
 30
0.0
 10
10.2076914588
 20
10.0513544456
 30
0.0
 10
10.2118736864
 20
10.0514540676
 30
0.0
 10
10.2159854719
 20
10.0518181723
 30
0.0
 10
10.2199523698
 20
10.05240907
 30
0.0
 10
10.2237014117
 20
10.053192162
 30
0.0
 10
10.2271600114
 20
10.0541307606
 30
0.0
 10
10.2302507872
 20
10.0551903515
 30
0.0
 10
10.2329113179
 20
10.0562844713
 30
0.0
 10
10.2354491323
 20
10.0575005571
 30
0.0
 10
10.2370576061
 20
10.0584213811
 30
0.0
 10
10.2379068968
 20
10.0590149202
 30
0.0
  0
SPLINE
  5
2C1
100
AcDbEntity
  8
0
100
AcDbSpline
 62
7
  6
CONTINUOUS
 70
0
 71
3
 72
15
 73
11
 74
0
 42
0.0000001
 43
0.0000001
 44
0.0000000001
 40
0.0
 40
0.0
 40
0.0
 40
0.0
 40
0.1194589323
 40
0.2393238818
 40
0.3603590683
 40
0.4831273597
 40
0.6080628532
 40
0.7356633943
 40
0.8662458324
 40
1.0
 40
1.0
 40
1.0
 40
1.0
 10
10.3500619117
 20
10.135891804
 30
0.0
 10
10.3443773745
 20
10.135891804
 30
0.0
 10
10.3329710709
 20
10.1350287006
 30
0.0
 10
10.3161948205
 20
10.1312021907
 30
0.0
 10
10.3000032674
 20
10.1249294237
 30
0.0
 10
10.2846190125
 20
10.1163819369
 30
0.0
 10
10.2702366541
 20
10.1057141249
 30
0.0
 10
10.2569913937
 20
10.0931253152
 30
0.0
 10
10.2449964196
 20
10.0787967212
 30
0.0
 10
10.2379717552
 20
10.0683312939
 30
0.0
 10
10.2346879651
 20
10.0628790261
 30
0.0
  0
SPLINE
  5
2C2
100
AcDbEntity
  8
0
100
AcDbSpline
 62
7
  6
CONTINUOUS
 70
0
 71
3
 72
15
 73
11
 74
0
 42
0.0000001
 43
0.0000001
 44
0.0000000001
 40
0.0
 40
0.0
 40
0.0
 40
0.0
 40
0.1337281524
 40
0.2642909066
 40
0.3918798841
 40
0.5168126581
 40
0.6395857292
 40
0.7606335584
 40
0.8805211035
 40
1.0
 40
1.0
 40
1.0
 40
1.0
 10
10.2348450348
 20
9.816644263
 30
0.0
 10
10.2381296952
 20
9.8112097676
 30
0.0
 10
10.2451539906
 20
9.8007790641
 30
0.0
 10
10.2571418039
 20
9.7864999673
 30
0.0
 10
10.2703737176
 20
9.7739560224
 30
0.0
 10
10.2847369837
 20
9.7633273882
 30
0.0
 10
10.3000967892
 20
9.7548118659
 30
0.0
 10
10.3162598881
 20
9.7485630885
 30
0.0
 10
10.3330045287
 20
9.744751742
 30
0.0
 10
10.3443885126
 20
9.743891804
 30
0.0
 10
10.3500619117
 20
9.743891804
 30
0.0
  0
LINE
  5
2C3
100
AcDbEntity
  8
0
100
AcDbLine
 62
7
  6
CONTINUOUS
 10
10.9994103778
 20
10.4135120715
 11
11.0065957079
 21
10.4121553419
  0
LINE
  5
2C4
100
AcDbEntity
  8
0
100
AcDbLine
 62
7
  6
CONTINUOUS
 10
11.0065957079
 20
10.4121553419
 11
11.0174834849
 21
10.4100972235
  0
SPLINE
  5
2C5
100
AcDbEntity
  8
0
100
AcDbSpline
 62
7
  6
CONTINUOUS
 70
0
 71
3
 72
11
 73
7
 74
0
 42
0.0000001
 43
0.0000001
 44
0.0000000001
 40
0.0
 40
0.0
 40
0.0
 40
0.0
 40
0.2422016423
 40
0.4905411439
 40
0.7436259625
 40
1.0
 40
1.0
 40
1.0
 40
1.0
 10
10.7099686014
 20
10.4381205554
 30
0.0
 10
10.7333079769
 20
10.4387047807
 30
0.0
 10
10.7806218655
 20
10.438509481
 30
0.0
 10
10.8522121659
 20
10.4343192583
 30
0.0
 10
10.9248447853
 20
10.4262655872
 30
0.0
 10
10.9733436041
 20
10.4184005205
 30
0.0
 10
10.9976331718
 20
10.41384639
 30
0.0
  0
LINE
  5
2C6
100
AcDbEntity
  8
0
100
AcDbLine
 62
7
  6
CONTINUOUS
 10
10.9976331718
 20
10.41384639
 11
10.9994103778
 21
10.4135120715
  0
LINE
  5
2C7
100
AcDbEntity
  8
0
100
AcDbLine
 62
7
  6
CONTINUOUS
 10
10.6021288401
 20
10.4368192209
 11
10.6034647729
 21
10.4369126904
  0
LINE
  5
2C8
100
AcDbEntity
  8
0
100
AcDbLine
 62
7
  6
CONTINUOUS
 10
10.6034647729
 20
10.4369126904
 11
10.6052800691
 21
10.4370378427
  0
LINE
  5
2C9
100
AcDbEntity
  8
0
100
AcDbLine
 62
7
  6
CONTINUOUS
 10
10.624246361
 20
10.4382175332
 11
10.6279335503
 21
10.4384197536
  0
LINE
  5
2CA
100
AcDbEntity
  8
0
100
AcDbLine
 62
7
  6
CONTINUOUS
 10
10.6174831961
 20
10.4322322342
 11
10.6245515382
 21
10.4327938527
  0
SPLINE
  5
2CB
100
AcDbEntity
  8
0
100
AcDbSpline
 62
7
  6
CONTINUOUS
 70
0
 71
3
 72
18
 73
14
 74
0
 42
0.0000001
 43
0.0000001
 44
0.0000000001
 40
0.0
 40
0.0
 40
0.0
 40
0.0
 40
0.1428631643
 40
0.2762461708
 40
0.4013840883
 40
0.5203446702
 40
0.5784353297
 40
0.6361515449
 40
0.6939567702
 40
0.7523252254
 40
0.8117557395
 40
0.872685116
 40
1.0
 40
1.0
 40
1.0
 40
1.0
 10
10.2279142859
 20
9.8170709486
 30
0.0
 10
10.2295057261
 20
9.8110452815
 30
0.0
 10
10.2330463106
 20
9.799505757
 30
0.0
 10
10.2399107287
 20
9.7833546956
 30
0.0
 10
10.2483069489
 20
9.7691237103
 30
0.0
 10
10.2567921865
 20
9.7589368552
 30
0.0
 10
10.2644053545
 20
9.7520649456
 30
0.0
 10
10.2705127706
 20
9.7475638572
 30
0.0
 10
10.2770579245
 20
9.743702806
 30
0.0
 10
10.2840341046
 20
9.7405052783
 30
0.0
 10
10.2914322903
 20
9.7379990409
 30
0.0
 10
10.3019741049
 20
9.7355707358
 30
0.0
 10
10.3102173413
 20
9.73489181
 30
0.0
 10
10.3157713435
 20
9.734891804
 30
0.0
  0
SPLINE
  5
2CC
100
AcDbEntity
  8
0
100
AcDbSpline
 62
7
  6
CONTINUOUS
 70
0
 71
3
 72
11
 73
7
 74
0
 42
0.0000001
 43
0.0000001
 44
0.0000000001
 40
0.0
 40
0.0
 40
0.0
 40
0.0
 40
0.2557422976
 40
0.5085102593
 40
0.7570118683
 40
1.0
 40
1.0
 40
1.0
 40
1.0
 10
10.9974834891
 20
10.4140069594
 30
0.0
 10
10.9741392891
 20
10.4184114238
 30
0.0
 10
10.9275119906
 20
10.4260953027
 30
0.0
 10
10.8576392783
 20
10.4342372824
 30
0.0
 10
10.7886342674
 20
10.4388891392
 30
0.0
 10
10.7429613713
 20
10.4396496924
 30
0.0
 10
10.7203912527
 20
10.4394158939
 30
0.0
  0
SPLINE
  5
2CD
100
AcDbEntity
  8
0
100
AcDbSpline
 62
7
  6
CONTINUOUS
 70
0
 71
3
 72
15
 73
11
 74
0
 42
0.0000001
 43
0.0000001
 44
0.0000000001
 40
0.0
 40
0.0
 40
0.0
 40
0.0
 40
0.1090055239
 40
0.2230764863
 40
0.3420583159
 40
0.4657743934
 40
0.59390955
 40
0.7260376329
 40
0.8616431605
 40
1.0
 40
1.0
 40
1.0
 40
1.0
 10
11.2948393118
 20
7.9006599308
 30
0.0
 10
11.2789760621
 20
7.9274504957
 30
0.0
 10
11.2483010373
 20
7.9833525083
 30
0.0
 10
11.2065040743
 20
8.0717190836
 30
0.0
 10
11.1682216957
 20
8.1662147225
 30
0.0
 10
11.1338045945
 20
8.2664386251
 30
0.0
 10
11.1035835981
 20
8.3719161931
 30
0.0
 10
11.0778928028
 20
8.4820766397
 30
0.0
 10
11.0570386742
 20
8.5962192816
 30
0.0
 10
11.0466134964
 20
8.6738064919
 30
0.0
 10
11.0422543311
 20
8.7130836538
 30
0.0
  0
SPLINE
  5
2CE
100
AcDbEntity
  8
0
100
AcDbSpline
 62
7
  6
CONTINUOUS
 70
0
 71
3
 72
9
 73
5
 74
0
 42
0.0000001
 43
0.0000001
 44
0.0000000001
 40
0.0
 40
0.0
 40
0.0
 40
0.0
 40
0.4955133883
 40
1.0
 40
1.0
 40
1.0
 40
1.0
 10
10.3445370512
 20
9.7377871376
 30
0.0
 10
10.3406158819
 20
9.7387277927
 30
0.0
 10
10.3328043924
 20
9.7410765054
 30
0.0
 10
10.3252983237
 20
9.7442648136
 30
0.0
 10
10.3216073573
 20
9.7460624279
 30
0.0
  0
SPLINE
  5
2CF
100
AcDbEntity
  8
0
100
AcDbSpline
 62
7
  6
CONTINUOUS
 70
0
 71
3
 72
9
 73
5
 74
0
 42
0.0000001
 43
0.0000001
 44
0.0000000001
 40
0.0
 40
0.0
 40
0.0
 40
0.0
 40
0.5045144635
 40
1.0
 40
1.0
 40
1.0
 40
1.0
 10
10.3216382506
 20
10.1337361784
 30
0.0
 10
10.3253630912
 20
10.1355489778
 30
0.0
 10
10.3329393339
 20
10.1387603001
 30
0.0
 10
10.3408256942
 20
10.1411157026
 30
0.0
 10
10.3447841008
 20
10.1420553664
 30
0.0
  0
SPLINE
  5
2D0
100
AcDbEntity
  8
0
100
AcDbSpline
 62
9
  6
CONTINUOUS
 70
0
 71
3
 72
12
 73
8
 74
0
 42
0.0000001
 43
0.0000001
 44
0.0000000001
 40
0.0
 40
0.0
 40
0.0
 40
0.0
 40
0.1302836301
 40
0.2602099442
 40
0.5161008216
 40
0.763709726
 40
1.0
 40
1.0
 40
1.0
 40
1.0
 10
10.4886548408
 20
9.939891804
 30
0.0
 10
10.4886548408
 20
9.9339296905
 30
0.0
 10
10.4882677987
 20
9.9220176722
 30
0.0
 10
10.4859813398
 20
9.8984984827
 30
0.0
 10
10.4803547232
 20
9.8699646155
 30
0.0
 10
10.4692905671
 20
9.8378593479
 30
0.0
 10
10.4590089341
 20
9.8181226677
 30
0.0
 10
10.4532150984
 20
9.8089926163
 30
0.0
  0
SPLINE
  5
2D1
100
AcDbEntity
  8
0
100
AcDbSpline
 62
9
  6
CONTINUOUS
 70
0
 71
3
 72
9
 73
5
 74
0
 42
0.0000001
 43
0.0000001
 44
0.0000000001
 40
0.0
 40
0.0
 40
0.0
 40
0.0
 40
0.2556472432
 40
1.0
 40
1.0
 40
1.0
 40
1.0
 10
10.2345980873
 20
9.8177004305
 30
0.0
 10
10.23585985
 20
9.8156397769
 30
0.0
 10
10.2409535116
 20
9.8076778073
 30
0.0
 10
10.2466892758
 20
9.8001212238
 30
0.0
 10
10.2513162883
 20
9.7948215888
 30
0.0
  0
SPLINE
  5
2D2
100
AcDbEntity
  8
0
100
AcDbSpline
 62
9
  6
CONTINUOUS
 70
0
 71
3
 72
27
 73
23
 74
0
 42
0.0000001
 43
0.0000001
 44
0.0000000001
 40
0.0
 40
0.0
 40
0.0
 40
0.0
 40
0.0613307546
 40
0.1197582667
 40
0.1757330072
 40
0.2030443509
 40
0.2300300728
 40
0.2568115297
 40
0.2835160284
 40
0.3102752783
 40
0.3372176048
 40
0.3644653802
 40
0.3921328906
 40
0.4490526016
 40
0.5086478581
 40
0.5712513694
 40
0.6369392091
 40
0.7055517885
 40
0.776719096
 40
0.8499398457
 40
0.9246397438
 40
1.0
 40
1.0
 40
1.0
 40
1.0
 10
10.25224714
 20
9.7937652748
 30
0.0
 10
10.2569526457
 20
9.7884750171
 30
0.0
 10
10.2668804368
 20
9.7787658382
 30
0.0
 10
10.2834984714
 20
9.7669800206
 30
0.0
 10
10.298366276
 20
9.7599199562
 30
0.0
 10
10.3105370941
 20
9.756132203
 30
0.0
 10
10.3197148583
 20
9.7542188991
 30
0.0
 10
10.328965666
 20
9.7532184871
 30
0.0
 10
10.3382443684
 20
9.7531398388
 30
0.0
 10
10.3475033062
 20
9.7539845724
 30
0.0
 10
10.3566962133
 20
9.7557431217
 30
0.0
 10
10.3657776108
 20
9.7584092194
 30
0.0
 10
10.3777832514
 20
9.7632008379
 30
0.0
 10
10.3923343684
 20
9.7714735476
 30
0.0
 10
10.4084217834
 20
9.7845983201
 30
0.0
 10
10.4230274191
 20
9.8007351444
 30
0.0
 10
10.4358766311
 20
9.8195640426
 30
0.0
 10
10.4467307429
 20
9.8407180109
 30
0.0
 10
10.4553964421
 20
9.8637833323
 30
0.0
 10
10.4617060863
 20
9.8883243628
 30
0.0
 10
10.4655345289
 20
9.9138565873
 30
0.0
 10
10.466393636
 20
9.9311920517
 30
0.0
 10
10.466393636
 20
9.939891804
 30
0.0
  0
SPLINE
  5
2D3
100
AcDbEntity
  8
0
100
AcDbSpline
 62
9
  6
CONTINUOUS
 70
0
 71
3
 72
27
 73
23
 74
0
 42
0.0000001
 43
0.0000001
 44
0.0000000001
 40
0.0
 40
0.0
 40
0.0
 40
0.0
 40
0.0754061703
 40
0.1501013501
 40
0.2232760845
 40
0.2943663058
 40
0.3628826836
 40
0.4284679537
 40
0.4909755402
 40
0.5504938293
 40
0.6073661402
 40
0.6350233636
 40
0.662270565
 40
0.6892220973
 40
0.7160000869
 40
0.7427322596
 40
0.7695493824
 40
0.7965775881
 40
0.8239368819
 40
0.880018905
 40
0.9385592563
 40
1.0
 40
1.0
 40
1.0
 40
1.0
 10
10.466385953
 20
9.9419058958
 30
0.0
 10
10.4663198672
 20
9.9505677676
 30
0.0
 10
10.4653367787
 20
9.9678154432
 30
0.0
 10
10.4613450265
 20
9.9931930655
 30
0.0
 10
10.4548981621
 20
10.0175538853
 30
0.0
 10
10.4461229526
 20
10.0404206747
 30
0.0
 10
10.4351876671
 20
10.0613649493
 30
0.0
 10
10.4222855767
 20
10.079980038
 30
0.0
 10
10.4076545199
 20
10.0959056916
 30
0.0
 10
10.3915675192
 20
10.1088281041
 30
0.0
 10
10.3770392978
 20
10.1169414871
 30
0.0
 10
10.365063655
 20
10.1216170978
 30
0.0
 10
10.3560079859
 20
10.1242033659
 30
0.0
 10
10.346845108
 20
10.1258883257
 30
0.0
 10
10.3376200069
 20
10.1266662031
 30
0.0
 10
10.3283784441
 20
10.126527945
 30
0.0
 10
10.3191674941
 20
10.1254753394
 30
0.0
 10
10.3100317297
 20
10.1235175022
 30
0.0
 10
10.2979186672
 20
10.1196803195
 30
0.0
 10
10.2831274967
 20
10.112578863
 30
0.0
 10
10.2665994019
 20
10.1007760154
 30
0.0
 10
10.2567255266
 20
10.0910738833
 30
0.0
 10
10.2520453174
 20
10.0857909634
 30
0.0
  0
SPLINE
  5
2D4
100
AcDbEntity
  8
0
100
AcDbSpline
 62
9
  6
CONTINUOUS
 70
0
 71
3
 72
9
 73
5
 74
0
 42
0.0000001
 43
0.0000001
 44
0.0000000001
 40
0.0
 40
0.0
 40
0.0
 40
0.0
 40
0.2446930624
 40
1.0
 40
1.0
 40
1.0
 40
1.0
 10
10.250489066
 20
10.0840066874
 30
0.0
 10
10.2490215017
 20
10.0822977418
 30
0.0
 10
10.2431766638
 20
10.075183348
 30
0.0
 10
10.2379387461
 20
10.0675754696
 30
0.0
 10
10.2343247153
 20
10.0616352382
 30
0.0
  0
SPLINE
  5
2D5
100
AcDbEntity
  8
0
100
AcDbSpline
 62
7
  6
CONTINUOUS
 70
0
 71
3
 72
19
 73
15
 74
0
 42
0.0000001
 43
0.0000001
 44
0.0000000001
 40
0.0
 40
0.0
 40
0.0
 40
0.0
 40
0.071872792
 40
0.1435405425
 40
0.2846252472
 40
0.4210198974
 40
0.5510133624
 40
0.6132814777
 40
0.6736024511
 40
0.7883567313
 40
0.8431693557
 40
0.8965044649
 40
0.9486595486
 40
1.0
 40
1.0
 40
1.0
 40
1.0
 10
10.1949204678
 20
9.939891804
 30
0.0
 10
10.1949204678
 20
9.9340566361
 30
0.0
 10
10.1945361973
 20
9.9223987919
 30
0.0
 10
10.1922667246
 20
9.8993902869
 30
0.0
 10
10.1866848699
 20
9.871501021
 30
0.0
 10
10.1757115866
 20
9.8401773676
 30
0.0
 10
10.1631402708
 20
9.8164984128
 30
0.0
 10
10.1512620824
 20
9.7997502717
 30
0.0
 10
10.1387345749
 20
9.7850862584
 30
0.0
 10
10.124604826
 20
9.7726506254
 30
0.0
 10
10.1091913982
 20
9.7631051031
 30
0.0
 10
10.0973780393
 20
9.7575672162
 30
0.0
 10
10.0852448497
 20
9.753603813
 30
0.0
 10
10.0769632941
 20
9.7520276534
 30
0.0
 10
10.0728264616
 20
9.7515172556
 30
0.0
  0
SPLINE
  5
2D6
100
AcDbEntity
  8
0
100
AcDbSpline
 62
7
  6
CONTINUOUS
 70
0
 71
3
 72
20
 73
16
 74
0
 42
0.0000001
 43
0.0000001
 44
0.0000000001
 40
0.0
 40
0.0
 40
0.0
 40
0.0
 40
0.0513327415
 40
0.1035003711
 40
0.1568607996
 40
0.2117058044
 40
0.2682628484
 40
0.3266740629
 40
0.3870169497
 40
0.4492961214
 40
0.5792765889
 40
0.7156068867
 40
0.8565891808
 40
0.9281939622
 40
1.0
 40
1.0
 40
1.0
 40
1.0
 10
10.0736515508
 20
10.1281608768
 30
0.0
 10
10.0777697385
 20
10.1276165124
 30
0.0
 10
10.0860110541
 20
10.1259769116
 30
0.0
 10
10.0980764131
 20
10.1219335072
 30
0.0
 10
10.109818191
 20
10.11633372
 30
0.0
 10
10.1211354436
 20
10.109231704
 30
0.0
 10
10.1319290878
 20
10.1006854508
 30
0.0
 10
10.1421155012
 20
10.0907783366
 30
0.0
 10
10.151604433
 20
10.0795886698
 30
0.0
 10
10.1633915377
 20
10.0628600468
 30
0.0
 10
10.1758656558
 20
10.0392343807
 30
0.0
 10
10.1867517491
 20
10.0080117989
 30
0.0
 10
10.1922885196
 20
9.9802276755
 30
0.0
 10
10.194539363
 20
9.9573119486
 30
0.0
 10
10.1949204678
 20
9.9457025793
 30
0.0
 10
10.1949204678
 20
9.939891804
 30
0.0
  0
SPLINE
  5
2D7
100
AcDbEntity
  8
0
100
AcDbSpline
 62
9
  6
CONTINUOUS
 70
0
 71
3
 72
18
 73
14
 74
0
 42
0.0000001
 43
0.0000001
 44
0.0000000001
 40
0.0
 40
0.0
 40
0.0
 40
0.0
 40
0.1391220645
 40
0.2766770279
 40
0.4109117586
 40
0.4764168291
 40
0.540634501
 40
0.6646564482
 40
0.7824419163
 40
0.8390077274
 40
0.8940532015
 40
0.9476695856
 40
1.0
 40
1.0
 40
1.0
 40
1.0
 10
10.1891241994
 20
9.939891804
 30
0.0
 10
10.1891241994
 20
9.9492625072
 30
0.0
 10
10.1880981951
 20
9.967915157
 30
0.0
 10
10.183525138
 20
9.9952667528
 30
0.0
 10
10.1772118692
 20
10.0171525842
 30
0.0
 10
10.1707226844
 20
10.0337163873
 30
0.0
 10
10.1634891541
 20
10.0492121535
 30
0.0
 10
10.1529457541
 20
10.0670028799
 30
0.0
 10
10.1402442275
 20
10.0826905467
 30
0.0
 10
10.1291015704
 20
10.093418016
 30
0.0
 10
10.1204409347
 20
10.100431222
 30
0.0
 10
10.111415784
 20
10.1064691449
 30
0.0
 10
10.1051205573
 20
10.109858579
 30
0.0
 10
10.1019367342
 20
10.1113709443
 30
0.0
  0
SPLINE
  5
2D8
100
AcDbEntity
  8
0
100
AcDbSpline
 62
9
  6
CONTINUOUS
 70
0
 71
3
 72
9
 73
5
 74
0
 42
0.0000001
 43
0.0000001
 44
0.0000000001
 40
0.0
 40
0.0
 40
0.0
 40
0.0
 40
0.5044178255
 40
1.0
 40
1.0
 40
1.0
 40
1.0
 10
10.1019367342
 20
10.1113709443
 30
0.0
 10
10.098749006
 20
10.1128851645
 30
0.0
 10
10.0922728336
 20
10.1155698215
 30
0.0
 10
10.0855454417
 20
10.1175473416
 30
0.0
 10
10.0821699333
 20
10.1183397559
 30
0.0
  0
SPLINE
  5
2D9
100
AcDbEntity
  8
0
100
AcDbSpline
 62
9
  6
CONTINUOUS
 70
0
 71
3
 72
9
 73
5
 74
0
 42
0.0000001
 43
0.0000001
 44
0.0000000001
 40
0.0
 40
0.0
 40
0.0
 40
0.0
 40
0.4955129596
 40
1.0
 40
1.0
 40
1.0
 40
1.0
 10
10.081607574
 20
9.7613135987
 30
0.0
 10
10.0850684279
 20
9.7621036621
 30
0.0
 10
10.091967309
 20
9.7640964951
 30
0.0
 10
10.0986047479
 20
9.7668328538
 30
0.0
 10
10.1018704412
 20
9.7683812537
 30
0.0
  0
SPLINE
  5
2DA
100
AcDbEntity
  8
0
100
AcDbSpline
 62
9
  6
CONTINUOUS
 70
0
 71
3
 72
18
 73
14
 74
0
 42
0.0000001
 43
0.0000001
 44
0.0000000001
 40
0.0
 40
0.0
 40
0.0
 40
0.0
 40
0.0523246355
 40
0.1059352651
 40
0.1609749415
 40
0.2175354118
 40
0.3353140984
 40
0.4593346865
 40
0.5235534277
 40
0.589060501
 40
0.7233029839
 40
0.8608687617
 40
1.0
 40
1.0
 40
1.0
 40
1.0
 10
10.1018704412
 20
9.7683812537
 30
0.0
 10
10.1050561435
 20
9.7698917267
 30
0.0
 10
10.1113553028
 20
9.7732777308
 30
0.0
 10
10.1203861792
 20
9.7793120983
 30
0.0
 10
10.1290528715
 20
9.7863224382
 30
0.0
 10
10.1402037773
 20
9.7970477138
 30
0.0
 10
10.1529151578
 20
9.8127358007
 30
0.0
 10
10.1634669854
 20
9.8305297613
 30
0.0
 10
10.1707066538
 20
9.8460296306
 30
0.0
 10
10.1772015302
 20
9.8625989188
 30
0.0
 10
10.1835202502
 20
9.8844932736
 30
0.0
 10
10.1880972673
 20
9.9118563283
 30
0.0
 10
10.1891241994
 20
9.9305170909
 30
0.0
 10
10.1891241994
 20
9.939891804
 30
0.0
  0
SPLINE
  5
2DB
100
AcDbEntity
  8
0
100
AcDbSpline
 62
9
  6
CONTINUOUS
 70
0
 71
3
 72
13
 73
9
 74
0
 42
0.0000001
 43
0.0000001
 44
0.0000000001
 40
0.0
 40
0.0
 40
0.0
 40
0.0
 40
0.1312129435
 40
0.261965392
 40
0.5187445881
 40
0.6438278927
 40
0.7660283771
 40
1.0
 40
1.0
 40
1.0
 40
1.0
 10
10.1620535668
 20
9.939891804
 30
0.0
 10
10.1620535668
 20
9.9454403995
 30
0.0
 10
10.1616622384
 20
9.9565229055
 30
0.0
 10
10.1593540902
 20
9.9783491404
 30
0.0
 10
10.1547766913
 20
9.9996327475
 30
0.0
 10
10.1479390008
 20
10.019842354
 30
0.0
 10
10.1399107478
 20
10.038556461
 30
0.0
 10
10.1322707758
 20
10.0516554329
 30
0.0
 10
10.126484662
 20
10.0596810836
 30
0.0
  0
SPLINE
  5
2DC
100
AcDbEntity
  8
0
100
AcDbSpline
 62
9
  6
CONTINUOUS
 70
0
 71
3
 72
16
 73
12
 74
0
 42
0.0000001
 43
0.0000001
 44
0.0000000001
 40
0.0
 40
0.0
 40
0.0
 40
0.0
 40
0.1152660573
 40
0.2362055288
 40
0.3616939915
 40
0.4257189758
 40
0.4902992875
 40
0.6201824971
 40
0.7495866929
 40
0.8767312603
 40
1.0
 40
1.0
 40
1.0
 40
1.0
 10
11.3230687098
 20
9.7790654446
 30
0.0
 10
11.3165379416
 20
9.7881226567
 30
0.0
 10
11.3046567068
 20
9.8078000746
 30
0.0
 10
11.2909512601
 20
9.8401540233
 30
0.0
 10
11.2829061388
 20
9.8692245435
 30
0.0
 10
11.2785457545
 20
9.8934626111
 30
0.0
 10
11.275605889
 20
9.918343564
 30
0.0
 10
11.2747262147
 20
9.9497849898
 30
0.0
 10
11.2781023184
 20
9.9871555283
 30
0.0
 10
11.2858152595
 20
10.0232221084
 30
0.0
 10
11.2938715638
 20
10.0461922911
 30
0.0
 10
11.2985996497
 20
10.0571578435
 30
0.0
  0
SPLINE
  5
2DD
100
AcDbEntity
  8
0
100
AcDbSpline
 62
9
  6
CONTINUOUS
 70
0
 71
3
 72
9
 73
5
 74
0
 42
0.0000001
 43
0.0000001
 44
0.0000000001
 40
0.0
 40
0.0
 40
0.0
 40
0.0
 40
0.2570611322
 40
1.0
 40
1.0
 40
1.0
 40
1.0
 10
11.2985996497
 20
10.0571578435
 30
0.0
 10
11.3002965544
 20
10.0610933679
 30
0.0
 10
11.3072799423
 20
10.0762330363
 30
0.0
 10
11.3158242744
 20
10.0906712002
 30
0.0
 10
11.3230687098
 20
10.1007181635
 30
0.0
  0
SPLINE
  5
2DE
100
AcDbEntity
  8
0
100
AcDbSpline
 62
9
  6
CONTINUOUS
 70
0
 71
3
 72
10
 73
6
 74
0
 42
0.0000001
 43
0.0000001
 44
0.0000000001
 40
0.0
 40
0.0
 40
0.0
 40
0.0
 40
0.2559334653
 40
0.5096544517
 40
1.0
 40
1.0
 40
1.0
 40
1.0
 10
10.1446518525
 20
9.939891804
 30
0.0
 10
10.1446518525
 20
9.9295748715
 30
0.0
 10
10.1436503733
 20
9.9090111383
 30
0.0
 10
10.137772692
 20
9.8690979358
 30
0.0
 10
10.1289632743
 20
9.8401161724
 30
0.0
 10
10.1210894127
 20
9.8219858228
 30
0.0
  0
SPLINE
  5
2DF
100
AcDbEntity
  8
0
100
AcDbSpline
 62
9
  6
CONTINUOUS
 70
0
 71
3
 72
9
 73
5
 74
0
 42
0.0000001
 43
0.0000001
 44
0.0000000001
 40
0.0
 40
0.0
 40
0.0
 40
0.0
 40
0.2569919022
 40
1.0
 40
1.0
 40
1.0
 40
1.0
 10
10.1210894127
 20
9.8219858228
 30
0.0
 10
10.1194063906
 20
9.818110497
 30
0.0
 10
10.1124866725
 20
9.8031968262
 30
0.0
 10
10.1040415631
 20
9.7889741981
 30
0.0
 10
10.0968984055
 20
9.7790652469
 30
0.0
  0
SPLINE
  5
2E0
100
AcDbEntity
  8
0
100
AcDbSpline
 62
9
  6
CONTINUOUS
 70
0
 71
3
 72
21
 73
17
 74
0
 42
0.0000001
 43
0.0000001
 44
0.0000000001
 40
0.0
 40
0.0
 40
0.0
 40
0.0
 40
0.1169622274
 40
0.1780514929
 40
0.2405914347
 40
0.3043427364
 40
0.3690286
 40
0.4343532946
 40
0.5
 40
0.5656467054
 40
0.6309714
 40
0.6956572636
 40
0.7594085653
 40
0.8219485071
 40
0.8830377726
 40
1.0
 40
1.0
 40
1.0
 40
1.0
 10
11.2934823096
 20
10.0596810933
 30
0.0
 10
11.2876964171
 20
10.0516556183
 30
0.0
 10
11.2800562233
 20
10.0385567217
 30
0.0
 10
11.2720278248
 20
10.0198433056
 30
0.0
 10
11.2669429227
 20
10.0048117303
 30
0.0
 10
11.2629378232
 20
9.9891468488
 30
0.0
 10
11.2600467935
 20
9.972999062
 30
0.0
 10
11.2583035945
 20
9.9565268475
 30
0.0
 10
11.2577178403
 20
9.939891804
 30
0.0
 10
11.2583035945
 20
9.9232567606
 30
0.0
 10
11.2600467935
 20
9.9067845461
 30
0.0
 10
11.2629378232
 20
9.8906367593
 30
0.0
 10
11.2669429227
 20
9.8749718778
 30
0.0
 10
11.2720278248
 20
9.8599403024
 30
0.0
 10
11.2800562233
 20
9.8412268864
 30
0.0
 10
11.2876964171
 20
9.8281279898
 30
0.0
 10
11.2934823096
 20
9.8201025148
 30
0.0
  0
SPLINE
  5
2E1
100
AcDbEntity
  8
0
100
AcDbSpline
 62
7
  6
CONTINUOUS
 70
0
 71
3
 72
9
 73
5
 74
0
 42
0.0000001
 43
0.0000001
 44
0.0000000001
 40
0.0
 40
0.0
 40
0.0
 40
0.0
 40
0.495513465
 40
1.0
 40
1.0
 40
1.0
 40
1.0
 10
11.0754302085
 20
10.1419964059
 30
0.0
 10
11.0793513155
 20
10.141055753
 30
0.0
 10
11.08716268
 20
10.1387070596
 30
0.0
 10
11.0946686332
 20
10.1355187999
 30
0.0
 10
11.098359544
 20
10.1337212162
 30
0.0
  0
SPLINE
  5
2E2
100
AcDbEntity
  8
0
100
AcDbSpline
 62
7
  6
CONTINUOUS
 70
0
 71
3
 72
9
 73
5
 74
0
 42
0.0000001
 43
0.0000001
 44
0.0000000001
 40
0.0
 40
0.0
 40
0.0
 40
0.0
 40
0.5045145627
 40
1.0
 40
1.0
 40
1.0
 40
1.0
 10
11.0983286691
 20
9.7460474022
 30
0.0
 10
11.0946036968
 20
9.7442345413
 30
0.0
 10
11.087027181
 20
9.7410231246
 30
0.0
 10
11.0791405294
 20
9.7386676891
 30
0.0
 10
11.0751819776
 20
9.737728026
 30
0.0
  0
SPLINE
  5
2E3
100
AcDbEntity
  8
0
100
AcDbSpline
 62
9
  6
CONTINUOUS
 70
0
 71
3
 72
15
 73
11
 74
0
 42
0.0000001
 43
0.0000001
 44
0.0000000001
 40
0.0
 40
0.0
 40
0.0
 40
0.0
 40
0.1171883458
 40
0.2354516052
 40
0.3554003745
 40
0.4776517423
 40
0.6028116268
 40
0.7313849162
 40
0.8637166906
 40
1.0
 40
1.0
 40
1.0
 40
1.0
 10
11.0869987545
 20
9.7532247336
 30
0.0
 10
11.0906716599
 20
9.7532807785
 30
0.0
 10
11.0980515443
 20
9.7538340887
 30
0.0
 10
11.1090109413
 20
9.7559606749
 30
0.0
 10
11.1198076566
 20
9.7593740423
 30
0.0
 10
11.1303540149
 20
9.764053006
 30
0.0
 10
11.1405799216
 20
9.7699539979
 30
0.0
 10
11.1504142809
 20
9.7770395309
 30
0.0
 10
11.1597915636
 20
9.7852548938
 30
0.0
 10
11.1656119996
 20
9.7913563641
 30
0.0
 10
11.1684287826
 20
9.7945680069
 30
0.0
  0
SPLINE
  5
2E4
100
AcDbEntity
  8
0
100
AcDbSpline
 62
9
  6
CONTINUOUS
 70
0
 71
3
 72
9
 73
5
 74
0
 42
0.0000001
 43
0.0000001
 44
0.0000000001
 40
0.0
 40
0.0
 40
0.0
 40
0.0
 40
0.2444610843
 40
1.0
 40
1.0
 40
1.0
 40
1.0
 10
11.1684287826
 20
9.7945680069
 30
0.0
 10
11.1699701241
 20
9.7963254154
 30
0.0
 10
11.1761099216
 20
9.8036583747
 30
0.0
 10
11.1815931652
 20
9.8115347983
 30
0.0
 10
11.1853659908
 20
9.8176959659
 30
0.0
  0
SPLINE
  5
2E5
100
AcDbEntity
  8
0
100
AcDbSpline
 62
9
  6
CONTINUOUS
 70
0
 71
3
 72
9
 73
5
 74
0
 42
0.0000001
 43
0.0000001
 44
0.0000000001
 40
0.0
 40
0.0
 40
0.0
 40
0.0
 40
0.2563624867
 40
1.0
 40
1.0
 40
1.0
 40
1.0
 10
11.1863734988
 20
10.0604229112
 30
0.0
 10
11.1849730046
 20
10.0627650479
 30
0.0
 10
11.1793099272
 20
10.0717788136
 30
0.0
 10
11.1728320351
 20
10.0802893016
 30
0.0
 10
11.1675618333
 20
10.0861956998
 30
0.0
  0
SPLINE
  5
2E6
100
AcDbEntity
  8
0
100
AcDbSpline
 62
9
  6
CONTINUOUS
 70
0
 71
3
 72
15
 73
11
 74
0
 42
0.0000001
 43
0.0000001
 44
0.0000000001
 40
0.0
 40
0.0
 40
0.0
 40
0.0
 40
0.1361895047
 40
0.2684204205
 40
0.3969016393
 40
0.5219945633
 40
0.6442228357
 40
0.7642117503
 40
0.8825961899
 40
1.0
 40
1.0
 40
1.0
 40
1.0
 10
11.1675618333
 20
10.0861956998
 30
0.0
 10
11.1647161913
 20
10.0893848556
 30
0.0
 10
11.1588382771
 20
10.0954371641
 30
0.0
 10
11.149375657
 20
10.1035641642
 30
0.0
 10
11.1394598854
 20
10.1105475336
 30
0.0
 10
11.1291574641
 20
10.1163325283
 30
0.0
 10
11.1185406351
 20
10.1208822397
 30
0.0
 10
11.1076806705
 20
10.1241536585
 30
0.0
 10
11.0966663318
 20
10.1261264671
 30
0.0
 10
11.0892591628
 20
10.12656974
 30
0.0
 10
11.0855745766
 20
10.12656974
 30
0.0
  0
SPLINE
  5
2E7
100
AcDbEntity
  8
0
100
AcDbSpline
 62
9
  6
CONTINUOUS
 70
0
 71
3
 72
17
 73
13
 74
0
 42
0.0000001
 43
0.0000001
 44
0.0000000001
 40
0.0
 40
0.0
 40
0.0
 40
0.0
 40
0.1181237848
 40
0.2419476528
 40
0.3698838572
 40
0.4348246962
 40
0.5000361187
 40
0.5652464504
 40
0.6301834786
 40
0.7581051384
 40
0.8819058243
 40
1.0
 40
1.0
 40
1.0
 40
1.0
 10
10.9668814271
 20
9.8087887358
 30
0.0
 10
10.9610637441
 20
9.8179306247
 30
0.0
 10
10.9507378622
 20
9.8377022971
 30
0.0
 10
10.9396339859
 20
9.8698757457
 30
0.0
 10
10.9339872608
 20
9.898472165
 30
0.0
 10
10.9316945669
 20
9.9220495792
 30
0.0
 10
10.9311178286
 20
9.9399749322
 30
0.0
 10
10.9317054532
 20
9.9578995723
 30
0.0
 10
10.9340117642
 20
9.9814738669
 30
0.0
 10
10.93967568
 20
10.0100630529
 30
0.0
 10
10.9507988045
 20
10.0422233795
 30
0.0
 10
10.9611370195
 20
10.0619832234
 30
0.0
 10
10.966960233
 20
10.0711183695
 30
0.0
  0
SPLINE
  5
2E8
100
AcDbEntity
  8
0
100
AcDbSpline
 62
9
  6
CONTINUOUS
 70
0
 71
3
 72
35
 73
31
 74
0
 42
0.0000001
 43
0.0000001
 44
0.0000000001
 40
0.0
 40
0.0
 40
0.0
 40
0.0
 40
0.025714409
 40
0.0517327344
 40
0.0782382814
 40
0.1054185476
 40
0.1334385386
 40
0.1624143434
 40
0.1924068493
 40
0.2234394722
 40
0.2884536948
 40
0.3569880854
 40
0.3923108783
 40
0.4281266313
 40
0.4642758295
 40
0.5005881571
 40
0.5368908942
 40
0.5730115988
 40
0.608780608
 40
0.6440395913
 40
0.712401804
 40
0.7772015753
 40
0.8081197563
 40
0.8379982401
 40
0.8668650737
 40
0.8947860761
 40
0.9218822813
 40
0.9483233259
 40
0.9743006093
 40
1.0
 40
1.0
 40
1.0
 40
1.0
 10
11.0841503987
 20
10.1265588745
 30
0.0
 10
11.0798434685
 20
10.126493155
 30
0.0
 10
11.0711766901
 20
10.1257533819
 30
0.0
 10
11.0583546294
 20
10.1228636524
 30
0.0
 10
11.0458002314
 20
10.1182079052
 30
0.0
 10
11.0336448727
 20
10.1118422214
 30
0.0
 10
11.022001257
 20
10.1038330064
 30
0.0
 10
11.0109774397
 20
10.0942605709
 30
0.0
 10
11.0006715325
 20
10.0832209151
 30
0.0
 10
10.9878302799
 20
10.0664261292
 30
0.0
 10
10.9742037465
 20
10.0422881949
 30
0.0
 10
10.9644057143
 20
10.0156285361
 30
0.0
 10
10.9587885161
 20
9.9928993427
 30
0.0
 10
10.9557378067
 20
9.9751720282
 30
0.0
 10
10.9539266453
 20
9.957110601
 30
0.0
 10
10.9533643877
 20
9.9388855496
 30
0.0
 10
10.9540653224
 20
9.9206700689
 30
0.0
 10
10.956013851
 20
9.9026372051
 30
0.0
 10
10.9591993389
 20
9.8849572076
 30
0.0
 10
10.9649879472
 20
9.8623198844
 30
0.0
 10
10.9749855245
 20
9.8358142089
 30
0.0
 10
10.9887983457
 20
9.8118774136
 30
0.0
 10
11.0017693382
 20
9.7952762414
 30
0.0
 10
11.0121596559
 20
9.7843935924
 30
0.0
 10
11.0232569435
 20
9.774989129
 30
0.0
 10
11.0349623266
 20
9.7671574662
 30
0.0
 10
11.0471670162
 20
9.7609773991
 30
0.0
 10
11.059757588
 20
9.7565137043
 30
0.0
 10
11.0726019231
 20
9.7538204407
 30
0.0
 10
11.0812696608
 20
9.7532138681
 30
0.0
 10
11.0855745766
 20
9.7532138681
 30
0.0
  0
SPLINE
  5
2E9
100
AcDbEntity
  8
0
100
AcDbSpline
 62
7
  6
CONTINUOUS
 70
0
 71
3
 72
32
 73
28
 74
0
 42
0.0000001
 43
0.0000001
 44
0.0000000001
 40
0.0
 40
0.0
 40
0.0
 40
0.0
 40
0.0256827299
 40
0.0517839328
 40
0.0784717503
 40
0.1059005366
 40
0.1341887617
 40
0.1634049327
 40
0.1935849789
 40
0.2247300763
 40
0.2897206916
 40
0.3578862893
 40
0.4283449461
 40
0.4641170984
 40
0.5000405752
 40
0.5359638394
 40
0.5717352409
 40
0.6421911528
 40
0.7103530361
 40
0.7753398903
 40
0.8366004517
 40
0.8658152473
 40
0.8941020906
 40
0.9215296696
 40
0.9482167928
 40
0.9743176303
 40
1.0
 40
1.0
 40
1.0
 40
1.0
 10
11.345983505
 20
9.751668024
 30
0.0
 10
11.3418703222
 20
9.7522267409
 30
0.0
 10
11.3336406411
 20
9.7538924916
 30
0.0
 10
11.3215975251
 20
9.7579679879
 30
0.0
 10
11.3098834255
 20
9.7635958412
 30
0.0
 10
11.2985970611
 20
9.7707193315
 30
0.0
 10
11.2878335092
 20
9.7792797246
 30
0.0
 10
11.2776758231
 20
9.7891948942
 30
0.0
 10
11.2682149195
 20
9.8003870361
 30
0.0
 10
11.2564655475
 20
9.8171105669
 30
0.0
 10
11.2440308576
 20
9.8407161111
 30
0.0
 10
11.2331855829
 20
9.8718991725
 30
0.0
 10
11.2276677273
 20
9.899636138
 30
0.0
 10
11.2254242931
 20
9.9225148708
 30
0.0
 10
11.224857189
 20
9.9399123643
 30
0.0
 10
11.2254270048
 20
9.9573095943
 30
0.0
 10
11.2276738825
 20
9.9801875935
 30
0.0
 10
11.2331950321
 20
10.0079211273
 30
0.0
 10
11.2440486871
 20
10.0391064017
 30
0.0
 10
11.2587546882
 20
10.0670155835
 30
0.0
 10
11.2740998629
 20
10.0871014438
 30
0.0
 10
11.2878584571
 20
10.1005258323
 30
0.0
 10
11.2986240436
 20
10.1090835634
 30
0.0
 10
11.3099118937
 20
10.1162034516
 30
0.0
 10
11.3216273059
 20
10.1218278265
 30
0.0
 10
11.333671519
 20
10.1258993718
 30
0.0
 10
11.3419016214
 20
10.1275624496
 30
0.0
 10
11.3460149286
 20
10.1281198172
 30
0.0
  0
SPLINE
  5
2EA
100
AcDbEntity
  8
0
100
AcDbSpline
 62
9
  6
CONTINUOUS
 70
0
 71
3
 72
9
 73
5
 74
0
 42
0.0000001
 43
0.0000001
 44
0.0000000001
 40
0.0
 40
0.0
 40
0.0
 40
0.0
 40
0.4957401427
 40
1.0
 40
1.0
 40
1.0
 40
1.0
 10
11.3376318221
 20
10.1183001104
 30
0.0
 10
11.3342888045
 20
10.1175093638
 30
0.0
 10
11.3276280191
 20
10.1155437198
 30
0.0
 10
11.3212142275
 20
10.1128839657
 30
0.0
 10
11.3180574808
 20
10.1113855985
 30
0.0
  0
SPLINE
  5
2EB
100
AcDbEntity
  8
0
100
AcDbSpline
 62
9
  6
CONTINUOUS
 70
0
 71
3
 72
27
 73
23
 74
0
 42
0.0000001
 43
0.0000001
 44
0.0000000001
 40
0.0
 40
0.0
 40
0.0
 40
0.0
 40
0.0261622715
 40
0.0529676543
 40
0.0804904305
 40
0.1087748261
 40
0.1676705674
 40
0.2296821935
 40
0.2945143678
 40
0.361647066
 40
0.4303991258
 40
0.4999879309
 40
0.5695770341
 40
0.638329844
 40
0.705464071
 40
0.7702992569
 40
0.8323150541
 40
0.8912158482
 40
0.9195028452
 40
0.9470280352
 40
0.9738355765
 40
1.0
 40
1.0
 40
1.0
 40
1.0
 10
11.3180574808
 20
10.1113855985
 30
0.0
 10
11.314873461
 20
10.109874286
 30
0.0
 10
11.30857794
 20
10.10648644
 30
0.0
 10
11.2995521544
 20
10.1004502184
 30
0.0
 10
11.2908896017
 20
10.0934390363
 30
0.0
 10
11.2797433601
 20
10.0827138395
 30
0.0
 10
11.2670372361
 20
10.0670263388
 30
0.0
 10
11.2542386109
 20
10.0454360496
 30
0.0
 10
11.2439624566
 20
10.0213323891
 30
0.0
 10
11.2364496642
 20
9.9952917883
 30
0.0
 10
11.2318690641
 20
9.9679332593
 30
0.0
 10
11.2303280242
 20
9.9399073473
 30
0.0
 10
11.2318656038
 20
9.9118811413
 30
0.0
 10
11.2364429578
 20
9.8845217148
 30
0.0
 10
11.2439525988
 20
9.858479486
 30
0.0
 10
11.2542255638
 20
9.8343731957
 30
0.0
 10
11.2670218579
 20
9.8127796064
 30
0.0
 10
11.2797263772
 20
9.7970887807
 30
0.0
 10
11.290871619
 20
9.7863605988
 30
0.0
 10
11.2995335143
 20
9.7793470639
 30
0.0
 10
11.3085589467
 20
9.773308682
 30
0.0
 10
11.3148542802
 20
9.7699192716
 30
0.0
 10
11.3180382494
 20
9.7684071767
 30
0.0
  0
SPLINE
  5
2EC
100
AcDbEntity
  8
0
100
AcDbSpline
 62
9
  6
CONTINUOUS
 70
0
 71
3
 72
9
 73
5
 74
0
 42
0.0000001
 43
0.0000001
 44
0.0000000001
 40
0.0
 40
0.0
 40
0.0
 40
0.0
 40
0.5042602994
 40
1.0
 40
1.0
 40
1.0
 40
1.0
 10
11.3180382494
 20
9.7684071767
 30
0.0
 10
11.3211914334
 20
9.7669097019
 30
0.0
 10
11.3275978764
 20
9.7642510049
 30
0.0
 10
11.3342510026
 20
9.7622848455
 30
0.0
 10
11.3375902103
 20
9.7614934004
 30
0.0
  0
SPLINE
  5
2ED
100
AcDbEntity
  8
0
100
AcDbSpline
 62
9
  6
CONTINUOUS
 70
0
 71
3
 72
14
 73
10
 74
0
 42
0.0000001
 43
0.0000001
 44
0.0000000001
 40
0.0
 40
0.0
 40
0.0
 40
0.0
 40
0.2339280142
 40
0.3561114484
 40
0.4811805221
 40
0.6086647213
 40
0.7380661543
 40
0.8687886704
 40
1.0
 40
1.0
 40
1.0
 40
1.0
 10
10.0968984055
 20
10.1007183612
 30
0.0
 10
10.1046660927
 20
10.0899430658
 30
0.0
 10
10.1149254341
 20
10.0723571671
 30
0.0
 10
10.1257009967
 20
10.0472317599
 30
0.0
 10
10.1325297227
 20
10.0270528641
 30
0.0
 10
10.1379070438
 20
10.0060215549
 30
0.0
 10
10.1417883851
 20
9.9843367617
 30
0.0
 10
10.1441270712
 20
9.9622210963
 30
0.0
 10
10.1446518525
 20
9.9473424254
 30
0.0
 10
10.1446518525
 20
9.939891804
 30
0.0
  0
SPLINE
  5
2EE
100
AcDbEntity
  8
0
100
AcDbSpline
 62
9
  6
CONTINUOUS
 70
0
 71
3
 72
13
 73
9
 74
0
 42
0.0000001
 43
0.0000001
 44
0.0000000001
 40
0.0
 40
0.0
 40
0.0
 40
0.0
 40
0.2339716229
 40
0.3561721073
 40
0.4812554119
 40
0.738034608
 40
0.8687870565
 40
1.0
 40
1.0
 40
1.0
 40
1.0
 10
10.126484662
 20
9.8201025245
 30
0.0
 10
10.1322707758
 20
9.8281281752
 30
0.0
 10
10.1399107478
 20
9.8412271471
 30
0.0
 10
10.1479390008
 20
9.859941254
 30
0.0
 10
10.1547766913
 20
9.8801508606
 30
0.0
 10
10.1593540902
 20
9.9014344677
 30
0.0
 10
10.1616622384
 20
9.9232607026
 30
0.0
 10
10.1620535668
 20
9.9343432086
 30
0.0
 10
10.1620535668
 20
9.939891804
 30
0.0
  0
SPLINE
  5
2EF
100
AcDbEntity
  8
0
100
AcDbSpline
 62
7
  6
CONTINUOUS
 70
0
 71
3
 72
15
 73
11
 74
0
 42
0.0000001
 43
0.0000001
 44
0.0000000001
 40
0.0
 40
0.0
 40
0.0
 40
0.0
 40
0.1090055676
 40
0.2230765517
 40
0.3420583363
 40
0.465774393
 40
0.5939095619
 40
0.7260376581
 40
0.8616431746
 40
1.0
 40
1.0
 40
1.0
 40
1.0
 10
10.1251276664
 20
7.9006599308
 30
0.0
 10
10.140990923
 20
7.9274505072
 30
0.0
 10
10.1716660305
 20
7.9833524955
 30
0.0
 10
10.2134630601
 20
8.0717190534
 30
0.0
 10
10.2517453054
 20
8.1662147368
 30
0.0
 10
10.2861623611
 20
8.2664386389
 30
0.0
 10
10.316383416
 20
8.3719161934
 30
0.0
 10
10.3420742995
 20
8.4820766278
 30
0.0
 10
10.3629283818
 20
8.5962192805
 30
0.0
 10
10.3733534822
 20
8.6738064948
 30
0.0
 10
10.3777126471
 20
8.7130836538
 30
0.0
  0
SPLINE
  5
2F0
100
AcDbEntity
  8
0
100
AcDbSpline
 62
7
  6
CONTINUOUS
 70
0
 71
3
 72
19
 73
15
 74
0
 42
0.0000001
 43
0.0000001
 44
0.0000000001
 40
0.0
 40
0.0
 40
0.0
 40
0.0
 40
0.127327031
 40
0.1882433341
 40
0.2476607618
 40
0.3060332391
 40
0.3638424711
 40
0.4215545779
 40
0.4796505841
 40
0.5385799786
 40
0.5987207367
 40
0.7238300199
 40
0.857176024
 40
1.0
 40
1.0
 40
1.0
 40
1.0
 10
11.1041954391
 20
9.734891804
 30
0.0
 10
11.1097438875
 20
9.7348917999
 30
0.0
 10
11.1179781175
 20
9.7355675715
 30
0.0
 10
11.1285083839
 20
9.7379908628
 30
0.0
 10
11.1358978711
 20
9.740492868
 30
0.0
 10
11.1428682671
 20
9.7436819662
 30
0.0
 10
11.1494096803
 20
9.7475335558
 30
0.0
 10
11.1555129755
 20
9.7520261443
 30
0.0
 10
11.1611778423
 20
9.757131806
 30
0.0
 10
11.1664119798
 20
9.7628214175
 30
0.0
 10
11.1729126769
 20
9.7712597416
 30
0.0
 10
11.1800076731
 20
9.7832584082
 30
0.0
 10
11.1868744265
 20
9.7993793164
 30
0.0
 10
11.1904187892
 20
9.8109011799
 30
0.0
 10
11.1920120852
 20
9.8169175291
 30
0.0
  0
SPLINE
  5
2F1
100
AcDbEntity
  8
0
100
AcDbSpline
 62
7
  6
CONTINUOUS
 70
0
 71
3
 72
18
 73
14
 74
0
 42
0.0000001
 43
0.0000001
 44
0.0000000001
 40
0.0
 40
0.0
 40
0.0
 40
0.0
 40
0.1433877505
 40
0.2771442507
 40
0.4024756762
 40
0.5214418228
 40
0.5794678258
 40
0.6370793808
 40
0.6947503204
 40
0.7529626017
 40
0.8122242476
 40
0.8729862453
 40
1.0
 40
1.0
 40
1.0
 40
1.0
 10
11.1924808561
 20
10.0610675681
 30
0.0
 10
11.1909067137
 20
10.0672052473
 30
0.0
 10
11.1873978106
 20
10.078959135
 30
0.0
 10
11.1805629799
 20
10.0954215365
 30
0.0
 10
11.1721736772
 20
10.109933932
 30
0.0
 10
11.163664603
 20
10.1203326343
 30
0.0
 10
11.1560133671
 20
10.1273499797
 30
0.0
 10
11.1498702857
 20
10.1319459916
 30
0.0
 10
11.1432793048
 20
10.1358892631
 30
0.0
 10
11.136247331
 20
10.1391557041
 30
0.0
 10
11.1287834275
 20
10.141716773
 30
0.0
 10
11.1181384785
 20
10.1441984466
 30
0.0
 10
11.1098082766
 20
10.144891804
 30
0.0
 10
11.1041955196
 20
10.144891804
 30
0.0
  0
SPLINE
  5
2F2
100
AcDbEntity
  8
0
100
AcDbSpline
 62
9
  6
CONTINUOUS
 70
0
 71
3
 72
12
 73
8
 74
0
 42
0.0000001
 43
0.0000001
 44
0.0000000001
 40
0.0
 40
0.0
 40
0.0
 40
0.0
 40
0.2364546552
 40
0.484027206
 40
0.7398184328
 40
0.8697094412
 40
1.0
 40
1.0
 40
1.0
 40
1.0
 10
10.4534772155
 20
10.0703770183
 30
0.0
 10
10.459142188
 20
10.0613989843
 30
0.0
 10
10.4692139075
 20
10.0420262182
 30
0.0
 10
10.4801270443
 20
10.0105513776
 30
0.0
 10
10.4857621403
 20
9.9825918381
 30
0.0
 10
10.4881404451
 20
9.9595377125
 30
0.0
 10
10.4886021464
 20
9.9478558364
 30
0.0
 10
10.4886467741
 20
9.9420064727
 30
0.0
  0
LINE
  5
2F3
100
AcDbEntity
  8
0
100
AcDbLine
 62
7
  6
CONTINUOUS
 10
10.5667290115
 20
10.4342110832
 11
10.5638421182
 21
10.4339397839
  0
SPLINE
  5
2F4
100
AcDbEntity
  8
0
100
AcDbSpline
 62
7
  6
CONTINUOUS
 70
0
 71
3
 72
19
 73
15
 74
0
 42
0.0000001
 43
0.0000001
 44
0.0000000001
 40
0.0
 40
0.0
 40
0.0
 40
0.0
 40
0.1272457472
 40
0.1881167884
 40
0.2474888455
 40
0.3058192155
 40
0.3635919919
 40
0.421275779
 40
0.4793543556
 40
0.5382781297
 40
0.5984253192
 40
0.7235869152
 40
0.8570336027
 40
1.0
 40
1.0
 40
1.0
 40
1.0
 10
10.3157714476
 20
10.144891804
 30
0.0
 10
10.3102071411
 20
10.144891804
 30
0.0
 10
10.3019494424
 20
10.1442121629
 30
0.0
 10
10.2913913207
 20
10.1417744884
 30
0.0
 10
10.2839840453
 20
10.1392577696
 30
0.0
 10
10.2769985127
 20
10.1360501661
 30
0.0
 10
10.2704446609
 20
10.1321764511
 30
0.0
 10
10.264331667
 20
10.1276583077
 30
0.0
 10
10.258659617
 20
10.1225240897
 30
0.0
 10
10.2534206823
 20
10.1168031191
 30
0.0
 10
10.2469159042
 20
10.1083179694
 30
0.0
 10
10.2398215964
 20
10.0962541873
 30
0.0
 10
10.232962656
 20
10.0800494331
 30
0.0
 10
10.2294267595
 20
10.0684698257
 30
0.0
 10
10.2278380859
 20
10.0624232962
 30
0.0
  0
ELLIPSE
  5
2F5
100
AcDbEntity
  8
0
100
AcDbEllipse
 62
7
  6
CONTINUOUS
 10
10.7099834891
 20
8.8883905744
 30
0.0
 11
-1.1492470711
 21
1.1162095399
 31
0.0
 40
0.2678505055
 41
-3.9342811082
 42
-2.887083557
  0
ELLIPSE
  5
2F6
100
AcDbEntity
  8
0
100
AcDbEllipse
 62
7
  6
CONTINUOUS
 10
10.7099834891
 20
8.8883905744
 30
0.0
 11
1.1492470711
 21
1.1162095399
 31
0.0
 40
0.2678505055
 41
-3.3961017501
 42
-2.3489041989
  0
ELLIPSE
  5
2F7
100
AcDbEntity
  8
0
100
AcDbEllipse
 62
7
  6
CONTINUOUS
 10
10.7099834891
 20
8.8883905744
 30
0.0
 11
1.1875
 21
-0.0
 31
0.0
 40
0.9750549296
 41
-2.0943951024
 42
-1.0471975512
  0
ENDSEC
  0
SECTION
  2
OBJECTS
  0
DICTIONARY
  5
C
100
AcDbDictionary
280
0
281
1
  3
ACAD_GROUP
350
D
  3
ACAD_MLINESTYLE
350
17
  3
ACAD_LAYOUT
350
1A
  3
ACAD_PLOTSETTINGS
350
19
  3
ACAD_PLOTSTYLENAME
350
E
  0
DICTIONARY
  5
D
102
{ACAD_REACTORS
330
C
102
}
100
AcDbDictionary
280
0
281
1
  0
ACDBDICTIONARYWDFLT
  5
E
102
{ACAD_REACTORS
330
C
102
}
100
AcDbDictionary
281
1
  3
Normal
350
F
100
AcDbDictionaryWithDefault
340
F
  0
DICTIONARY
  5
17
102
{ACAD_REACTORS
330
C
102
}
100
AcDbDictionary
280
0
281
1
  3
Standard
350
18
  0
DICTIONARY
  5
19
102
{ACAD_REACTORS
330
C
102
}
100
AcDbDictionary
281
1
  0
DICTIONARY
  5
1A
102
{ACAD_REACTORS
330
C
102
}
100
AcDbDictionary
281
1
  3
Model
350
2F8
  3
Layout1
350
2F9
  0
ACDBPLACEHOLDER
  5
F
102
{ACAD_REACTORS
330
E
102
}
  0
MLINESTYLE
  5
18
102
{ACAD_REACTORS
330
17
102
}
100
AcDbMlineStyle
  2
STANDARD
 70
0
  3

 62
256
 51
90.0
 52
90.0
 71
2
 49
0.5
 62
256
  6
BYLAYER
 49
-0.5
 62
256
  6
BYLAYER
  0
LAYOUT
  5
2F8
102
{ACAD_REACTORS
330
1A
102
}
100
AcDbPlotSettings
  1

  2
none_device
  4
ANSI_C_(22.00_x_17.00_Inches)
  6

 40
0.0
 41
0.0
 42
0.0
 43
0.0
 44
558.8
 45
431.8
 46
0.0
 47
0.0
 48
0.0
 49
0.0
140
0.0
141
0.0
142
1.0
143
1.0
 70
1024
 72
0
 73
0
 74
0
  7

 75
0
147
1.0
148
0.0
149
0.0
100
AcDbLayout
  1
Model
 70
0
 71
0
 10
0.0
 20
0.0
 11
22.0
 21
17.0
 12
0.0
 22
0.0
 32
0.0
 14
0.0
 24
0.0
 34
0.0
 15
0.0
 25
0.0
 35
0.0
146
0.0
 13
0.0
 23
0.0
 33
0.0
 16
1.0
 26
0.0
 36
0.0
 17
0.0
 27
1.0
 37
0.0
 76
0
330
202
345
0
346
0
  0
LAYOUT
  5
2F9
102
{ACAD_REACTORS
330
1A
102
}
100
AcDbPlotSettings
  1

  2
none_device
  4
ANSI_C_(22.00_x_17.00_Inches)
  6

 40
0.0
 41
0.0
 42
0.0
 43
0.0
 44
558.8
 45
431.8
 46
0.0
 47
0.0
 48
0.0
 49
0.0
140
0.0
141
0.0
142
1.0
143
1.0
 70
0
 72
0
 73
0
 74
0
  7

 75
0
147
1.0
148
0.0
149
0.0
100
AcDbLayout
  1
Layout1
 70
0
 71
1
 10
0.0
 20
0.0
 11
22.0
 21
17.0
 12
0.0
 22
0.0
 32
0.0
 14
0.0
 24
0.0
 34
0.0
 15
0.0
 25
0.0
 35
0.0
146
0.0
 13
0.0
 23
0.0
 33
0.0
 16
1.0
 26
0.0
 36
0.0
 17
0.0
 27
1.0
 37
0.0
 76
0
330
203
345
0
346
0
  0
ENDSEC
  0
EOF
