999
DXF file: E:\BT Custom\CADOUTPUT\_FRONT.dxf
999
Pro/ENGINEER 2018400 by Parametric Technology Corporation
  0
SECTION
  2
HEADER
  9
$ACADVER
  1
AC1018
  9
$DWGCODEPAGE
  3
ANSI_1252
  9
$EXTMAX
 10
22.0
 20
17.0
 30
0.0
  9
$EXTMIN
 10
0.0
 20
0.0
 30
0.0
  9
$LIMMIN
 10
0.0
 20
0.0
  9
$LIMMAX
 10
22.0
 20
17.0
  9
$VIEWCTR
 10
11.0
 20
8.5
  9
$VIEWSIZE
 40
17.0
  9
$CLAYER
  8
0
  9
$LTSCALE
 40
1.21
  9
$CELTYPE
  6
BYLAYER
  9
$DIMSCALE
 40
1.0
  9
$DIMASZ
 40
0.1
  9
$DIMEXO
 40
0.0625
  9
$DIMDLI
 40
0.836
  9
$DIMEXE
 40
0.125
  9
$DIMCEN
 40
0.198
  9
$DIMLFAC
 40
1.0
  9
$DIMBLK
  1
_FILLED
  9
$DIMALT
 70
1
  9
$DIMALTD
 70
2
  9
$DIMALTTD
 70
2
  9
$DIMALTF
 40
25.4
  9
$DIMTXT
 40
0.08
  9
$DIMTOL
 70
1
  9
$DIMLIM
 70
0
  9
$DIMTFAC
 40
1.0
  9
$DIMTP
 40
0.001
  9
$DIMTM
 40
0.001
  9
$DIMGAP
 40
0.09
  9
$DIMDSEP
 70
46
  9
$AUNITS
 70
0
  9
$PDMODE
 70
3
  9
$PDSIZE
 40
0.06
  9
$HANDSEED
  5
2E7
  9
$TILEMODE
 70
1
  9
$MEASUREMENT
 70
0
  9
$INSUNITS
 70
1
  0
ENDSEC
  0
SECTION
  2
CLASSES
  0
CLASS
  1
ACDBDICTIONARYWDFLT
  2
AcDbDictionaryWithDefault
  3
AutoCAD 2000
 90
0
 91
1
280
0
281
0
  0
CLASS
  1
ACDBPLACEHOLDER
  2
AcDbPlaceHolder
  3
AutoCAD 2000
 90
0
 91
1
280
0
281
0
  0
CLASS
  1
LAYOUT
  2
AcDbLayout
  3
AutoCAD 2000
 90
0
 91
0
280
0
281
0
  0
ENDSEC
  0
SECTION
  2
TABLES
  0
TABLE
  2
VPORT
  5
8
100
AcDbSymbolTable
 70
2
  0
VPORT
  5
1F4
100
AcDbSymbolTableRecord
100
AcDbViewportTableRecord
  2
*ACTIVE
 70
0
 10
0.0
 20
0.0
 11
1.0
 21
1.0
 12
11.0
 22
8.5
 13
0.0
 23
0.0
 14
1.0
 24
1.0
 15
0.0
 25
0.0
 16
0.0
 26
0.0
 36
1.0
 17
0.0
 27
0.0
 37
0.0
 40
17.0
 41
1.2941176471
 42
50.0
 43
0.0
 44
0.0
 50
0.0
 51
0.0
 71
0
 72
100
 73
1
 74
1
 75
0
 76
0
 77
0
 78
0
  0
ENDTAB
  0
TABLE
  2
LTYPE
  5
5
100
AcDbSymbolTable
 70
6
  0
LTYPE
  5
14
100
AcDbSymbolTableRecord
100
AcDbLinetypeTableRecord
  2
BYBLOCK
 70
0
  3

 72
65
 73
0
 40
0.0
  0
LTYPE
  5
15
100
AcDbSymbolTableRecord
100
AcDbLinetypeTableRecord
  2
BYLAYER
 70
0
  3

 72
65
 73
0
 40
0.0
  0
LTYPE
  5
16
100
AcDbSymbolTableRecord
100
AcDbLinetypeTableRecord
  2
CONTINUOUS
 70
64
  3
Solid line
 72
65
 73
0
 40
0.0
  0
LTYPE
  5
1F5
100
AcDbSymbolTableRecord
100
AcDbLinetypeTableRecord
  2
CENTER
 70
64
  3
____ _ ____ _ ____ _ ____ _ ____ _ ____ _ ____
 72
65
 73
4
 40
0.6
 49
0.375
 74
0
 49
-0.075
 74
0
 49
0.075
 74
0
 49
-0.075
 74
0
  0
LTYPE
  5
1F6
100
AcDbSymbolTableRecord
100
AcDbLinetypeTableRecord
  2
HIDDEN
 70
64
  3
- - - - - - - - - - - - - - - - - - - -
 72
65
 73
2
 40
0.2
 49
0.1
 74
0
 49
-0.1
 74
0
  0
LTYPE
  5
1F7
100
AcDbSymbolTableRecord
100
AcDbLinetypeTableRecord
  2
PHANTOM
 70
64
  3
_____ _ _ _____ _ _ _____ _ _ _____
 72
65
 73
6
 40
0.8
 49
0.45
 74
0
 49
-0.05
 74
0
 49
0.1
 74
0
 49
-0.05
 74
0
 49
0.1
 74
0
 49
-0.05
 74
0
  0
LTYPE
  5
1F8
100
AcDbSymbolTableRecord
100
AcDbLinetypeTableRecord
  2
DOT
 70
64
  3
. . . . . . . . . . . . . . . . . . . .
 72
65
 73
2
 40
0.2
 49
0.1
 74
0
 49
-0.1
 74
0
  0
LTYPE
  5
1F9
100
AcDbSymbolTableRecord
100
AcDbLinetypeTableRecord
  2
DASHED
 70
64
  3
- - - - - - - - - - - - - - - - - - - -
 72
65
 73
2
 40
0.2
 49
0.1
 74
0
 49
-0.1
 74
0
  0
ENDTAB
  0
TABLE
  2
LAYER
  5
2
100
AcDbSymbolTable
 70
36
  0
LAYER
  5
10
100
AcDbSymbolTableRecord
100
AcDbLayerTableRecord
  2
0
 70
0
 62
7
  6
CONTINUOUS
370
-3
390
F
  0
LAYER
  5
1FA
100
AcDbSymbolTableRecord
100
AcDbLayerTableRecord
  2
DEFAULT_1
 70
0
 62
7
  6
CENTER
370
-3
390
F
  0
LAYER
  5
1FB
100
AcDbSymbolTableRecord
100
AcDbLayerTableRecord
  2
DEFAULT_2
 70
0
 62
8
  6
HIDDEN
370
-3
390
F
  0
LAYER
  5
1FC
100
AcDbSymbolTableRecord
100
AcDbLayerTableRecord
  2
DEFAULT_3
 70
0
 62
7
  6
PHANTOM
370
-3
390
F
  0
LAYER
  5
1FD
100
AcDbSymbolTableRecord
100
AcDbLayerTableRecord
  2
ALL_FEATURES
 70
0
 62
7
  6
CONTINUOUS
370
-3
390
F
  0
LAYER
  5
1FE
100
AcDbSymbolTableRecord
100
AcDbLayerTableRecord
  2
AXES_FEATURES
 70
0
 62
7
  6
CONTINUOUS
370
-3
390
F
  0
LAYER
  5
1FF
100
AcDbSymbolTableRecord
100
AcDbLayerTableRecord
  2
DIMENSIONS
 70
0
 62
7
  6
CONTINUOUS
370
-3
390
F
  0
ENDTAB
  0
TABLE
  2
STYLE
  5
3
100
AcDbSymbolTable
 70
1
  0
STYLE
  5
11
100
AcDbSymbolTableRecord
100
AcDbTextStyleTableRecord
  2
STANDARD
 70
0
 40
0.0
 41
0.8
 50
0.0
 71
0
 42
0.2
  3
txt
  4

  0
STYLE
  5
200
100
AcDbSymbolTableRecord
100
AcDbTextStyleTableRecord
  2
TEXTSTYLE_1
 70
0
 40
0.0
 41
0.8
 50
0.0
 71
0
 42
0.2
  3
gdt
  4

  0
ENDTAB
  0
TABLE
  2
VIEW
  5
6
100
AcDbSymbolTable
 70
0
  0
ENDTAB
  0
TABLE
  2
UCS
  5
7
100
AcDbSymbolTable
 70
0
  0
ENDTAB
  0
TABLE
  2
APPID
  5
9
100
AcDbSymbolTable
 70
1
  0
APPID
  5
201
100
AcDbSymbolTableRecord
100
AcDbRegAppTableRecord
  2
ACAD
 70
0
  0
ENDTAB
  0
TABLE
  2
BLOCK_RECORD
  5
1
100
AcDbSymbolTable
 70
0
  0
BLOCK_RECORD
  5
202
100
AcDbSymbolTableRecord
100
AcDbBlockTableRecord
  2
*Model_Space
  0
BLOCK_RECORD
  5
203
100
AcDbSymbolTableRecord
100
AcDbBlockTableRecord
  2
*Paper_Space
  0
BLOCK_RECORD
  5
204
100
AcDbSymbolTableRecord
100
AcDbBlockTableRecord
  2
_FILLED
  0
ENDTAB
  0
TABLE
  2
DIMSTYLE
  5
A
100
AcDbSymbolTable
 70
1
100
AcDbDimStyleTable
 71
0
  0
DIMSTYLE
105
205
100
AcDbSymbolTableRecord
100
AcDbDimStyleTableRecord
  2
STANDARD
 70
0
  3

  4

 40
1.0
 41
0.1
 42
0.0625
 43
0.38
 44
0.125
 45
0.0
 46
0.0
 47
0.001
 48
0.001
140
0.08
141
0.09
142
0.0
143
25.4
144
1.0
145
0.0
146
1.0
147
0.09
 71
1.0
 72
0.0
 73
1
 74
1
 75
0
 76
0
 77
0
 78
4
 79
1
170
1
171
2
172
0
173
0
174
0
175
0
176
0
177
0
178
0
270
2
179
3
271
3
272
3
273
2
274
2
275
0
280
0
281
0
282
0
283
1
284
4
285
0
286
0
287
3
288
0
340
11
278
46
341
204
342
204
343
204
344
204
  0
ENDTAB
  0
ENDSEC
  0
SECTION
  2
BLOCKS
  0
BLOCK
  5
20
100
AcDbEntity
  8
0
100
AcDbBlockBegin
  2
*Model_Space
 70
0
 10
0.0
 20
0.0
 30
0.0
  3
*Model_Space
  1

  0
ENDBLK
  5
21
100
AcDbEntity
  8
0
100
AcDbBlockEnd
  0
BLOCK
  5
1C
100
AcDbEntity
  8
0
100
AcDbBlockBegin
  2
*Paper_Space
 70
0
 10
0.0
 20
0.0
 30
0.0
  3
*Paper_Space
  1

  0
ENDBLK
  5
1D
100
AcDbEntity
  8
0
100
AcDbBlockEnd
  0
BLOCK
  5
206
100
AcDbEntity
  8
0
100
AcDbBlockBegin
  2
_FILLED
 70
64
 10
0.0
 20
0.0
  3
_FILLED
  1

  0
SOLID
  5
207
100
AcDbEntity
  8
0
  6
BYBLOCK
 62
0
100
AcDbTrace
 10
0.0
 20
0.0
 11
-1.0
 21
0.2
 12
-1.0
 22
-0.2
 13
-1.0
 23
-0.2
  0
ENDBLK
  5
208
100
AcDbEntity
  8
0
  6
BYBLOCK
 62
0
100
AcDbBlockEnd
  0
ENDSEC
  0
SECTION
  2
ENTITIES
  0
LINE
  5
209
100
AcDbEntity
  8
0
100
AcDbLine
 62
7
  6
CONTINUOUS
 10
9.0770225001
 20
7.9866652465
 11
9.0770225001
 21
7.9966652465
  0
LINE
  5
20A
100
AcDbEntity
  8
0
100
AcDbLine
 62
7
  6
CONTINUOUS
 10
9.6100225001
 20
10.0676652465
 11
9.6100225001
 21
10.1636652465
  0
LINE
  5
20B
100
AcDbEntity
  8
0
100
AcDbLine
 62
7
  6
CONTINUOUS
 10
9.7085225001
 20
9.9686652465
 11
9.7085225001
 21
9.9776652465
  0
LINE
  5
20C
100
AcDbEntity
  8
0
100
AcDbLine
 62
7
  6
CONTINUOUS
 10
9.7085225001
 20
10.2536652465
 11
9.7085225001
 21
10.2626652465
  0
LINE
  5
20D
100
AcDbEntity
  8
0
100
AcDbLine
 62
9
  6
CONTINUOUS
 10
9.1699508657
 20
8.0287796029
 11
9.1023322798
 21
8.028723508
  0
LINE
  5
20E
100
AcDbEntity
  8
0
100
AcDbLine
 62
7
  6
CONTINUOUS
 10
9.0770225001
 20
7.9866652465
 11
11.1270225001
 21
7.9866652465
  0
LINE
  5
20F
100
AcDbEntity
  8
0
100
AcDbLine
 62
7
  6
CONTINUOUS
 10
9.023352973
 20
7.9966652465
 11
11.1806919594
 21
7.9966652465
  0
LINE
  5
210
100
AcDbEntity
  8
0
100
AcDbLine
 62
9
  6
CONTINUOUS
 10
10.9137979662
 20
8.0302544461
 11
9.2902508951
 21
8.0302592562
  0
LINE
  5
211
100
AcDbEntity
  8
0
100
AcDbLine
 62
9
  6
CONTINUOUS
 10
11.1017125286
 20
8.0287235803
 11
11.0340941264
 21
8.0287796354
  0
LINE
  5
212
100
AcDbEntity
  8
0
100
AcDbLine
 62
7
  6
CONTINUOUS
 10
9.7870225001
 20
9.9186652465
 11
9.7870225001
 21
9.7226652465
  0
LINE
  5
213
100
AcDbEntity
  8
0
100
AcDbLine
 62
7
  6
CONTINUOUS
 10
9.8490225001
 20
9.6116652465
 11
9.8490225001
 21
9.6426652465
  0
LINE
  5
214
100
AcDbEntity
  8
0
100
AcDbLine
 62
7
  6
CONTINUOUS
 10
9.459758731
 20
8.663564109
 11
9.4597461956
 21
8.6635398255
  0
LWPOLYLINE
  5
215
100
AcDbEntity
  8
0
100
AcDbPolyline
 62
7
  6
CONTINUOUS
 90
3
 70
0
 10
9.4597461956
 20
8.6635398255
 10
9.4264341819
 20
8.6012023984
 10
9.3957561962
 20
8.5476258113
  0
LINE
  5
216
100
AcDbEntity
  8
0
100
AcDbLine
 62
7
  6
CONTINUOUS
 10
9.3957561962
 20
8.5476258113
 11
9.3870417065
 21
8.5330530283
  0
LINE
  5
217
100
AcDbEntity
  8
0
100
AcDbLine
 62
7
  6
CONTINUOUS
 10
9.3945617473
 20
8.5455786508
 11
9.3161823636
 21
8.4211564728
  0
LINE
  5
218
100
AcDbEntity
  8
0
100
AcDbLine
 62
7
  6
CONTINUOUS
 10
9.4534759226
 20
8.4184755922
 11
9.4503454646
 21
8.4127676768
  0
LWPOLYLINE
  5
219
100
AcDbEntity
  8
0
100
AcDbPolyline
 62
7
  6
CONTINUOUS
 90
4
 70
0
 10
9.4503461291
 20
8.4127686671
 10
9.3704637511
 20
8.2755852609
 10
9.2810569825
 20
8.1384469867
 10
9.2017087574
 20
8.0287510638
  0
LINE
  5
21A
100
AcDbEntity
  8
0
100
AcDbLine
 62
7
  6
CONTINUOUS
 10
9.3161823636
 20
8.4211564728
 11
9.3161782342
 21
8.4211502528
  0
LWPOLYLINE
  5
21B
100
AcDbEntity
  8
0
100
AcDbPolyline
 62
7
  6
CONTINUOUS
 90
3
 70
0
 10
9.316178107
 20
8.4211504017
 10
9.2199587146
 20
8.2843364807
 10
9.1117856183
 20
8.1472872258
  0
LINE
  5
21C
100
AcDbEntity
  8
0
100
AcDbLine
 62
7
  6
CONTINUOUS
 10
9.2017087574
 20
8.0287510638
 11
9.2016950579
 21
8.0287326507
  0
LINE
  5
21D
100
AcDbEntity
  8
0
100
AcDbLine
 62
7
  6
CONTINUOUS
 10
9.1117856183
 20
8.1472872258
 11
9.0086933515
 21
8.0302703721
  0
LINE
  5
21E
100
AcDbEntity
  8
0
100
AcDbLine
 62
7
  6
CONTINUOUS
 10
11.1953618997
 20
8.0302590046
 11
11.1953513343
 21
8.0302705652
  0
LWPOLYLINE
  5
21F
100
AcDbEntity
  8
0
100
AcDbPolyline
 62
7
  6
CONTINUOUS
 90
4
 70
0
 10
11.1953513343
 20
8.0302705652
 10
11.0922344274
 20
8.1473169343
 10
10.9840670023
 20
8.2843624122
 10
10.8878668442
 20
8.4211503414
  0
LINE
  5
220
100
AcDbEntity
  8
0
100
AcDbLine
 62
7
  6
CONTINUOUS
 10
11.0023499587
 20
8.0287326228
 11
11.0023398196
 21
8.0287463415
  0
LWPOLYLINE
  5
221
100
AcDbEntity
  8
0
100
AcDbPolyline
 62
7
  6
CONTINUOUS
 90
4
 70
0
 10
11.0023398196
 20
8.0287463415
 10
10.9229899727
 20
8.1384441508
 10
10.8335805752
 20
8.2755863043
 10
10.7536988392
 20
8.4127686276
  0
LINE
  5
222
100
AcDbEntity
  8
0
100
AcDbLine
 62
9
  6
CONTINUOUS
 10
10.3401004236
 20
9.9686652465
 11
10.3401004236
 21
9.9776652465
  0
LINE
  5
223
100
AcDbEntity
  8
0
100
AcDbLine
 62
9
  6
CONTINUOUS
 10
10.3401004236
 20
10.2536652465
 11
10.3401004236
 21
10.2626652465
  0
LINE
  5
224
100
AcDbEntity
  8
0
100
AcDbLine
 62
7
  6
CONTINUOUS
 10
10.3550225001
 20
9.6116652465
 11
10.3550225001
 21
9.6426652465
  0
LINE
  5
225
100
AcDbEntity
  8
0
100
AcDbLine
 62
9
  6
CONTINUOUS
 10
10.4016542283
 20
10.1636652465
 11
10.4016542283
 21
10.0676652465
  0
LINE
  5
226
100
AcDbEntity
  8
0
100
AcDbLine
 62
7
  6
CONTINUOUS
 10
10.4170225001
 20
9.9186652465
 11
10.4170225001
 21
9.7226652465
  0
LINE
  5
227
100
AcDbEntity
  8
0
100
AcDbLine
 62
7
  6
CONTINUOUS
 10
9.0086933515
 20
8.0302703721
 11
9.0086830044
 21
8.0302590473
  0
LINE
  5
228
100
AcDbEntity
  8
0
100
AcDbLine
 62
7
  6
CONTINUOUS
 10
10.8878666248
 20
8.4211505943
 11
10.8878627852
 21
8.4211563778
  0
LINE
  5
229
100
AcDbEntity
  8
0
100
AcDbLine
 62
7
  6
CONTINUOUS
 10
10.8878627852
 20
8.4211563778
 11
10.8094641769
 21
8.5456106024
  0
LINE
  5
22A
100
AcDbEntity
  8
0
100
AcDbLine
 62
7
  6
CONTINUOUS
 10
10.8170155634
 20
8.5330326953
 11
10.8083754429
 21
8.5474795405
  0
LWPOLYLINE
  5
22B
100
AcDbEntity
  8
0
100
AcDbPolyline
 62
7
  6
CONTINUOUS
 90
3
 70
0
 10
10.8083754429
 20
8.5474795405
 10
10.7776643781
 20
8.6011057301
 10
10.7442862692
 20
8.663564109
  0
LINE
  5
22C
100
AcDbEntity
  8
0
100
AcDbLine
 62
7
  6
CONTINUOUS
 10
10.7536995356
 20
8.4127676768
 11
10.7506662067
 21
8.4182979851
  0
LINE
  5
22D
100
AcDbEntity
  8
0
100
AcDbLine
 62
7
  6
CONTINUOUS
 10
10.7442862692
 20
8.663564109
 11
10.7442988047
 21
8.6635398255
  0
LINE
  5
22E
100
AcDbEntity
  8
0
100
AcDbLine
 62
9
  6
CONTINUOUS
 10
10.896656463
 20
10.1636652465
 11
10.896656463
 21
10.0676652465
  0
LINE
  5
22F
100
AcDbEntity
  8
0
100
AcDbLine
 62
9
  6
CONTINUOUS
 10
10.922156233
 20
9.9686652465
 11
10.922156233
 21
9.9776652465
  0
LINE
  5
230
100
AcDbEntity
  8
0
100
AcDbLine
 62
9
  6
CONTINUOUS
 10
10.922156233
 20
10.2536652465
 11
10.922156233
 21
10.2626652465
  0
LINE
  5
231
100
AcDbEntity
  8
0
100
AcDbLine
 62
7
  6
CONTINUOUS
 10
11.1270225001
 20
7.9866652465
 11
11.1270225001
 21
7.9966652465
  0
LINE
  5
232
100
AcDbEntity
  8
0
100
AcDbLine
 62
7
  6
CONTINUOUS
 10
10.4560225001
 20
9.6116652465
 11
9.7480225001
 21
9.6116652465
  0
LINE
  5
233
100
AcDbEntity
  8
0
100
AcDbLine
 62
7
  6
CONTINUOUS
 10
9.7675225102
 20
9.6426652465
 11
10.4364377703
 21
9.6426652465
  0
LINE
  5
234
100
AcDbEntity
  8
0
100
AcDbLine
 62
7
  6
CONTINUOUS
 10
10.436522484
 20
9.7226652465
 11
9.7675225162
 21
9.7226652465
  0
LINE
  5
235
100
AcDbEntity
  8
0
100
AcDbLine
 62
9
  6
CONTINUOUS
 10
11.5080225001
 20
10.2866516951
 11
11.5080225001
 21
10.2764908327
  0
LINE
  5
236
100
AcDbEntity
  8
0
100
AcDbLine
 62
9
  6
CONTINUOUS
 10
11.5080225001
 20
9.9548459476
 11
11.5080225001
 21
9.9446787979
  0
LINE
  5
237
100
AcDbEntity
  8
0
100
AcDbLine
 62
9
  6
CONTINUOUS
 10
12.8487508132
 20
9.8459167666
 11
12.8487116328
 21
9.8459167666
  0
LINE
  5
238
100
AcDbEntity
  8
0
100
AcDbLine
 62
9
  6
CONTINUOUS
 10
12.7996290561
 20
10.3768503092
 11
12.8487113748
 21
10.3854136802
  0
LINE
  5
239
100
AcDbEntity
  8
0
100
AcDbLine
 62
9
  6
CONTINUOUS
 10
12.786076023
 20
10.3747402757
 11
12.7010868116
 21
10.3598946638
  0
LINE
  5
23A
100
AcDbEntity
  8
0
100
AcDbLine
 62
7
  6
CONTINUOUS
 10
9.7585225001
 20
9.9186652465
 11
10.9731738053
 21
9.9186652465
  0
LINE
  5
23B
100
AcDbEntity
  8
0
100
AcDbLine
 62
9
  6
CONTINUOUS
 10
9.7085225001
 20
9.9686652465
 11
10.976551586
 21
9.9686652465
  0
LINE
  5
23C
100
AcDbEntity
  8
0
100
AcDbLine
 62
9
  6
CONTINUOUS
 10
10.9615416456
 20
9.9776652465
 11
9.7085225001
 21
9.9776652465
  0
LINE
  5
23D
100
AcDbEntity
  8
0
100
AcDbLine
 62
7
  6
CONTINUOUS
 10
9.6600461475
 20
10.0176652465
 11
10.9643825435
 21
10.0176652465
  0
LINE
  5
23E
100
AcDbEntity
  8
0
100
AcDbLine
 62
9
  6
CONTINUOUS
 10
10.9615416456
 20
9.9776652465
 11
11.0379059662
 21
9.9771991432
  0
LINE
  5
23F
100
AcDbEntity
  8
0
100
AcDbLine
 62
7
  6
CONTINUOUS
 10
11.0408406216
 20
10.017196542
 11
11.0449656792
 21
10.0171447271
  0
LINE
  5
240
100
AcDbEntity
  8
0
100
AcDbLine
 62
9
  6
CONTINUOUS
 10
11.7470225001
 20
10.2134713332
 11
11.7470225001
 21
10.0178580159
  0
LINE
  5
241
100
AcDbEntity
  8
0
100
AcDbLine
 62
7
  6
CONTINUOUS
 10
11.0449658437
 20
10.2141857623
 11
11.041009372
 21
10.2141365424
  0
LINE
  5
242
100
AcDbEntity
  8
0
100
AcDbLine
 62
9
  6
CONTINUOUS
 10
9.6100225001
 20
10.0676652465
 11
10.9686768225
 21
10.0676622749
  0
LINE
  5
243
100
AcDbEntity
  8
0
100
AcDbLine
 62
9
  6
CONTINUOUS
 10
10.9686773807
 20
10.163684949
 11
9.6100225001
 21
10.1636652465
  0
LINE
  5
244
100
AcDbEntity
  8
0
100
AcDbLine
 62
7
  6
CONTINUOUS
 10
10.9639417625
 20
10.2136652465
 11
9.660046043
 21
10.2136652465
  0
LINE
  5
245
100
AcDbEntity
  8
0
100
AcDbLine
 62
9
  6
CONTINUOUS
 10
12.7996293766
 20
9.854480128
 11
12.8487118391
 21
9.8459167307
  0
LINE
  5
246
100
AcDbEntity
  8
0
100
AcDbLine
 62
9
  6
CONTINUOUS
 10
12.7860732703
 20
9.8565906289
 11
12.7010868124
 21
9.8714358291
  0
LINE
  5
247
100
AcDbEntity
  8
0
100
AcDbLine
 62
9
  6
CONTINUOUS
 10
11.0377175833
 20
10.2541294294
 11
10.9615416456
 21
10.2536652465
  0
LINE
  5
248
100
AcDbEntity
  8
0
100
AcDbLine
 62
9
  6
CONTINUOUS
 10
9.7085225001
 20
10.2536652465
 11
10.9615416456
 21
10.2536652465
  0
LINE
  5
249
100
AcDbEntity
  8
0
100
AcDbLine
 62
9
  6
CONTINUOUS
 10
10.9765552039
 20
10.2626652465
 11
9.7085225001
 21
10.2626652465
  0
LINE
  5
24A
100
AcDbEntity
  8
0
100
AcDbLine
 62
7
  6
CONTINUOUS
 10
10.9731738053
 20
10.3126652465
 11
9.7585461265
 21
10.3126652465
  0
LINE
  5
24B
100
AcDbEntity
  8
0
100
AcDbLine
 62
9
  6
CONTINUOUS
 10
12.8487116328
 20
10.3854137264
 11
12.8487508132
 21
10.3854137264
  0
ARC
  5
24C
100
AcDbEntity
  8
0
100
AcDbCircle
 62
9
  6
CONTINUOUS
 10
6.9566769934
 20
9.8920211993
 40
2.9852512575
100
AcDbArc
 50
321.4165844182
 51
330.4762531752
  0
ARC
  5
24D
100
AcDbEntity
  8
0
100
AcDbCircle
 62
9
  6
CONTINUOUS
 10
7.0146501713
 20
10.0487331715
 40
2.9049587004
100
AcDbArc
 50
315.943967214
 51
325.7191666224
  0
ARC
  5
24E
100
AcDbEntity
  8
0
100
AcDbCircle
 62
7
  6
CONTINUOUS
 10
6.9419901237
 20
9.7500866757
 40
2.8407571347
100
AcDbArc
 50
322.7037956004
 51
324.2967014024
  0
ARC
  5
24F
100
AcDbEntity
  8
0
100
AcDbCircle
 62
7
  6
CONTINUOUS
 10
7.0121362223
 20
9.9255509173
 40
2.7538247003
100
AcDbArc
 50
332.7245042321
 51
353.4551103697
  0
ARC
  5
250
100
AcDbEntity
  8
0
100
AcDbCircle
 62
9
  6
CONTINUOUS
 10
7.2693307935
 20
9.9193364895
 40
2.6006408046
100
AcDbArc
 50
348.7784616239
 51
353.2056537651
  0
ARC
  5
251
100
AcDbEntity
  8
0
100
AcDbCircle
 62
7
  6
CONTINUOUS
 10
9.6600225001
 20
10.0676652465
 40
0.05
100
AcDbArc
 50
180.0
 51
270.0
  0
ARC
  5
252
100
AcDbEntity
  8
0
100
AcDbCircle
 62
7
  6
CONTINUOUS
 10
9.7585225001
 20
9.9686652465
 40
0.05
100
AcDbArc
 50
180.0
 51
270.0
  0
ARC
  5
253
100
AcDbEntity
  8
0
100
AcDbCircle
 62
7
  6
CONTINUOUS
 10
9.7675225001
 20
9.6826652465
 40
0.04
100
AcDbArc
 50
89.9999769356
 51
270.0000144821
  0
ARC
  5
254
100
AcDbEntity
  8
0
100
AcDbCircle
 62
7
  6
CONTINUOUS
 10
9.6685225001
 20
9.9776652465
 40
0.04
100
AcDbArc
 50
0.0
 51
89.9999688464
  0
ARC
  5
255
100
AcDbEntity
  8
0
100
AcDbCircle
 62
9
  6
CONTINUOUS
 10
9.4777293607
 20
8.3974280317
 40
0.0314032793
100
AcDbArc
 50
139.469142732
 51
140.2975666052
  0
ARC
  5
256
100
AcDbEntity
  8
0
100
AcDbCircle
 62
9
  6
CONTINUOUS
 10
9.4775672918
 20
8.3975626629
 40
0.0311925855
100
AcDbArc
 50
140.2976618664
 51
141.0664995533
  0
ARC
  5
257
100
AcDbEntity
  8
0
100
AcDbCircle
 62
9
  6
CONTINUOUS
 10
9.4767881688
 20
8.3981730371
 40
0.030202958
100
AcDbArc
 50
141.0383863925
 51
151.1022613318
  0
ARC
  5
258
100
AcDbEntity
  8
0
100
AcDbCircle
 62
9
  6
CONTINUOUS
 10
6.7520099844
 20
10.1236742257
 40
3.0778995126
100
AcDbArc
 50
329.1552891608
 51
331.6628143302
  0
ARC
  5
259
100
AcDbEntity
  8
0
100
AcDbCircle
 62
7
  6
CONTINUOUS
 10
9.7585225001
 20
10.2626652465
 40
0.05
100
AcDbArc
 50
90.0
 51
180.0
  0
ARC
  5
25A
100
AcDbEntity
  8
0
100
AcDbCircle
 62
7
  6
CONTINUOUS
 10
9.6600225001
 20
10.1636652465
 40
0.05
100
AcDbArc
 50
90.0
 51
180.0
  0
ARC
  5
25B
100
AcDbEntity
  8
0
100
AcDbCircle
 62
7
  6
CONTINUOUS
 10
9.6685225001
 20
10.2536652465
 40
0.04
100
AcDbArc
 50
270.0000311552
 51
360.0
  0
ARC
  5
25C
100
AcDbEntity
  8
0
100
AcDbCircle
 62
9
  6
CONTINUOUS
 10
10.9574889301
 20
3.3314460148
 40
6.646236431
100
AcDbArc
 50
85.248529197
 51
89.3067253641
  0
ARC
  5
25D
100
AcDbEntity
  8
0
100
AcDbCircle
 62
7
  6
CONTINUOUS
 10
10.9651810092
 20
3.6750499516
 40
6.3425960692
100
AcDbArc
 50
85.0593026649
 51
89.2812368689
  0
ARC
  5
25E
100
AcDbEntity
  8
0
100
AcDbCircle
 62
7
  6
CONTINUOUS
 10
10.9639998222
 20
3.7178494541
 40
6.2998157893
100
AcDbArc
 50
89.2995961837
 51
90.0005280433
  0
ARC
  5
25F
100
AcDbEntity
  8
0
100
AcDbCircle
 62
7
  6
CONTINUOUS
 10
10.9644856498
 20
3.7996137935
 40
6.2180514188
100
AcDbArc
 50
89.2948883913
 51
90.0009167631
  0
ARC
  5
260
100
AcDbEntity
  8
0
100
AcDbCircle
 62
9
  6
CONTINUOUS
 10
10.9698881982
 20
3.9986922211
 40
6.0692204734
100
AcDbArc
 50
74.0225346293
 51
82.6432411787
  0
ARC
  5
261
100
AcDbEntity
  8
0
100
AcDbCircle
 62
9
  6
CONTINUOUS
 10
10.9734366449
 20
4.0290474875
 40
6.0386166633
100
AcDbArc
 50
82.6398139575
 51
90.045162291
  0
ARC
  5
262
100
AcDbEntity
  8
0
100
AcDbCircle
 62
9
  6
CONTINUOUS
 10
10.9751736598
 20
4.0036941813
 40
6.0147170005
100
AcDbArc
 50
74.0602323811
 51
82.6897741104
  0
ARC
  5
263
100
AcDbEntity
  8
0
100
AcDbCircle
 62
9
  6
CONTINUOUS
 10
10.9771020044
 20
3.9999037544
 40
5.9792355112
100
AcDbArc
 50
74.0888618186
 51
82.7136199683
  0
ARC
  5
264
100
AcDbEntity
  8
0
100
AcDbCircle
 62
9
  6
CONTINUOUS
 10
10.9722127698
 20
3.9916889254
 40
5.9770956049
100
AcDbArc
 50
84.8568484262
 51
89.9584076191
  0
ARC
  5
265
100
AcDbEntity
  8
0
100
AcDbCircle
 62
9
  6
CONTINUOUS
 10
10.9725834571
 20
4.0066136351
 40
5.9621905135
100
AcDbArc
 50
74.0168913406
 51
84.8475381076
  0
ARC
  5
266
100
AcDbEntity
  8
0
100
AcDbCircle
 62
7
  6
CONTINUOUS
 10
10.9732183497
 20
3.9986036956
 40
5.9200615502
100
AcDbArc
 50
84.8622606796
 51
90.0004325503
  0
ARC
  5
267
100
AcDbEntity
  8
0
100
AcDbCircle
 62
7
  6
CONTINUOUS
 10
10.9730564105
 20
4.0085115246
 40
5.9102081169
100
AcDbArc
 50
74.0178744798
 51
84.8520956937
  0
ARC
  5
268
100
AcDbEntity
  8
0
100
AcDbCircle
 62
9
  6
CONTINUOUS
 10
11.0272330762
 20
4.3962775746
 40
5.6187068446
100
AcDbArc
 50
82.7069395101
 51
85.0563053957
  0
ARC
  5
269
100
AcDbEntity
  8
0
100
AcDbCircle
 62
9
  6
CONTINUOUS
 10
11.0681673836
 20
4.6954849639
 40
5.277722092
100
AcDbArc
 50
82.7365291589
 51
85.2193185502
  0
ARC
  5
26A
100
AcDbEntity
  8
0
100
AcDbCircle
 62
9
  6
CONTINUOUS
 10
13.2473749418
 20
9.8920266019
 40
2.98525988
100
AcDbArc
 50
209.5237723447
 51
218.5835327975
  0
ARC
  5
26B
100
AcDbEntity
  8
0
100
AcDbCircle
 62
9
  6
CONTINUOUS
 10
13.1856673489
 20
10.0455861687
 40
2.9000906202
100
AcDbArc
 50
214.2709388668
 51
224.0625549457
  0
ARC
  5
26C
100
AcDbEntity
  8
0
100
AcDbCircle
 62
7
  6
CONTINUOUS
 10
13.2740483666
 20
9.7589177049
 40
2.8556491441
100
AcDbArc
 50
215.7067381888
 51
217.29124485
  0
ARC
  5
26D
100
AcDbEntity
  8
0
100
AcDbCircle
 62
7
  6
CONTINUOUS
 10
13.1919087783
 20
9.9255509155
 40
2.7538247003
100
AcDbArc
 50
186.5448895926
 51
207.2754957322
  0
ARC
  5
26E
100
AcDbEntity
  8
0
100
AcDbCircle
 62
9
  6
CONTINUOUS
 10
12.9478513325
 20
9.9214174557
 40
2.6139327959
100
AcDbArc
 50
186.8055638478
 51
191.210240429
  0
ARC
  5
26F
100
AcDbEntity
  8
0
100
AcDbCircle
 62
7
  6
CONTINUOUS
 10
12.6546768097
 20
9.8800726148
 40
0.1974163645
100
AcDbArc
 50
254.0291649593
 51
269.9829320409
  0
ARC
  5
270
100
AcDbEntity
  8
0
100
AcDbCircle
 62
7
  6
CONTINUOUS
 10
12.654661621
 20
9.8796567352
 40
0.197
100
AcDbArc
 50
270.0
 51
350.138397614
  0
ARC
  5
271
100
AcDbEntity
  8
0
100
AcDbCircle
 62
9
  6
CONTINUOUS
 10
12.6547942981
 20
9.8796655089
 40
0.1470084974
100
AcDbArc
 50
254.0116643655
 51
350.1344213027
  0
ARC
  5
272
100
AcDbEntity
  8
0
100
AcDbCircle
 62
9
  6
CONTINUOUS
 10
12.6532679001
 20
9.8796942613
 40
0.1348022611
100
AcDbArc
 50
254.0775501355
 51
350.1239195138
  0
ARC
  5
273
100
AcDbEntity
  8
0
100
AcDbCircle
 62
9
  6
CONTINUOUS
 10
12.6533961973
 20
9.8796964839
 40
0.0962391231
100
AcDbArc
 50
254.0665010143
 51
350.123521362
  0
ARC
  5
274
100
AcDbEntity
  8
0
100
AcDbCircle
 62
9
  6
CONTINUOUS
 10
12.6537655677
 20
9.8796929189
 40
0.048037132
100
AcDbArc
 50
253.9875967033
 51
350.0882000211
  0
ARC
  5
275
100
AcDbEntity
  8
0
100
AcDbCircle
 62
7
  6
CONTINUOUS
 10
10.4365225001
 20
9.6826652465
 40
0.04
100
AcDbArc
 50
269.9999855179
 51
90.0000230644
  0
ARC
  5
276
100
AcDbEntity
  8
0
100
AcDbCircle
 62
7
  6
CONTINUOUS
 10
11.179849442
 20
8.0169319089
 40
0.0201910781
100
AcDbArc
 50
272.3728289516
 51
293.9903944935
  0
ARC
  5
277
100
AcDbEntity
  8
0
100
AcDbCircle
 62
7
  6
CONTINUOUS
 10
11.1798943257
 20
8.0161234821
 40
0.019381399
100
AcDbArc
 50
269.9847002187
 51
272.2425905488
  0
ARC
  5
278
100
AcDbEntity
  8
0
100
AcDbCircle
 62
9
  6
CONTINUOUS
 10
10.9600458313
 20
16.846083994
 40
6.5924163934
100
AcDbArc
 50
270.6750741197
 51
274.7680587841
  0
ARC
  5
279
100
AcDbEntity
  8
0
100
AcDbCircle
 62
7
  6
CONTINUOUS
 10
10.965145271
 20
16.5573605882
 40
6.3436764922
100
AcDbArc
 50
270.7188338285
 51
274.9401790125
  0
ARC
  5
27A
100
AcDbEntity
  8
0
100
AcDbCircle
 62
7
  6
CONTINUOUS
 10
10.9641236073
 20
16.493216217
 40
6.2795509719
100
AcDbArc
 50
269.9983408151
 51
270.7015346309
  0
ARC
  5
27B
100
AcDbEntity
  8
0
100
AcDbCircle
 62
7
  6
CONTINUOUS
 10
10.9644133745
 20
16.4434582646
 40
6.2297929831
100
AcDbArc
 50
269.9997496846
 51
270.7044472981
  0
ARC
  5
27C
100
AcDbEntity
  8
0
100
AcDbCircle
 62
9
  6
CONTINUOUS
 10
10.9698872181
 20
16.2326429116
 40
6.0692240714
100
AcDbArc
 50
277.3567610065
 51
285.9775286829
  0
ARC
  5
27D
100
AcDbEntity
  8
0
100
AcDbCircle
 62
9
  6
CONTINUOUS
 10
10.9729934969
 20
16.2064945826
 40
6.0428136738
100
AcDbArc
 50
269.9590761221
 51
277.35927852
  0
ARC
  5
27E
100
AcDbEntity
  8
0
100
AcDbCircle
 62
9
  6
CONTINUOUS
 10
10.9753649445
 20
16.2267072114
 40
6.0137693592
100
AcDbArc
 50
277.3095446717
 51
285.9404426069
  0
ARC
  5
27F
100
AcDbEntity
  8
0
100
AcDbCircle
 62
9
  6
CONTINUOUS
 10
10.9712698994
 20
16.2604665572
 40
5.9979244003
100
AcDbArc
 50
270.0504893954
 51
275.1342888444
  0
ARC
  5
280
100
AcDbEntity
  8
0
100
AcDbCircle
 62
9
  6
CONTINUOUS
 10
10.9774272058
 20
16.2299230269
 40
5.9776988645
100
AcDbArc
 50
277.2852277462
 51
285.9119551665
  0
ARC
  5
281
100
AcDbEntity
  8
0
100
AcDbCircle
 62
9
  6
CONTINUOUS
 10
10.9725834498
 20
16.2247169044
 40
5.9621905604
100
AcDbArc
 50
275.1524619218
 51
285.9831085468
  0
ARC
  5
282
100
AcDbEntity
  8
0
100
AcDbCircle
 62
7
  6
CONTINUOUS
 10
10.9735412717
 20
16.2255275531
 40
5.9128623169
100
AcDbArc
 50
269.9964403942
 51
275.1408700126
  0
ARC
  5
283
100
AcDbEntity
  8
0
100
AcDbCircle
 62
7
  6
CONTINUOUS
 10
10.9730563965
 20
16.222819042
 40
5.9102081907
100
AcDbArc
 50
275.1479044025
 51
285.9821254779
  0
ARC
  5
284
100
AcDbEntity
  8
0
100
AcDbCircle
 62
9
  6
CONTINUOUS
 10
11.0342593157
 20
15.769561245
 40
5.5528439176
100
AcDbArc
 50
274.9297011317
 51
277.3069327565
  0
ARC
  5
285
100
AcDbEntity
  8
0
100
AcDbCircle
 62
9
  6
CONTINUOUS
 10
11.073755565
 20
15.4834028839
 40
5.2249900363
100
AcDbArc
 50
274.7675494597
 51
277.2755193426
  0
ARC
  5
286
100
AcDbEntity
  8
0
100
AcDbCircle
 62
9
  6
CONTINUOUS
 10
13.5567833909
 20
10.251792686
 40
3.2677719871
100
AcDbArc
 50
191.296838515
 51
194.8690444155
  0
ARC
  5
287
100
AcDbEntity
  8
0
100
AcDbCircle
 62
9
  6
CONTINUOUS
 10
13.4509187161
 20
10.1230499808
 40
3.0766209886
100
AcDbArc
 50
208.3223064267
 51
210.8450578372
  0
ARC
  5
288
100
AcDbEntity
  8
0
100
AcDbCircle
 62
7
  6
CONTINUOUS
 10
11.2970225001
 20
10.1156652465
 40
1.575
100
AcDbArc
 50
350.138397614
 51
9.861602386
  0
ARC
  5
289
100
AcDbEntity
  8
0
100
AcDbCircle
 62
9
  6
CONTINUOUS
 10
11.2970805211
 20
10.1156652465
 40
1.5749034871
100
AcDbArc
 50
350.1377919673
 51
9.8622080328
  0
ARC
  5
28A
100
AcDbEntity
  8
0
100
AcDbCircle
 62
9
  6
CONTINUOUS
 10
11.297231544
 20
10.1156652416
 40
1.5249307351
100
AcDbArc
 50
350.1378478278
 51
9.8621514355
  0
ARC
  5
28B
100
AcDbEntity
  8
0
100
AcDbCircle
 62
9
  6
CONTINUOUS
 10
11.2978377734
 20
10.1156651503
 40
1.5105797758
100
AcDbArc
 50
350.1241618771
 51
9.8757770302
  0
ARC
  5
28C
100
AcDbEntity
  8
0
100
AcDbCircle
 62
9
  6
CONTINUOUS
 10
11.2959350707
 20
10.1156651505
 40
1.4740556357
100
AcDbArc
 50
350.1377673323
 51
9.8622586229
  0
ARC
  5
28D
100
AcDbEntity
  8
0
100
AcDbCircle
 62
9
  6
CONTINUOUS
 10
11.2971550993
 20
10.1156652491
 40
1.4250165726
100
AcDbArc
 50
350.1310551784
 51
9.8689452477
  0
ARC
  5
28E
100
AcDbEntity
  8
0
100
AcDbCircle
 62
7
  6
CONTINUOUS
 10
12.6546768172
 20
10.3512578895
 40
0.1974163532
100
AcDbArc
 50
90.0170708693
 51
105.9708354384
  0
ARC
  5
28F
100
AcDbEntity
  8
0
100
AcDbCircle
 62
7
  6
CONTINUOUS
 10
12.654661621
 20
10.3516737578
 40
0.197
100
AcDbArc
 50
9.861602386
 51
90.0
  0
ARC
  5
290
100
AcDbEntity
  8
0
100
AcDbCircle
 62
9
  6
CONTINUOUS
 10
12.6547942871
 20
10.351664971
 40
0.1470085038
100
AcDbArc
 50
9.8655715359
 51
105.9883324081
  0
ARC
  5
291
100
AcDbEntity
  8
0
100
AcDbCircle
 62
9
  6
CONTINUOUS
 10
12.6532665859
 20
10.3516350504
 40
0.1348039074
100
AcDbArc
 50
9.8757141142
 51
105.9278349305
  0
ARC
  5
292
100
AcDbEntity
  8
0
100
AcDbCircle
 62
9
  6
CONTINUOUS
 10
12.6533959654
 20
10.3516341542
 40
0.0962391247
100
AcDbArc
 50
9.8766545892
 51
105.9336163845
  0
ARC
  5
293
100
AcDbEntity
  8
0
100
AcDbCircle
 62
9
  6
CONTINUOUS
 10
12.6537670973
 20
10.3516391653
 40
0.0480351351
100
AcDbArc
 50
9.9102633052
 51
106.0062825852
  0
SPLINE
  5
294
100
AcDbEntity
  8
0
100
AcDbSpline
 62
7
  6
CONTINUOUS
 70
0
 71
3
 72
22
 73
18
 74
0
 42
0.0000001
 43
0.0000001
 44
0.0000000001
 40
0.0
 40
0.0
 40
0.0
 40
0.0
 40
0.1010742026
 40
0.1567146668
 40
0.2157757127
 40
0.2784697767
 40
0.3439682192
 40
0.4113004523
 40
0.4798506074
 40
0.5494125854
 40
0.6194137889
 40
0.6888235231
 40
0.7564757742
 40
0.8215400223
 40
0.8840335435
 40
0.9437295901
 40
1.0
 40
1.0
 40
1.0
 40
1.0
 10
10.9864007502
 20
7.9966652465
 30
0.0
 10
10.9878935757
 20
7.9966652469
 30
0.0
 10
10.9902192292
 20
7.9969196261
 30
0.0
 10
10.9932840332
 20
7.9978163875
 30
0.0
 10
10.9956876139
 20
7.9988812212
 30
0.0
 10
10.9980422318
 20
8.0003483771
 30
0.0
 10
11.0002735675
 20
8.0021955133
 30
0.0
 10
11.0022853463
 20
8.0044001962
 30
0.0
 10
11.0039745619
 20
8.0069373317
 30
0.0
 10
11.0052278756
 20
8.0097589503
 30
0.0
 10
11.0060452523
 20
8.0127463306
 30
0.0
 10
11.006425683
 20
8.0157910732
 30
0.0
 10
11.0063658479
 20
8.0187875367
 30
0.0
 10
11.0058520317
 20
8.0216363415
 30
0.0
 10
11.0049669352
 20
8.0242660305
 30
0.0
 10
11.003798023
 20
8.026636198
 30
0.0
 10
11.0028514176
 20
8.0280698549
 30
0.0
 10
11.0023499637
 20
8.0287326195
 30
0.0
  0
SPLINE
  5
295
100
AcDbEntity
  8
0
100
AcDbSpline
 62
7
  6
CONTINUOUS
 70
0
 71
3
 72
13
 73
9
 74
0
 42
0.0000001
 43
0.0000001
 44
0.0000000001
 40
0.0
 40
0.0
 40
0.0
 40
0.0
 40
0.2499996896
 40
0.3749997368
 40
0.4999997839
 40
0.6249998311
 40
0.7499998783
 40
1.0
 40
1.0
 40
1.0
 40
1.0
 10
11.1806921903
 20
7.9965893248
 30
0.0
 10
11.1837465584
 20
7.9965986187
 30
0.0
 10
11.1891382838
 20
7.9977129978
 30
0.0
 10
11.1956931529
 20
8.0029194927
 30
0.0
 10
11.1992907616
 20
8.008470797
 30
0.0
 10
11.2008836268
 20
8.0148929934
 30
0.0
 10
11.2002098984
 20
8.0232408951
 30
0.0
 10
11.1973518045
 20
8.0279441569
 30
0.0
 10
11.1952815229
 20
8.0301847824
 30
0.0
  0
SPLINE
  5
296
100
AcDbEntity
  8
0
100
AcDbSpline
 62
7
  6
CONTINUOUS
 70
0
 71
3
 72
22
 73
18
 74
0
 42
0.0000001
 43
0.0000001
 44
0.0000000001
 40
0.0
 40
0.0
 40
0.0
 40
0.0
 40
0.1010850927
 40
0.1567307558
 40
0.2157964884
 40
0.2784946046
 40
0.3439963888
 40
0.4113310281
 40
0.4798822896
 40
0.5494437839
 40
0.6194431951
 40
0.6888501091
 40
0.756498588
 40
0.8215580379
 40
0.8840459251
 40
0.9437358481
 40
1.0
 40
1.0
 40
1.0
 40
1.0
 10
9.2176442482
 20
7.9966652465
 30
0.0
 10
9.2161512607
 20
7.9966652469
 30
0.0
 10
9.2138253652
 20
7.996919687
 30
0.0
 10
9.210760289
 20
7.9978166238
 30
0.0
 10
9.208356559
 20
7.9988816396
 30
0.0
 10
9.2060018671
 20
8.0003490219
 30
0.0
 10
9.2037705332
 20
8.0021963921
 30
0.0
 10
9.2017588279
 20
8.0044012827
 30
0.0
 10
9.2000697508
 20
8.0069385672
 30
0.0
 10
9.1988166321
 20
8.0097602563
 30
0.0
 10
9.1979994802
 20
8.0127476222
 30
0.0
 10
9.1976192662
 20
8.0157922681
 30
0.0
 10
9.1976792714
 20
8.0187885595
 30
0.0
 10
9.198193175
 20
8.0216371347
 30
0.0
 10
9.1990782824
 20
8.0242665621
 30
0.0
 10
9.2002471343
 20
8.0266364628
 30
0.0
 10
9.2011936552
 20
8.0280699555
 30
0.0
 10
9.2016950548
 20
8.0287326461
 30
0.0
  0
SPLINE
  5
297
100
AcDbEntity
  8
0
100
AcDbSpline
 62
7
  6
CONTINUOUS
 70
0
 71
3
 72
13
 73
9
 74
0
 42
0.0000001
 43
0.0000001
 44
0.0000000001
 40
0.0
 40
0.0
 40
0.0
 40
0.0
 40
0.2425267734
 40
0.372166229
 40
0.5018056847
 40
0.6314451404
 40
0.7610845961
 40
1.0
 40
1.0
 40
1.0
 40
1.0
 10
9.0091003019
 20
8.0298924089
 30
0.0
 10
9.0071876114
 20
8.0276887382
 30
0.0
 10
9.0045501802
 20
8.0231232517
 30
0.0
 10
9.0038984679
 20
8.0150446324
 30
0.0
 10
9.0054912437
 20
8.0086224064
 30
0.0
 10
9.0090885686
 20
8.0030713214
 30
0.0
 10
9.0153856089
 20
7.9980697451
 30
0.0
 10
9.020471245
 20
7.9968756105
 30
0.0
 10
9.0233596105
 20
7.9967581431
 30
0.0
  0
LINE
  5
298
100
AcDbEntity
  8
0
100
AcDbLine
 62
9
  6
CONTINUOUS
 10
12.6143068498
 20
9.7383422893
 11
12.600358101
 21
9.6902761411
  0
LINE
  5
299
100
AcDbEntity
  8
0
100
AcDbLine
 62
9
  6
CONTINUOUS
 10
11.5080133422
 20
10.2765948294
 11
11.5114346669
 21
10.2372506719
  0
SPLINE
  5
29A
100
AcDbEntity
  8
0
100
AcDbSpline
 62
9
  6
CONTINUOUS
 70
0
 71
3
 72
22
 73
18
 74
0
 42
0.0000001
 43
0.0000001
 44
0.0000000001
 40
0.0
 40
0.0
 40
0.0
 40
0.0
 40
0.0075307739
 40
0.0136485636
 40
0.0217302707
 40
0.0319374173
 40
0.0443878076
 40
0.0591794819
 40
0.0764004506
 40
0.1182619905
 40
0.1696346449
 40
0.2299535946
 40
0.298641306
 40
0.4575067759
 40
0.6351380678
 40
0.8194922862
 40
1.0
 40
1.0
 40
1.0
 40
1.0
 10
10.9643825432
 20
10.2136652492
 30
0.0
 10
10.9642812695
 20
10.2136652492
 30
0.0
 10
10.9641218254
 20
10.213811712
 30
0.0
 10
10.9639808357
 20
10.2140582453
 30
0.0
 10
10.9638491488
 20
10.2143628491
 30
0.0
 10
10.9637199991
 20
10.2147546963
 30
0.0
 10
10.9635887674
 20
10.2152415129
 30
0.0
 10
10.9634579062
 20
10.2158249596
 30
0.0
 10
10.9632717162
 20
10.2168010048
 30
0.0
 10
10.963050825
 20
10.2182703379
 30
0.0
 10
10.9628062362
 20
10.2203209603
 30
0.0
 10
10.9625738761
 20
10.2227357261
 30
0.0
 10
10.9622725912
 20
10.2265954465
 30
0.0
 10
10.96197244
 20
10.2320367131
 30
0.0
 10
10.9617184411
 20
10.2390367868
 30
0.0
 10
10.9615736033
 20
10.2463310756
 30
0.0
 10
10.9615416459
 20
10.2512377807
 30
0.0
 10
10.9615416459
 20
10.2536652465
 30
0.0
  0
SPLINE
  5
29B
100
AcDbEntity
  8
0
100
AcDbSpline
 62
9
  6
CONTINUOUS
 70
0
 71
3
 72
21
 73
17
 74
0
 42
0.0000001
 43
0.0000001
 44
0.0000000001
 40
0.0
 40
0.0
 40
0.0
 40
0.0
 40
0.1810308211
 40
0.3659251963
 40
0.5440342446
 40
0.7032275069
 40
0.8323237728
 40
0.88364365
 40
0.9253784148
 40
0.9425043252
 40
0.9571776449
 40
0.9694836841
 40
0.9795158451
 40
0.987383861
 40
0.9932351077
 40
1.0
 40
1.0
 40
1.0
 40
1.0
 10
11.038049582
 20
10.2541330507
 30
0.0
 10
11.0380794062
 20
10.2517013877
 30
0.0
 10
11.0381674685
 20
10.2467864644
 30
0.0
 10
11.0383831893
 20
10.2394812745
 30
0.0
 10
11.0386896709
 20
10.2324728283
 30
0.0
 10
11.0390675435
 20
10.2262186773
 30
0.0
 10
11.0394526532
 20
10.2216719242
 30
0.0
 10
11.0397963934
 20
10.2187073527
 30
0.0
 10
11.0400063284
 20
10.2172419029
 30
0.0
 10
11.0401801157
 20
10.2162693207
 30
0.0
 10
11.0403007973
 20
10.2156893455
 30
0.0
 10
11.0404207034
 20
10.2152061142
 30
0.0
 10
11.0405371021
 20
10.2148187562
 30
0.0
 10
11.0406554977
 20
10.2145175043
 30
0.0
 10
11.0407761828
 20
10.2142826486
 30
0.0
 10
11.0409183343
 20
10.2141326772
 30
0.0
 10
11.0410091401
 20
10.2141362235
 30
0.0
  0
SPLINE
  5
29C
100
AcDbEntity
  8
0
100
AcDbSpline
 62
9
  6
CONTINUOUS
 70
0
 71
3
 72
14
 73
10
 74
0
 42
0.0000001
 43
0.0000001
 44
0.0000000001
 40
0.0
 40
0.0
 40
0.0
 40
0.0
 40
0.0487533069
 40
0.1105345932
 40
0.1926276874
 40
0.2987863358
 40
0.4312155111
 40
0.591452384
 40
1.0
 40
1.0
 40
1.0
 40
1.0
 10
10.9731738054
 20
9.9186652456
 30
0.0
 10
10.9732184269
 20
9.9186652462
 30
0.0
 10
10.9733197671
 20
9.9186972815
 30
0.0
 10
10.9734520794
 20
9.9188179195
 30
0.0
 10
10.9735828118
 20
9.919006939
 30
0.0
 10
10.9737141258
 20
9.9192701739
 30
0.0
 10
10.9738467265
 20
9.9196105983
 30
0.0
 10
10.9740406523
 20
9.9202227066
 30
0.0
 10
10.9741608849
 20
9.9207299269
 30
0.0
 10
10.9742390658
 20
9.9210955862
 30
0.0
  0
SPLINE
  5
29D
100
AcDbEntity
  8
0
100
AcDbSpline
 62
9
  6
CONTINUOUS
 70
0
 71
3
 72
15
 73
11
 74
0
 42
0.0000001
 43
0.0000001
 44
0.0000000001
 40
0.0
 40
0.0
 40
0.0
 40
0.0
 40
0.0287257679
 40
0.0639886837
 40
0.1531574835
 40
0.2652208668
 40
0.3969678997
 40
0.542493059
 40
0.6953452921
 40
1.0
 40
1.0
 40
1.0
 40
1.0
 10
10.9742390658
 20
9.9210955862
 30
0.0
 10
10.9743345119
 20
9.9215419964
 30
0.0
 10
10.974517876
 20
9.9225426383
 30
0.0
 10
10.9748712503
 20
9.9249510373
 30
0.0
 10
10.9752727959
 20
9.9286890099
 30
0.0
 10
10.9756850471
 20
9.933964878
 30
0.0
 10
10.9760299239
 20
9.9401428654
 30
0.0
 10
10.9763048524
 20
9.9469729291
 30
0.0
 10
10.9765610227
 20
9.9565528858
 30
0.0
 10
10.9766317789
 20
9.9638237816
 30
0.0
 10
10.9766317787
 20
9.9686652465
 30
0.0
  0
LINE
  5
29E
100
AcDbEntity
  8
0
100
AcDbLine
 62
9
  6
CONTINUOUS
 10
11.5080226086
 20
9.9446800027
 11
11.5033619058
 21
9.8948801959
  0
SPLINE
  5
29F
100
AcDbEntity
  8
0
100
AcDbSpline
 62
9
  6
CONTINUOUS
 70
0
 71
3
 72
22
 73
18
 74
0
 42
0.0000001
 43
0.0000001
 44
0.0000000001
 40
0.0
 40
0.0
 40
0.0
 40
0.0
 40
0.180507713
 40
0.3648619308
 40
0.5424932226
 40
0.7013586927
 40
0.7700464042
 40
0.8303653542
 40
0.8817380089
 40
0.923599549
 40
0.9408205178
 40
0.9556121922
 40
0.9680625826
 40
0.9782697292
 40
0.9863514363
 40
0.9924692261
 40
1.0
 40
1.0
 40
1.0
 40
1.0
 10
10.961541646
 20
9.9776652465
 30
0.0
 10
10.9615416459
 20
9.9800927122
 30
0.0
 10
10.9615736034
 20
9.9849994174
 30
0.0
 10
10.9617184411
 20
9.9922937061
 30
0.0
 10
10.9619724401
 20
9.9992937799
 30
0.0
 10
10.9622725913
 20
10.0047350465
 30
0.0
 10
10.9625738762
 20
10.0085947669
 30
0.0
 10
10.9628062363
 20
10.0110095327
 30
0.0
 10
10.9630508251
 20
10.0130601551
 30
0.0
 10
10.9632717162
 20
10.0145294882
 30
0.0
 10
10.9634579062
 20
10.0155055334
 30
0.0
 10
10.9635887675
 20
10.0160889801
 30
0.0
 10
10.9637199991
 20
10.0165757967
 30
0.0
 10
10.9638491488
 20
10.0169676439
 30
0.0
 10
10.9639808358
 20
10.0172722477
 30
0.0
 10
10.9641218255
 20
10.017518781
 30
0.0
 10
10.9642812696
 20
10.0176652439
 30
0.0
 10
10.9643825433
 20
10.0176652439
 30
0.0
  0
SPLINE
  5
2A0
100
AcDbEntity
  8
0
100
AcDbSpline
 62
9
  6
CONTINUOUS
 70
0
 71
3
 72
22
 73
18
 74
0
 42
0.0000001
 43
0.0000001
 44
0.0000000001
 40
0.0
 40
0.0
 40
0.0
 40
0.0
 40
0.1930722755
 40
0.3791326115
 40
0.5504797405
 40
0.7008175945
 40
0.7663421392
 40
0.824554559
 40
0.8749081554
 40
0.9170056653
 40
0.9348459958
 40
0.9504930578
 40
0.9639285103
 40
0.9751636372
 40
0.9842340493
 40
0.9912270197
 40
1.0
 40
1.0
 40
1.0
 40
1.0
 10
10.922156233
 20
9.9776652465
 30
0.0
 10
10.922156233
 20
9.9802643285
 30
0.0
 10
10.9221939645
 20
9.9853681779
 30
0.0
 10
10.9223605371
 20
9.9927770181
 30
0.0
 10
10.9226312404
 20
9.9996071153
 30
0.0
 10
10.9229452534
 20
10.0048107647
 30
0.0
 10
10.9232495681
 20
10.0084878521
 30
0.0
 10
10.923484846
 20
10.0108197434
 30
0.0
 10
10.9237355176
 20
10.0128325809
 30
0.0
 10
10.9239647912
 20
10.0142999078
 30
0.0
 10
10.9241594453
 20
10.0152987971
 30
0.0
 10
10.9242993682
 20
10.0159147623
 30
0.0
 10
10.9244416468
 20
10.0164391618
 30
0.0
 10
10.9245835844
 20
10.0168696686
 30
0.0
 10
10.9247303014
 20
10.0172110543
 30
0.0
 10
10.9248900699
 20
10.0174936523
 30
0.0
 10
10.9250735275
 20
10.0176652465
 30
0.0
 10
10.9251916268
 20
10.0176652465
 30
0.0
  0
SPLINE
  5
2A1
100
AcDbEntity
  8
0
100
AcDbSpline
 62
9
  6
CONTINUOUS
 70
0
 71
3
 72
18
 73
14
 74
0
 42
0.0000001
 43
0.0000001
 44
0.0000000001
 40
0.0
 40
0.0
 40
0.0
 40
0.0
 40
0.1527234795
 40
0.3020507787
 40
0.4441358308
 40
0.5764335338
 40
0.6972791548
 40
0.7533278261
 40
0.8066123514
 40
0.8574390982
 40
0.906247813
 40
0.9535665632
 40
1.0
 40
1.0
 40
1.0
 40
1.0
 10
10.3401004236
 20
9.9776652465
 30
0.0
 10
10.3401004236
 20
9.9802688848
 30
0.0
 10
10.340406019
 20
9.985423506
 30
0.0
 10
10.3417558097
 20
9.9928924933
 30
0.0
 10
10.3439574762
 20
9.999796878
 30
0.0
 10
10.3469284652
 20
10.0058728371
 30
0.0
 10
10.3500352446
 20
10.0101758497
 30
0.0
 10
10.3528205997
 20
10.012950677
 30
0.0
 10
10.3549716224
 20
10.0146436874
 30
0.0
 10
10.3572184744
 20
10.015981685
 30
0.0
 10
10.3595403893
 20
10.0169468937
 30
0.0
 10
10.3619087404
 20
10.0175325271
 30
0.0
 10
10.3635098783
 20
10.0176652462
 30
0.0
 10
10.3643014781
 20
10.0176652465
 30
0.0
  0
SPLINE
  5
2A2
100
AcDbEntity
  8
0
100
AcDbSpline
 62
9
  6
CONTINUOUS
 70
0
 71
3
 72
22
 73
18
 74
0
 42
0.0000001
 43
0.0000001
 44
0.0000000001
 40
0.0
 40
0.0
 40
0.0
 40
0.0
 40
0.1930722944
 40
0.379132647
 40
0.5504797879
 40
0.7008176474
 40
0.766342192
 40
0.8245546095
 40
0.8749082014
 40
0.9170057047
 40
0.9348460311
 40
0.9504930884
 40
0.9639285356
 40
0.975163657
 40
0.9842340632
 40
0.9912270278
 40
1.0
 40
1.0
 40
1.0
 40
1.0
 10
10.922156233
 20
9.9686652465
 30
0.0
 10
10.922156233
 20
9.9654163936
 30
0.0
 10
10.9221090686
 20
9.9590365812
 30
0.0
 10
10.9219008529
 20
9.9497755301
 30
0.0
 10
10.9215624737
 20
9.9412379078
 30
0.0
 10
10.9211699573
 20
9.9347333457
 30
0.0
 10
10.9207895639
 20
9.9301369864
 30
0.0
 10
10.9204954665
 20
9.9272221224
 30
0.0
 10
10.9201821269
 20
9.9247060757
 30
0.0
 10
10.9198955349
 20
9.9228719172
 30
0.0
 10
10.9196522172
 20
9.9216233059
 30
0.0
 10
10.9194773136
 20
9.9208533497
 30
0.0
 10
10.9192994653
 20
9.9201978505
 30
0.0
 10
10.9191220433
 20
9.9196597174
 30
0.0
 10
10.918938647
 20
9.9192329855
 30
0.0
 10
10.9187389364
 20
9.9188797384
 30
0.0
 10
10.9185096141
 20
9.9186652461
 30
0.0
 10
10.9183619901
 20
9.9186652465
 30
0.0
  0
SPLINE
  5
2A3
100
AcDbEntity
  8
0
100
AcDbSpline
 62
9
  6
CONTINUOUS
 70
0
 71
3
 72
23
 73
19
 74
0
 42
0.0000001
 43
0.0000001
 44
0.0000000001
 40
0.0
 40
0.0
 40
0.0
 40
0.0
 40
0.0041341157
 40
0.0100734583
 40
0.0178267049
 40
0.0273586481
 40
0.0515745766
 40
0.0828103993
 40
0.1217225293
 40
0.1689098719
 40
0.2245218376
 40
0.2882175664
 40
0.3595844371
 40
0.4379001899
 40
0.6118422267
 40
0.7054371345
 40
0.8020032897
 40
1.0
 40
1.0
 40
1.0
 40
1.0
 10
11.0023398033
 20
8.028746353
 30
0.0
 10
11.0022656207
 20
8.0288440898
 30
0.0
 10
11.002034222
 20
8.0290407637
 30
0.0
 10
11.0015819238
 20
8.0293150218
 30
0.0
 10
11.0009561408
 20
8.0296077366
 30
0.0
 10
10.9998017228
 20
8.0300394844
 30
0.0
 10
10.9979281157
 20
8.0305191917
 30
0.0
 10
10.9951602711
 20
8.0309585158
 30
0.0
 10
10.991695712
 20
8.0313217563
 30
0.0
 10
10.987500173
 20
8.0316243128
 30
0.0
 10
10.9825642988
 20
8.031869382
 30
0.0
 10
10.9769071235
 20
8.0320353136
 30
0.0
 10
10.9705741043
 20
8.0321039901
 30
0.0
 10
10.9609687131
 20
8.0320684117
 30
0.0
 10
10.9507052814
 20
8.0318523223
 30
0.0
 10
10.9399042666
 20
8.0315033439
 30
0.0
 10
10.9283924837
 20
8.031052069
 30
0.0
 10
10.9196603713
 20
8.0306115393
 30
0.0
 10
10.9137943856
 20
8.0302590654
 30
0.0
  0
SPLINE
  5
2A4
100
AcDbEntity
  8
0
100
AcDbSpline
 62
9
  6
CONTINUOUS
 70
0
 71
3
 72
14
 73
10
 74
0
 42
0.0000001
 43
0.0000001
 44
0.0000000001
 40
0.0
 40
0.0
 40
0.0
 40
0.0
 40
0.2415873231
 40
0.3647471649
 40
0.4894224917
 40
0.6155283191
 40
0.7428694439
 40
0.8711988928
 40
1.0
 40
1.0
 40
1.0
 40
1.0
 10
10.7506660812
 20
8.4182983171
 30
0.0
 10
10.7095590938
 20
8.4934555486
 30
0.0
 10
10.6520540543
 20
8.6094911023
 30
0.0
 10
10.5836549021
 20
8.7690114513
 30
0.0
 10
10.5357040126
 20
8.8926643681
 30
0.0
 10
10.491435397
 20
9.0192488875
 30
0.0
 10
10.4509980381
 20
9.1484686846
 30
0.0
 10
10.4145942451
 20
9.2798731346
 30
0.0
 10
10.3934403154
 20
9.3685901054
 30
0.0
 10
10.3837937316
 20
9.4132312965
 30
0.0
  0
SPLINE
  5
2A5
100
AcDbEntity
  8
0
100
AcDbSpline
 62
9
  6
CONTINUOUS
 70
0
 71
3
 72
11
 73
7
 74
0
 42
0.0000001
 43
0.0000001
 44
0.0000000001
 40
0.0
 40
0.0
 40
0.0
 40
0.0
 40
0.1404171173
 40
0.3468186951
 40
0.6308846093
 40
1.0
 40
1.0
 40
1.0
 40
1.0
 10
11.1953513386
 20
8.0302705596
 30
0.0
 10
11.1952056813
 20
8.030427375
 30
0.0
 10
11.194736837
 20
8.0307027769
 30
0.0
 10
11.1938224016
 20
8.0309970686
 30
0.0
 10
11.1925353833
 20
8.0312590511
 30
0.0
 10
11.1915488829
 20
8.031392888
 30
0.0
 10
11.190990152
 20
8.0314588531
 30
0.0
  0
SPLINE
  5
2A6
100
AcDbEntity
  8
0
100
AcDbSpline
 62
9
  6
CONTINUOUS
 70
0
 71
3
 72
15
 73
11
 74
0
 42
0.0000001
 43
0.0000001
 44
0.0000000001
 40
0.0
 40
0.0
 40
0.0
 40
0.0
 40
0.0274344765
 40
0.0610165299
 40
0.1464415764
 40
0.2546349466
 40
0.3823236132
 40
0.5249213776
 40
0.67789478
 40
1.0
 40
1.0
 40
1.0
 40
1.0
 10
11.190990152
 20
8.0314588531
 30
0.0
 10
11.1901783757
 20
8.0315546933
 30
0.0
 10
11.1883674088
 20
8.0317209369
 30
0.0
 10
11.1840114647
 20
8.031980835
 30
0.0
 10
11.1772413216
 20
8.0321217118
 30
0.0
 10
11.167667728
 20
8.0320513341
 30
0.0
 10
11.1563941813
 20
8.0317546887
 30
0.0
 10
11.1437929916
 20
8.0312476777
 30
0.0
 10
11.1254131304
 20
8.0303064001
 30
0.0
 10
11.1112852955
 20
8.0294164022
 30
0.0
 10
11.1017125129
 20
8.0287326268
 30
0.0
  0
SPLINE
  5
2A7
100
AcDbEntity
  8
0
100
AcDbSpline
 62
9
  6
CONTINUOUS
 70
0
 71
3
 72
9
 73
5
 74
0
 42
0.0000001
 43
0.0000001
 44
0.0000000001
 40
0.0
 40
0.0
 40
0.0
 40
0.0
 40
0.2461852449
 40
1.0
 40
1.0
 40
1.0
 40
1.0
 10
10.7536989095
 20
8.4127687102
 30
0.0
 10
10.7534722217
 20
8.4131806352
 30
0.0
 10
10.7525113054
 20
8.414831539
 30
0.0
 10
10.7513901768
 20
8.4163886759
 30
0.0
 10
10.750470174
 20
8.417496053
 30
0.0
  0
SPLINE
  5
2A8
100
AcDbEntity
  8
0
100
AcDbSpline
 62
9
  6
CONTINUOUS
 70
0
 71
3
 72
21
 73
17
 74
0
 42
0.0000001
 43
0.0000001
 44
0.0000000001
 40
0.0
 40
0.0
 40
0.0
 40
0.0
 40
0.0417165775
 40
0.0855851135
 40
0.1321420558
 40
0.1818668251
 40
0.2349758262
 40
0.2915521436
 40
0.3516154385
 40
0.4151291111
 40
0.4818508166
 40
0.5513748792
 40
0.6969084892
 40
0.7719746868
 40
0.8478809738
 40
1.0
 40
1.0
 40
1.0
 40
1.0
 10
10.750470174
 20
8.417496053
 30
0.0
 10
10.749524829
 20
8.4186339339
 30
0.0
 10
10.7474167913
 20
8.4208329816
 30
0.0
 10
10.7437395277
 20
8.4237580226
 30
0.0
 10
10.7394755818
 20
8.4263366541
 30
0.0
 10
10.7346376937
 20
8.4285224298
 30
0.0
 10
10.7292624684
 20
8.430301779
 30
0.0
 10
10.7233883003
 20
8.4316525818
 30
0.0
 10
10.7170563784
 20
8.4325532146
 30
0.0
 10
10.7103151905
 20
8.4329767734
 30
0.0
 10
10.7032264228
 20
8.4329305657
 30
0.0
 10
10.6932521981
 20
8.4322538989
 30
0.0
 10
10.683060657
 20
8.4306902026
 30
0.0
 10
10.6728072195
 20
8.4283502981
 30
0.0
 10
10.6624417303
 20
8.4254975091
 30
0.0
 10
10.6547813428
 20
8.4228744852
 30
0.0
 10
10.6497471795
 20
8.4209362496
 30
0.0
  0
LINE
  5
2A9
100
AcDbEntity
  8
0
100
AcDbLine
 62
9
  6
CONTINUOUS
 10
12.6143069732
 20
10.4929877732
 11
12.6003580967
 21
10.5410543477
  0
LINE
  5
2AA
100
AcDbEntity
  8
0
100
AcDbLine
 62
9
  6
CONTINUOUS
 10
11.508025529
 20
10.2866180454
 11
11.5033619141
 21
10.3364503044
  0
SPLINE
  5
2AB
100
AcDbEntity
  8
0
100
AcDbSpline
 62
9
  6
CONTINUOUS
 70
0
 71
3
 72
22
 73
18
 74
0
 42
0.0000001
 43
0.0000001
 44
0.0000000001
 40
0.0
 40
0.0
 40
0.0
 40
0.0
 40
0.1763652732
 40
0.3565944983
 40
0.5309232852
 40
0.6124310972
 40
0.6882534914
 40
0.757031004
 40
0.8179656189
 40
0.8705235771
 40
0.9141812914
 40
0.9484909904
 40
0.973667501
 40
0.9830495147
 40
0.9904377214
 40
0.9959937418
 40
1.0
 40
1.0
 40
1.0
 40
1.0
 10
10.9766317787
 20
10.2626652465
 30
0.0
 10
10.9766317789
 20
10.2656215424
 30
0.0
 10
10.9765948455
 20
10.2715989659
 30
0.0
 10
10.976427202
 20
10.2804971626
 30
0.0
 10
10.9761776129
 20
10.2878027873
 30
0.0
 10
10.9759099954
 20
10.2933558042
 30
0.0
 10
10.9756866201
 20
10.2971394091
 30
0.0
 10
10.975436859
 20
10.3005757049
 30
0.0
 10
10.9751656257
 20
10.303619104
 30
0.0
 10
10.9748787886
 20
10.3062378073
 30
0.0
 10
10.9745830864
 20
10.3084061838
 30
0.0
 10
10.9742811193
 20
10.3101087819
 30
0.0
 10
10.9740105124
 20
10.3112330438
 30
0.0
 10
10.9737826124
 20
10.3118986697
 30
0.0
 10
10.9736297913
 20
10.3122414095
 30
0.0
 10
10.9734797479
 20
10.3124833137
 30
0.0
 10
10.9733613584
 20
10.3125977816
 30
0.0
 10
10.9733024359
 20
10.3126299971
 30
0.0
  0
SPLINE
  5
2AC
100
AcDbEntity
  8
0
100
AcDbSpline
 62
9
  6
CONTINUOUS
 70
0
 71
3
 72
22
 73
18
 74
0
 42
0.0000001
 43
0.0000001
 44
0.0000000001
 40
0.0
 40
0.0
 40
0.0
 40
0.0
 40
0.193072253
 40
0.3791325695
 40
0.5504796842
 40
0.7008175317
 40
0.7663420765
 40
0.8245544991
 40
0.8749081006
 40
0.9170056184
 40
0.9348459539
 40
0.9504930216
 40
0.9639284802
 40
0.9751636137
 40
0.9842340328
 40
0.9912270102
 40
1.0
 40
1.0
 40
1.0
 40
1.0
 10
10.922156233
 20
10.2536652465
 30
0.0
 10
10.922156233
 20
10.2510661648
 30
0.0
 10
10.9221939645
 20
10.245962316
 30
0.0
 10
10.9223605371
 20
10.2385534768
 30
0.0
 10
10.9226312403
 20
10.2317233801
 30
0.0
 10
10.9229452533
 20
10.2265197311
 30
0.0
 10
10.9232495678
 20
10.2228426438
 30
0.0
 10
10.9234848456
 20
10.2205107524
 30
0.0
 10
10.9237355173
 20
10.2184979147
 30
0.0
 10
10.9239647908
 20
10.2170305876
 30
0.0
 10
10.9241594448
 20
10.216031698
 30
0.0
 10
10.9242993677
 20
10.2154157326
 30
0.0
 10
10.9244416463
 20
10.2148913329
 30
0.0
 10
10.9245835838
 20
10.2144608258
 30
0.0
 10
10.9247303008
 20
10.2141194398
 30
0.0
 10
10.9248900693
 20
10.2138368414
 30
0.0
 10
10.9250735268
 20
10.2136652468
 30
0.0
 10
10.9251916262
 20
10.2136652465
 30
0.0
  0
SPLINE
  5
2AD
100
AcDbEntity
  8
0
100
AcDbSpline
 62
9
  6
CONTINUOUS
 70
0
 71
3
 72
18
 73
14
 74
0
 42
0.0000001
 43
0.0000001
 44
0.0000000001
 40
0.0
 40
0.0
 40
0.0
 40
0.0
 40
0.1527234925
 40
0.3020508017
 40
0.4441358587
 40
0.5764335601
 40
0.697279173
 40
0.7533278388
 40
0.8066123582
 40
0.8574391
 40
0.9062478116
 40
0.953566561
 40
1.0
 40
1.0
 40
1.0
 40
1.0
 10
10.3401004235
 20
9.9686652465
 30
0.0
 10
10.3401004235
 20
9.9654106974
 30
0.0
 10
10.3397184291
 20
9.9589674188
 30
0.0
 10
10.3380311895
 20
9.9496311819
 30
0.0
 10
10.3352791046
 20
9.9410006987
 30
0.0
 10
10.331565366
 20
9.9334057487
 30
0.0
 10
10.3276818894
 20
9.9280269828
 30
0.0
 10
10.3242001935
 20
9.9245584495
 30
0.0
 10
10.3215114137
 20
9.9224421875
 30
0.0
 10
10.3187028472
 20
9.9207696918
 30
0.0
 10
10.3158004521
 20
9.9195631828
 30
0.0
 10
10.3128400119
 20
9.9188311431
 30
0.0
 10
10.3108385889
 20
9.9186652459
 30
0.0
 10
10.3098490889
 20
9.9186652465
 30
0.0
  0
SPLINE
  5
2AE
100
AcDbEntity
  8
0
100
AcDbSpline
 62
9
  6
CONTINUOUS
 70
0
 71
3
 72
21
 73
17
 74
0
 42
0.0000001
 43
0.0000001
 44
0.0000000001
 40
0.0
 40
0.0
 40
0.0
 40
0.0
 40
0.0358652069
 40
0.073585327
 40
0.1140678015
 40
0.1581938906
 40
0.2067037006
 40
0.2599169299
 40
0.3179346161
 40
0.3807551135
 40
0.4482376941
 40
0.5198978771
 40
0.5951118727
 40
0.6732055851
 40
0.8351797654
 40
1.0
 40
1.0
 40
1.0
 40
1.0
 10
10.8878627571
 20
8.4211563591
 30
0.0
 10
10.8871622543
 20
8.4222105622
 30
0.0
 10
10.8855154732
 20
8.4242411743
 30
0.0
 10
10.8824392592
 20
8.4268686006
 30
0.0
 10
10.878711578
 20
8.42908443
 30
0.0
 10
10.8743349771
 20
8.4308375875
 30
0.0
 10
10.8693270003
 20
8.4320835149
 30
0.0
 10
10.8637274053
 20
8.4328175486
 30
0.0
 10
10.857580062
 20
8.43302329
 30
0.0
 10
10.85093566
 20
8.4326831114
 30
0.0
 10
10.8438593256
 20
8.4317842554
 30
0.0
 10
10.8364257626
 20
8.4303579272
 30
0.0
 10
10.828719756
 20
8.4284319409
 30
0.0
 10
10.8180699412
 20
8.4251957294
 30
0.0
 10
10.8047052067
 20
8.4200893435
 30
0.0
 10
10.7942583144
 20
8.4151794158
 30
0.0
 10
10.7890810384
 20
8.4125280853
 30
0.0
  0
SPLINE
  5
2AF
100
AcDbEntity
  8
0
100
AcDbSpline
 62
9
  6
CONTINUOUS
 70
0
 71
3
 72
18
 73
14
 74
0
 42
0.0000001
 43
0.0000001
 44
0.0000000001
 40
0.0
 40
0.0
 40
0.0
 40
0.0
 40
0.1527234715
 40
0.3020507646
 40
0.4441358137
 40
0.5764335176
 40
0.6972791436
 40
0.7533278184
 40
0.8066123472
 40
0.8574390971
 40
0.9062478139
 40
0.9535665646
 40
1.0
 40
1.0
 40
1.0
 40
1.0
 10
10.3401004236
 20
10.2536652465
 30
0.0
 10
10.3401004236
 20
10.2510616087
 30
0.0
 10
10.3404060188
 20
10.2459069885
 30
0.0
 10
10.3417558091
 20
10.2384380027
 30
0.0
 10
10.3439574746
 20
10.2315336191
 30
0.0
 10
10.3469284625
 20
10.2254576606
 30
0.0
 10
10.3500352407
 20
10.221154648
 30
0.0
 10
10.3528205949
 20
10.2183798203
 30
0.0
 10
10.3549716168
 20
10.2166868094
 30
0.0
 10
10.3572184682
 20
10.2153488112
 30
0.0
 10
10.3595403824
 20
10.2143836016
 30
0.0
 10
10.3619087328
 20
10.2137979671
 30
0.0
 10
10.3635098703
 20
10.2136652472
 30
0.0
 10
10.36430147
 20
10.2136652465
 30
0.0
  0
LINE
  5
2B0
100
AcDbEntity
  8
0
100
AcDbLine
 62
9
  6
CONTINUOUS
 10
10.9138193484
 20
7.9966652465
 11
10.913794767
 21
8.0302590785
  0
SPLINE
  5
2B1
100
AcDbEntity
  8
0
100
AcDbSpline
 62
9
  6
CONTINUOUS
 70
0
 71
3
 72
9
 73
5
 74
0
 42
0.0000001
 43
0.0000001
 44
0.0000000001
 40
0.0
 40
0.0
 40
0.0
 40
0.0
 40
0.5066760781
 40
1.0
 40
1.0
 40
1.0
 40
1.0
 10
9.4149703369
 20
8.4125254958
 30
0.0
 10
9.3781322778
 20
8.3449719771
 30
0.0
 10
9.3010705039
 20
8.2139648199
 30
0.0
 10
9.2148544896
 20
8.0887518407
 30
0.0
 10
9.1699621735
 20
8.0287745824
 30
0.0
  0
LINE
  5
2B2
100
AcDbEntity
  8
0
100
AcDbLine
 62
9
  6
CONTINUOUS
 10
9.1023019793
 20
7.9966652465
 11
9.1023322943
 21
8.0287326183
  0
SPLINE
  5
2B3
100
AcDbEntity
  8
0
100
AcDbSpline
 62
9
  6
CONTINUOUS
 70
0
 71
3
 72
22
 73
18
 74
0
 42
0.0000001
 43
0.0000001
 44
0.0000000001
 40
0.0
 40
0.0
 40
0.0
 40
0.0
 40
0.1930722755
 40
0.3791326115
 40
0.5504797405
 40
0.7008175945
 40
0.7663421392
 40
0.824554559
 40
0.8749081554
 40
0.9170056653
 40
0.9348459958
 40
0.9504930578
 40
0.9639285103
 40
0.9751636372
 40
0.9842340493
 40
0.9912270197
 40
1.0
 40
1.0
 40
1.0
 40
1.0
 10
10.922156233
 20
10.2626652465
 30
0.0
 10
10.922156233
 20
10.265914099
 30
0.0
 10
10.9221090686
 20
10.2722939108
 30
0.0
 10
10.9219008529
 20
10.2815549609
 30
0.0
 10
10.9215624738
 20
10.2900925825
 30
0.0
 10
10.9211699575
 20
10.2965971443
 30
0.0
 10
10.9207895642
 20
10.3011935035
 30
0.0
 10
10.9204954669
 20
10.3041083676
 30
0.0
 10
10.9201821272
 20
10.3066244145
 30
0.0
 10
10.9198955353
 20
10.3084585732
 30
0.0
 10
10.9196522177
 20
10.3097071848
 30
0.0
 10
10.9194773141
 20
10.3104771412
 30
0.0
 10
10.9192994658
 20
10.3111326406
 30
0.0
 10
10.9191220438
 20
10.3116707741
 30
0.0
 10
10.9189386476
 20
10.3120975063
 30
0.0
 10
10.918738937
 20
10.3124507538
 30
0.0
 10
10.9185096149
 20
10.3126652465
 30
0.0
 10
10.9183619908
 20
10.3126652465
 30
0.0
  0
SPLINE
  5
2B4
100
AcDbEntity
  8
0
100
AcDbSpline
 62
9
  6
CONTINUOUS
 70
0
 71
3
 72
18
 73
14
 74
0
 42
0.0000001
 43
0.0000001
 44
0.0000000001
 40
0.0
 40
0.0
 40
0.0
 40
0.0
 40
0.1527234887
 40
0.3020507949
 40
0.4441358504
 40
0.5764335524
 40
0.6972791676
 40
0.753327835
 40
0.8066123562
 40
0.8574390995
 40
0.906247812
 40
0.9535665617
 40
1.0
 40
1.0
 40
1.0
 40
1.0
 10
10.3401004236
 20
10.2626652465
 30
0.0
 10
10.3401004236
 20
10.2659197952
 30
0.0
 10
10.3397184292
 20
10.2723630732
 30
0.0
 10
10.3380311899
 20
10.2816993093
 30
0.0
 10
10.3352791056
 20
10.2903297918
 30
0.0
 10
10.3315653677
 20
10.2979247415
 30
0.0
 10
10.3276818918
 20
10.3033035073
 30
0.0
 10
10.3242001965
 20
10.3067720409
 30
0.0
 10
10.3215114171
 20
10.3088883032
 30
0.0
 10
10.318702851
 20
10.3105607992
 30
0.0
 10
10.3158004564
 20
10.3117673088
 30
0.0
 10
10.3128400166
 20
10.3124993491
 30
0.0
 10
10.3108385938
 20
10.3126652468
 30
0.0
 10
10.3098490938
 20
10.3126652465
 30
0.0
  0
SPLINE
  5
2B5
100
AcDbEntity
  8
0
100
AcDbSpline
 62
9
  6
CONTINUOUS
 70
0
 71
3
 72
18
 73
14
 74
0
 42
0.0000001
 43
0.0000001
 44
0.0000000001
 40
0.0
 40
0.0
 40
0.0
 40
0.0
 40
0.0466389308
 40
0.0941515887
 40
0.1431318509
 40
0.1940995276
 40
0.2474896905
 40
0.3036068505
 40
0.4244788258
 40
0.5566714754
 40
0.69854715
 40
0.847593243
 40
1.0
 40
1.0
 40
1.0
 40
1.0
 10
10.3712038447
 20
10.2136652465
 30
0.0
 10
10.3721998125
 20
10.2136652467
 30
0.0
 10
10.3742139421
 20
10.2134994146
 30
0.0
 10
10.3771934987
 20
10.212767583
 30
0.0
 10
10.3801147826
 20
10.2115613324
 30
0.0
 10
10.3829418099
 20
10.2098890558
 30
0.0
 10
10.3856483753
 20
10.2077729255
 30
0.0
 10
10.389151965
 20
10.2043057069
 30
0.0
 10
10.3930609696
 20
10.1989282922
 30
0.0
 10
10.3968001223
 20
10.1913325549
 30
0.0
 10
10.399570955
 20
10.1827011521
 30
0.0
 10
10.4012696377
 20
10.173363993
 30
0.0
 10
10.4016542283
 20
10.1669198715
 30
0.0
 10
10.4016542283
 20
10.1636652465
 30
0.0
  0
SPLINE
  5
2B6
100
AcDbEntity
  8
0
100
AcDbSpline
 62
9
  6
CONTINUOUS
 70
0
 71
3
 72
24
 73
20
 74
0
 42
0.0000001
 43
0.0000001
 44
0.0000000001
 40
0.0
 40
0.0
 40
0.0
 40
0.0
 40
0.0055960737
 40
0.0121142176
 40
0.0201422662
 40
0.0299885627
 40
0.0418094356
 40
0.055685687
 40
0.0716581584
 40
0.089729371
 40
0.1320589705
 40
0.1824022226
 40
0.2404076921
 40
0.3055616196
 40
0.3772306748
 40
0.454767815
 40
0.624580991
 40
0.8088466957
 40
1.0
 40
1.0
 40
1.0
 40
1.0
 10
10.8909561951
 20
10.2136652465
 30
0.0
 10
10.8910513097
 20
10.2136652466
 30
0.0
 10
10.8912584553
 20
10.2136158596
 30
0.0
 10
10.89154322
 20
10.2134171815
 30
0.0
 10
10.8918197542
 20
10.2131051344
 30
0.0
 10
10.8920925446
 20
10.2126788848
 30
0.0
 10
10.8923628044
 20
10.2121377251
 30
0.0
 10
10.8926301213
 20
10.2114813198
 30
0.0
 10
10.8928936457
 20
10.2107102926
 30
0.0
 10
10.8932585427
 20
10.2094642081
 30
0.0
 10
10.8936894457
 20
10.2076306692
 30
0.0
 10
10.894160677
 20
10.205112835
 30
0.0
 10
10.894602782
 20
10.2021967044
 30
0.0
 10
10.8950116959
 20
10.1989103202
 30
0.0
 10
10.8953834217
 20
10.1952856795
 30
0.0
 10
10.89583702
 20
10.1898821798
 30
0.0
 10
10.8962724577
 20
10.1825579341
 30
0.0
 10
10.8965856466
 20
10.1732953335
 30
0.0
 10
10.896656463
 20
10.1669142138
 30
0.0
 10
10.896656463
 20
10.1636652465
 30
0.0
  0
SPLINE
  5
2B7
100
AcDbEntity
  8
0
100
AcDbSpline
 62
9
  6
CONTINUOUS
 70
0
 71
3
 72
15
 73
11
 74
0
 42
0.0000001
 43
0.0000001
 44
0.0000000001
 40
0.0
 40
0.0
 40
0.0
 40
0.0
 40
0.1223612852
 40
0.2457000012
 40
0.369861658
 40
0.494729069
 40
0.6202445972
 40
0.7463580542
 40
0.8729806076
 40
1.0
 40
1.0
 40
1.0
 40
1.0
 10
10.3847384773
 20
9.6116679582
 30
0.0
 10
10.3852369025
 20
9.6035702128
 30
0.0
 10
10.3862086667
 20
9.5873082471
 30
0.0
 10
10.3876220868
 20
9.5628256173
 30
0.0
 10
10.3890265737
 20
9.5381760433
 30
0.0
 10
10.3904735192
 20
9.5133843118
 30
0.0
 10
10.3920566139
 20
9.4884710517
 30
0.0
 10
10.3938691797
 20
9.4634565249
 30
0.0
 10
10.3959616464
 20
9.4383637159
 30
0.0
 10
10.3975611181
 20
9.4216218679
 30
0.0
 10
10.3984184764
 20
9.4132436989
 30
0.0
  0
SPLINE
  5
2B8
100
AcDbEntity
  8
0
100
AcDbSpline
 62
9
  6
CONTINUOUS
 70
0
 71
3
 72
14
 73
10
 74
0
 42
0.0000001
 43
0.0000001
 44
0.0000000001
 40
0.0
 40
0.0
 40
0.0
 40
0.0
 40
0.0787279025
 40
0.1720595454
 40
0.2796582051
 40
0.4010298945
 40
0.5354140202
 40
0.6812477711
 40
1.0
 40
1.0
 40
1.0
 40
1.0
 10
10.4495155476
 20
9.4141647743
 30
0.0
 10
10.4482134778
 20
9.4145119468
 30
0.0
 10
10.4453182738
 20
9.4150846072
 30
0.0
 10
10.4405589532
 20
9.4156251086
 30
0.0
 10
10.4350463681
 20
9.4159064426
 30
0.0
 10
10.4288249683
 20
9.4159158661
 30
0.0
 10
10.4219548524
 20
9.4156437035
 30
0.0
 10
10.411728283
 20
9.4148994199
 30
0.0
 10
10.4038243325
 20
9.4139849243
 30
0.0
 10
10.3984188831
 20
9.4132441376
 30
0.0
  0
SPLINE
  5
2B9
100
AcDbEntity
  8
0
100
AcDbSpline
 62
9
  6
CONTINUOUS
 70
0
 71
3
 72
18
 73
14
 74
0
 42
0.0000001
 43
0.0000001
 44
0.0000000001
 40
0.0
 40
0.0
 40
0.0
 40
0.0
 40
0.1285201461
 40
0.1924048136
 40
0.2560209894
 40
0.319388169
 40
0.382513193
 40
0.4453960556
 40
0.5080367974
 40
0.632581773
 40
0.7561286052
 40
0.8786248163
 40
1.0
 40
1.0
 40
1.0
 40
1.0
 10
10.4495163352
 20
9.4141650531
 30
0.0
 10
10.4593683714
 20
9.3809986071
 30
0.0
 10
10.4739792327
 20
9.3313044197
 30
0.0
 10
10.494028076
 20
9.2653609488
 30
0.0
 10
10.5094238476
 20
9.2163372159
 30
0.0
 10
10.5253621842
 20
9.167701807
 30
0.0
 10
10.5418986715
 20
9.1194750308
 30
0.0
 10
10.5590585271
 20
9.0716739343
 30
0.0
 10
10.5827531098
 20
9.0086586633
 30
0.0
 10
10.6139924493
 20
8.9310427585
 30
0.0
 10
10.654163587
 20
8.8397037717
 30
0.0
 10
10.6968632641
 20
8.7504648412
 30
0.0
 10
10.7270898199
 20
8.6921697224
 30
0.0
 10
10.7425916746
 20
8.6634057283
 30
0.0
  0
LINE
  5
2BA
100
AcDbEntity
  8
0
100
AcDbLine
 62
9
  6
CONTINUOUS
 10
12.6269748433
 20
10.4441803099
 11
12.6405316364
 21
10.3978149392
  0
SPLINE
  5
2BB
100
AcDbEntity
  8
0
100
AcDbSpline
 62
9
  6
CONTINUOUS
 70
0
 71
3
 72
10
 73
6
 74
0
 42
0.0000001
 43
0.0000001
 44
0.0000000001
 40
0.0
 40
0.0
 40
0.0
 40
0.0
 40
0.4978364759
 40
0.7482285691
 40
1.0
 40
1.0
 40
1.0
 40
1.0
 10
10.4495159557
 20
9.4141640774
 30
0.0
 10
10.439612076
 20
9.4472108724
 30
0.0
 10
10.4245666603
 20
9.4968367652
 30
0.0
 10
10.4027395155
 20
9.5626121897
 30
0.0
 10
10.3909332969
 20
9.5953536859
 30
0.0
 10
10.3847402956
 20
9.6116647658
 30
0.0
  0
LINE
  5
2BC
100
AcDbEntity
  8
0
100
AcDbLine
 62
9
  6
CONTINUOUS
 10
12.6162971242
 20
10.4812707705
 11
12.6269743125
 21
10.4441796378
  0
LINE
  5
2BD
100
AcDbEntity
  8
0
100
AcDbLine
 62
9
  6
CONTINUOUS
 10
11.1017427657
 20
7.9966652465
 11
11.1017124228
 21
8.0287326636
  0
SPLINE
  5
2BE
100
AcDbEntity
  8
0
100
AcDbSpline
 62
9
  6
CONTINUOUS
 70
0
 71
3
 72
11
 73
7
 74
0
 42
0.0000001
 43
0.0000001
 44
0.0000000001
 40
0.0
 40
0.0
 40
0.0
 40
0.0
 40
0.2449196982
 40
0.493307475
 40
0.7450443184
 40
1.0
 40
1.0
 40
1.0
 40
1.0
 10
11.0340741952
 20
8.0287705064
 30
0.0
 10
11.0117948635
 20
8.0585606819
 30
0.0
 10
10.9680850142
 20
8.1194421724
 30
0.0
 10
10.9055057987
 20
8.2137539436
 30
0.0
 10
10.8455412303
 20
8.311541488
 30
0.0
 10
10.8076076503
 20
8.3785226373
 30
0.0
 10
10.7890876383
 20
8.4125309407
 30
0.0
  0
LINE
  5
2BF
100
AcDbEntity
  8
0
100
AcDbLine
 62
9
  6
CONTINUOUS
 10
12.6162990401
 20
9.750058766
 11
12.626974684
 21
9.7871506799
  0
LINE
  5
2C0
100
AcDbEntity
  8
0
100
AcDbLine
 62
9
  6
CONTINUOUS
 10
11.0341237989
 20
7.9966652444
 11
11.0340941183
 21
8.0287704958
  0
LINE
  5
2C1
100
AcDbEntity
  8
0
100
AcDbLine
 62
9
  6
CONTINUOUS
 10
12.6269748439
 20
9.787150185
 11
12.6405309748
 21
9.8335132426
  0
SPLINE
  5
2C2
100
AcDbEntity
  8
0
100
AcDbSpline
 62
9
  6
CONTINUOUS
 70
0
 71
3
 72
13
 73
9
 74
0
 42
0.0000001
 43
0.0000001
 44
0.0000000001
 40
0.0
 40
0.0
 40
0.0
 40
0.0
 40
0.0493888477
 40
0.1265273546
 40
0.2314800316
 40
0.3608473607
 40
0.6709493473
 40
1.0
 40
1.0
 40
1.0
 40
1.0
 10
11.7404960582
 20
9.9695217889
 30
0.0
 10
11.7406250444
 20
9.9703143527
 30
0.0
 10
11.7409304977
 20
9.9723487914
 30
0.0
 10
11.7414651679
 20
9.9760741247
 30
0.0
 10
11.7421613955
 20
9.9810899277
 30
0.0
 10
11.7433546256
 20
9.9898606437
 30
0.0
 10
11.7449985142
 20
10.0022470905
 30
0.0
 10
11.7463388299
 20
10.0125519952
 30
0.0
 10
11.7470223853
 20
10.0178580337
 30
0.0
  0
SPLINE
  5
2C3
100
AcDbEntity
  8
0
100
AcDbSpline
 62
9
  6
CONTINUOUS
 70
0
 71
3
 72
14
 73
10
 74
0
 42
0.0000001
 43
0.0000001
 44
0.0000000001
 40
0.0
 40
0.0
 40
0.0
 40
0.0
 40
0.1282857157
 40
0.2561451645
 40
0.3831838822
 40
0.5091880087
 40
0.6339738879
 40
0.757432835
 40
1.0
 40
1.0
 40
1.0
 40
1.0
 10
10.3984189196
 20
9.4132439383
 30
0.0
 10
10.4088156541
 20
9.3683306087
 30
0.0
 10
10.4310969497
 20
9.2789951768
 30
0.0
 10
10.4693911535
 20
9.1466935703
 30
0.0
 10
10.512245
 20
9.0166606566
 30
0.0
 10
10.5594270548
 20
8.8893137961
 30
0.0
 10
10.6107447558
 20
8.764962414
 30
0.0
 10
10.6840456492
 20
8.6045078327
 30
0.0
 10
10.7454367518
 20
8.4879844451
 30
0.0
 10
10.7890810609
 20
8.4125280464
 30
0.0
  0
SPLINE
  5
2C4
100
AcDbEntity
  8
0
100
AcDbSpline
 62
9
  6
CONTINUOUS
 70
0
 71
3
 72
23
 73
19
 74
0
 42
0.0000001
 43
0.0000001
 44
0.0000000001
 40
0.0
 40
0.0
 40
0.0
 40
0.0
 40
0.2065955652
 40
0.4046692234
 40
0.5858891963
 40
0.6667627505
 40
0.7391822052
 40
0.8018519642
 40
0.8544246697
 40
0.8969787134
 40
0.9297265724
 40
0.9532980362
 40
0.9622730943
 40
0.9699365775
 40
0.9769062018
 40
0.9838751485
 40
0.9914414817
 40
1.0
 40
1.0
 40
1.0
 40
1.0
 10
11.0340735073
 20
8.0287739596
 30
0.0
 10
11.0317869625
 20
8.029124841
 30
0.0
 10
11.0273018008
 20
8.0297717945
 30
0.0
 10
11.0207880148
 20
8.0305576928
 30
0.0
 10
11.015654327
 20
8.0310151494
 30
0.0
 10
11.0119140442
 20
8.0312219402
 30
0.0
 10
11.009496346
 20
8.0312879437
 30
0.0
 10
11.0073943958
 20
8.0312642029
 30
0.0
 10
11.0056302084
 20
8.0311545549
 30
0.0
 10
11.0042083175
 20
8.0309668359
 30
0.0
 10
11.003130492
 20
8.0307101031
 30
0.0
 10
11.0024491719
 20
8.030417903
 30
0.0
 10
11.0020976824
 20
8.030131341
 30
0.0
 10
11.0019376318
 20
8.0299165908
 30
0.0
 10
11.0018582637
 20
8.0296834738
 30
0.0
 10
11.0018591437
 20
8.0294387594
 30
0.0
 10
11.0019323746
 20
8.0291881671
 30
0.0
 10
11.0020184011
 20
8.0290281985
 30
0.0
 10
11.0020696202
 20
8.0289472021
 30
0.0
  0
SPLINE
  5
2C5
100
AcDbEntity
  8
0
100
AcDbSpline
 62
9
  6
CONTINUOUS
 70
0
 71
3
 72
14
 73
10
 74
0
 42
0.0000001
 43
0.0000001
 44
0.0000000001
 40
0.0
 40
0.0
 40
0.0
 40
0.0
 40
0.0916627216
 40
0.1946916346
 40
0.3083718617
 40
0.4319258833
 40
0.564415156
 40
0.7043598353
 40
1.0
 40
1.0
 40
1.0
 40
1.0
 10
10.3837923456
 20
9.4132446806
 30
0.0
 10
10.3819531848
 20
9.4136583531
 30
0.0
 10
10.3780111497
 20
9.4143804127
 30
0.0
 10
10.3717143994
 20
9.4151568392
 30
0.0
 10
10.3647335929
 20
9.4156772097
 30
0.0
 10
10.3571321653
 20
9.4159268946
 30
0.0
 10
10.3489867888
 20
9.4158931944
 30
0.0
 10
10.3373100597
 20
9.4154770047
 30
0.0
 10
10.3283736433
 20
9.4147801925
 30
0.0
 10
10.3223247707
 20
9.4141652404
 30
0.0
  0
SPLINE
  5
2C6
100
AcDbEntity
  8
0
100
AcDbSpline
 62
9
  6
CONTINUOUS
 70
0
 71
3
 72
13
 73
9
 74
0
 42
0.0000001
 43
0.0000001
 44
0.0000000001
 40
0.0
 40
0.0
 40
0.0
 40
0.0
 40
0.125067178
 40
0.2501710461
 40
0.3752762497
 40
0.5003592272
 40
0.7503773102
 40
1.0
 40
1.0
 40
1.0
 40
1.0
 10
10.3150649576
 20
9.6116681704
 30
0.0
 10
10.3184586239
 20
9.6035928592
 30
0.0
 10
10.3251137681
 20
9.587383506
 30
0.0
 10
10.3346841493
 20
9.5629029651
 30
0.0
 10
10.3438227226
 20
9.5382566097
 30
0.0
 10
10.3554321684
 20
9.5052012213
 30
0.0
 10
10.3689639143
 20
9.4635852716
 30
0.0
 10
10.3789539205
 20
9.4300448535
 30
0.0
 10
10.3837923456
 20
9.4132446806
 30
0.0
  0
SPLINE
  5
2C7
100
AcDbEntity
  8
0
100
AcDbSpline
 62
9
  6
CONTINUOUS
 70
0
 71
3
 72
13
 73
9
 74
0
 42
0.0000001
 43
0.0000001
 44
0.0000000001
 40
0.0
 40
0.0
 40
0.0
 40
0.0
 40
0.2501676752
 40
0.3752728348
 40
0.5003570821
 40
0.6253991545
 40
0.7503747898
 40
1.0
 40
1.0
 40
1.0
 40
1.0
 10
9.8889800373
 20
9.6116679593
 30
0.0
 10
9.8821287717
 20
9.5955418529
 30
0.0
 10
9.8723806968
 20
9.571123557
 30
0.0
 10
9.8602439444
 20
9.5382477972
 30
0.0
 10
9.8515309155
 20
9.5134525796
 30
0.0
 10
9.843197371
 20
9.48853708
 30
0.0
 10
9.8325824905
 20
9.4551909634
 30
0.0
 10
9.8251028856
 20
9.4300408559
 30
0.0
 10
9.8202546369
 20
9.4132433647
 30
0.0
  0
SPLINE
  5
2C8
100
AcDbEntity
  8
0
100
AcDbSpline
 62
9
  6
CONTINUOUS
 70
0
 71
3
 72
14
 73
10
 74
0
 42
0.0000001
 43
0.0000001
 44
0.0000000001
 40
0.0
 40
0.0
 40
0.0
 40
0.0
 40
0.2956402376
 40
0.4355849294
 40
0.5680742015
 40
0.6916282122
 40
0.8053084197
 40
0.9083373069
 40
1.0
 40
1.0
 40
1.0
 40
1.0
 10
9.881720666
 20
9.4141644465
 30
0.0
 10
9.8756718748
 20
9.4147793857
 30
0.0
 10
9.8667355793
 20
9.4154761805
 30
0.0
 10
9.855059009
 20
9.415892351
 30
0.0
 10
9.8469137447
 20
9.4159260395
 30
0.0
 10
9.839312423
 20
9.4156763454
 30
0.0
 10
9.8323317149
 20
9.4151559684
 30
0.0
 10
9.8260350548
 20
9.4143795377
 30
0.0
 10
9.8220930772
 20
9.4136574769
 30
0.0
 10
9.8202539436
 20
9.4132438042
 30
0.0
  0
SPLINE
  5
2C9
100
AcDbEntity
  8
0
100
AcDbSpline
 62
9
  6
CONTINUOUS
 70
0
 71
3
 72
21
 73
17
 74
0
 42
0.0000001
 43
0.0000001
 44
0.0000000001
 40
0.0
 40
0.0
 40
0.0
 40
0.0
 40
0.1517808555
 40
0.2275280821
 40
0.3024524007
 40
0.4477833363
 40
0.5172598231
 40
0.5839773875
 40
0.647532829
 40
0.7076736108
 40
0.7643576578
 40
0.8176010262
 40
0.867479997
 40
0.9141900375
 40
0.9581868786
 40
1.0
 40
1.0
 40
1.0
 40
1.0
 10
9.5542979292
 20
8.4209364835
 30
0.0
 10
9.5492958802
 20
8.4228623312
 30
0.0
 10
9.5416847858
 20
8.4254704409
 30
0.0
 10
9.5313861867
 20
8.4283121876
 30
0.0
 10
9.5211952345
 20
8.4306487933
 30
0.0
 10
9.5110627753
 20
8.4322200835
 30
0.0
 10
9.5011408066
 20
8.4329169916
 30
0.0
 10
9.494082233
 20
8.4329845205
 30
0.0
 10
9.4873635929
 20
8.432589389
 30
0.0
 10
9.4810459507
 20
8.4317222842
 30
0.0
 10
9.4751775948
 20
8.4304092011
 30
0.0
 10
9.4697991271
 20
8.4286714223
 30
0.0
 10
9.4649484144
 20
8.4265312044
 30
0.0
 10
9.4606619941
 20
8.4240012528
 30
0.0
 10
9.4569547811
 20
8.4211247923
 30
0.0
 10
9.454820668
 20
8.4189579839
 30
0.0
 10
9.4538611071
 20
8.4178356876
 30
0.0
  0
SPLINE
  5
2CA
100
AcDbEntity
  8
0
100
AcDbSpline
 62
9
  6
CONTINUOUS
 70
0
 71
3
 72
25
 73
21
 74
0
 42
0.0000001
 43
0.0000001
 44
0.0000000001
 40
0.0
 40
0.0
 40
0.0
 40
0.0
 40
0.0325648073
 40
0.0651369563
 40
0.0976944733
 40
0.1302180948
 40
0.1626955106
 40
0.1951125245
 40
0.2597056659
 40
0.3239368892
 40
0.3877662345
 40
0.4511618506
 40
0.5140984142
 40
0.5765605756
 40
0.6385351858
 40
0.7000121012
 40
0.7609889476
 40
0.8214689309
 40
0.8814617562
 40
1.0
 40
1.0
 40
1.0
 40
1.0
 10
9.881720411
 20
9.4141647273
 30
0.0
 10
9.8806851274
 20
9.4027848491
 30
0.0
 10
9.8783824901
 20
9.3800429155
 30
0.0
 10
9.8742292172
 20
9.3460124831
 30
0.0
 10
9.8693717505
 20
9.3120897079
 30
0.0
 10
9.8638068599
 20
9.2783097802
 30
0.0
 10
9.8576184589
 20
9.2446891085
 30
0.0
 10
9.8486525973
 20
9.2001442255
 30
0.0
 10
9.8363159215
 20
9.1449188167
 30
0.0
 10
9.8198722149
 20
9.0793407291
 30
0.0
 10
9.8019553762
 20
9.0145861206
 30
0.0
 10
9.7826770349
 20
8.9506987284
 30
0.0
 10
9.7621192668
 20
8.8877161294
 30
0.0
 10
9.7403203715
 20
8.8256805007
 30
0.0
 10
9.717305899
 20
8.7646324849
 30
0.0
 10
9.6930936658
 20
8.704610994
 30
0.0
 10
9.6677036111
 20
8.6456488861
 30
0.0
 10
9.6411493149
 20
8.587773301
 30
0.0
 10
9.6043438173
 20
8.5124066598
 30
0.0
 10
9.5748004521
 20
8.4571271018
 30
0.0
 10
9.5542979292
 20
8.4209364835
 30
0.0
  0
SPLINE
  5
2CB
100
AcDbEntity
  8
0
100
AcDbSpline
 62
9
  6
CONTINUOUS
 70
0
 71
3
 72
26
 73
22
 74
0
 42
0.0000001
 43
0.0000001
 44
0.0000000001
 40
0.0
 40
0.0
 40
0.0
 40
0.0
 40
0.0325669819
 40
0.0651375081
 40
0.0976917384
 40
0.1302137244
 40
0.1626913936
 40
0.1951093021
 40
0.2597025639
 40
0.3239326171
 40
0.3877609304
 40
0.4511554049
 40
0.5140913706
 40
0.5765534915
 40
0.6385277879
 40
0.7000037096
 40
0.7609795521
 40
0.8214594137
 40
0.8814532528
 40
0.940967157
 40
1.0
 40
1.0
 40
1.0
 40
1.0
 10
10.3223241625
 20
9.4141634478
 30
0.0
 10
10.3233823001
 20
9.4027848284
 30
0.0
 10
10.3257033848
 20
9.3800447633
 30
0.0
 10
10.329838408
 20
9.346013013
 30
0.0
 10
10.3346684175
 20
9.3120883282
 30
0.0
 10
10.3402274451
 20
9.2783087239
 30
0.0
 10
10.346420059
 20
9.2446887408
 30
0.0
 10
10.3553953422
 20
9.2001450021
 30
0.0
 10
10.3677312454
 20
9.1449192111
 30
0.0
 10
10.384170807
 20
9.0793403088
 30
0.0
 10
10.4020907595
 20
9.0145872894
 30
0.0
 10
10.4213690136
 20
8.9507004517
 30
0.0
 10
10.4419253843
 20
8.8877175852
 30
0.0
 10
10.4637231153
 20
8.8256814289
 30
0.0
 10
10.4867380616
 20
8.7646335966
 30
0.0
 10
10.5109517708
 20
8.704613162
 30
0.0
 10
10.5363402954
 20
8.6456505961
 30
0.0
 10
10.5628915394
 20
8.587773808
 30
0.0
 10
10.5906143067
 20
8.5310189167
 30
0.0
 10
10.6194852025
 20
8.4754114269
 30
0.0
 10
10.639542439
 20
8.4389630026
 30
0.0
 10
10.6497471292
 20
8.4209364407
 30
0.0
  0
SPLINE
  5
2CC
100
AcDbEntity
  8
0
100
AcDbSpline
 62
9
  6
CONTINUOUS
 70
0
 71
3
 72
9
 73
5
 74
0
 42
0.0000001
 43
0.0000001
 44
0.0000000001
 40
0.0
 40
0.0
 40
0.0
 40
0.0
 40
0.4988450483
 40
1.0
 40
1.0
 40
1.0
 40
1.0
 10
10.3150639625
 20
9.6116650319
 30
0.0
 10
10.3151843293
 20
9.5787949439
 30
0.0
 10
10.3158319479
 20
9.5128945635
 30
0.0
 10
10.3195726886
 20
9.4470716866
 30
0.0
 10
10.3223253843
 20
9.4141641021
 30
0.0
  0
SPLINE
  5
2CD
100
AcDbEntity
  8
0
100
AcDbSpline
 62
9
  6
CONTINUOUS
 70
0
 71
3
 72
9
 73
5
 74
0
 42
0.0000001
 43
0.0000001
 44
0.0000000001
 40
0.0
 40
0.0
 40
0.0
 40
0.0
 40
0.501157763
 40
1.0
 40
1.0
 40
1.0
 40
1.0
 10
9.8817211822
 20
9.4141637496
 30
0.0
 10
9.8844748442
 20
9.4470714756
 30
0.0
 10
9.8882139491
 20
9.5128946534
 30
0.0
 10
9.8888572282
 20
9.5787950549
 30
0.0
 10
9.8889808352
 20
9.6116649816
 30
0.0
  0
LINE
  5
2CE
100
AcDbEntity
  8
0
100
AcDbLine
 62
7
  6
CONTINUOUS
 10
11.7354410172
 20
9.9308518176
 11
11.7404960873
 21
9.9695220517
  0
LINE
  5
2CF
100
AcDbEntity
  8
0
100
AcDbLine
 62
9
  6
CONTINUOUS
 10
9.2902260418
 20
7.9966652466
 11
9.2902506823
 21
8.0302609632
  0
LINE
  5
2D0
100
AcDbEntity
  8
0
100
AcDbLine
 62
9
  6
CONTINUOUS
 10
11.5080226022
 20
9.9548459384
 11
11.5114346433
 21
9.9940796215
  0
SPLINE
  5
2D1
100
AcDbEntity
  8
0
100
AcDbSpline
 62
9
  6
CONTINUOUS
 70
0
 71
3
 72
24
 73
20
 74
0
 42
0.0000001
 43
0.0000001
 44
0.0000000001
 40
0.0
 40
0.0
 40
0.0
 40
0.0
 40
0.0046994816
 40
0.0102616594
 40
0.0172349234
 40
0.0259553608
 40
0.0366382466
 40
0.049437469
 40
0.0644749561
 40
0.0818549999
 40
0.1238192105
 40
0.17507413
 40
0.2351068232
 40
0.3033781909
 40
0.3791777758
 40
0.4611509738
 40
0.6375221093
 40
0.8206319449
 40
1.0
 40
1.0
 40
1.0
 40
1.0
 10
10.9639417629
 20
10.0176652432
 30
0.0
 10
10.9640214355
 20
10.0176652432
 30
0.0
 10
10.964196423
 20
10.0177067518
 30
0.0
 10
10.9644397359
 20
10.0178760428
 30
0.0
 10
10.9646797528
 20
10.0181476619
 30
0.0
 10
10.9649199952
 20
10.0185262825
 30
0.0
 10
10.9651613826
 20
10.019016773
 30
0.0
 10
10.9654034411
 20
10.0196238155
 30
0.0
 10
10.965645475
 20
10.0203515346
 30
0.0
 10
10.9659883943
 20
10.0215653951
 30
0.0
 10
10.9663964915
 20
10.0233967609
 30
0.0
 10
10.9668485155
 20
10.0259557472
 30
0.0
 10
10.9672779239
 20
10.0289699517
 30
0.0
 10
10.9676756998
 20
10.0324075933
 30
0.0
 10
10.9680320845
 20
10.03622348
 30
0.0
 10
10.9684604645
 20
10.0418723663
 30
0.0
 10
10.9688605486
 20
10.0493468695
 30
0.0
 10
10.969129523
 20
10.0584789151
 30
0.0
 10
10.9691887057
 20
10.0646243344
 30
0.0
 10
10.9691887029
 20
10.0676652465
 30
0.0
  0
SPLINE
  5
2D2
100
AcDbEntity
  8
0
100
AcDbSpline
 62
9
  6
CONTINUOUS
 70
0
 71
3
 72
24
 73
20
 74
0
 42
0.0000001
 43
0.0000001
 44
0.0000000001
 40
0.0
 40
0.0
 40
0.0
 40
0.0
 40
0.1980025135
 40
0.2945608109
 40
0.388127046
 40
0.4776508663
 40
0.5620866769
 40
0.6404589302
 40
0.7118381445
 40
0.7754586367
 40
0.8310124833
 40
0.8782905387
 40
0.9173434916
 40
0.9484849092
 40
0.9721149558
 40
0.9813157629
 40
0.9889160869
 40
0.9950685313
 40
1.0
 40
1.0
 40
1.0
 40
1.0
 10
9.2902507979
 20
8.0302590317
 30
0.0
 10
9.2843845663
 20
8.0306184807
 30
0.0
 10
9.2756514549
 20
8.0310550392
 30
0.0
 10
9.2641394835
 20
8.0315015288
 30
0.0
 10
9.2558431628
 20
8.0317732814
 30
0.0
 10
9.2479046469
 20
8.0319709002
 30
0.0
 10
9.240415412
 20
8.0320801902
 30
0.0
 10
9.2334639571
 20
8.0320979716
 30
0.0
 10
9.2271306665
 20
8.0320275563
 30
0.0
 10
9.2214764235
 20
8.0318702292
 30
0.0
 10
9.2165409497
 20
8.0316322328
 30
0.0
 10
9.212340615
 20
8.0313182869
 30
0.0
 10
9.2088735
 20
8.0309359872
 30
0.0
 10
9.20612276
 20
8.0304957096
 30
0.0
 10
9.2042698042
 20
8.0300632348
 30
0.0
 10
9.2031342803
 20
8.0296714862
 30
0.0
 10
9.2025121374
 20
8.0293901234
 30
0.0
 10
9.2020395547
 20
8.0290964665
 30
0.0
 10
9.2017971828
 20
8.0288677069
 30
0.0
 10
9.2017087532
 20
8.0287510579
 30
0.0
  0
SPLINE
  5
2D3
100
AcDbEntity
  8
0
100
AcDbSpline
 62
9
  6
CONTINUOUS
 70
0
 71
3
 72
21
 73
17
 74
0
 42
0.0000001
 43
0.0000001
 44
0.0000000001
 40
0.0
 40
0.0
 40
0.0
 40
0.0
 40
0.1810097269
 40
0.3658870034
 40
0.5439855604
 40
0.7031764048
 40
0.8322789134
 40
0.8836046441
 40
0.9253466831
 40
0.9424766601
 40
0.957154267
 40
0.9694647536
 40
0.9795014479
 40
0.9873739754
 40
0.9932295132
 40
1.0
 40
1.0
 40
1.0
 40
1.0
 10
11.0380495144
 20
9.9771941617
 30
0.0
 10
11.0380793281
 20
9.9796257051
 30
0.0
 10
11.0381673676
 20
9.9845404465
 30
0.0
 10
11.0383830482
 20
9.9918454753
 30
0.0
 10
11.0386894869
 20
9.9988539922
 30
0.0
 10
11.039067322
 20
10.0051084782
 30
0.0
 10
11.0394524036
 20
10.0096556717
 30
0.0
 10
11.0397961213
 20
10.01262071
 30
0.0
 10
11.0400060497
 20
10.0140864943
 30
0.0
 10
11.0401798306
 20
10.0150593584
 30
0.0
 10
11.0403005129
 20
10.0156395497
 30
0.0
 10
11.0404204178
 20
10.0161229995
 30
0.0
 10
11.0405368254
 20
10.0165105716
 30
0.0
 10
11.0406552089
 20
10.0168120438
 30
0.0
 10
11.0407759406
 20
10.0170471119
 30
0.0
 10
11.0409179714
 20
10.0171973419
 30
0.0
 10
11.0410088648
 20
10.0171939601
 30
0.0
  0
SPLINE
  5
2D4
100
AcDbEntity
  8
0
100
AcDbSpline
 62
9
  6
CONTINUOUS
 70
0
 71
3
 72
24
 73
20
 74
0
 42
0.0000001
 43
0.0000001
 44
0.0000000001
 40
0.0
 40
0.0
 40
0.0
 40
0.0
 40
0.0055960746
 40
0.0121142209
 40
0.0201422728
 40
0.0299885727
 40
0.0418094491
 40
0.0556857037
 40
0.0716581782
 40
0.0897293936
 40
0.1320589975
 40
0.1824022527
 40
0.240407724
 40
0.3055616518
 40
0.377230706
 40
0.4547678441
 40
0.6245810129
 40
0.8088467075
 40
1.0
 40
1.0
 40
1.0
 40
1.0
 10
10.8909561958
 20
10.0176652465
 30
0.0
 10
10.8910513104
 20
10.0176652465
 30
0.0
 10
10.891258456
 20
10.0177146337
 30
0.0
 10
10.8915432207
 20
10.0179133121
 30
0.0
 10
10.8918197548
 20
10.0182253593
 30
0.0
 10
10.8920925452
 20
10.0186516092
 30
0.0
 10
10.892362805
 20
10.0191927691
 30
0.0
 10
10.8926301218
 20
10.0198491745
 30
0.0
 10
10.8928936461
 20
10.0206202019
 30
0.0
 10
10.8932585431
 20
10.0218662866
 30
0.0
 10
10.8936894461
 20
10.0236998256
 30
0.0
 10
10.8941606773
 20
10.02621766
 30
0.0
 10
10.8946027823
 20
10.0291337907
 30
0.0
 10
10.8950116961
 20
10.0324201748
 30
0.0
 10
10.8953834219
 20
10.0360448154
 30
0.0
 10
10.8958370201
 20
10.0414483149
 30
0.0
 10
10.8962724577
 20
10.0487725602
 30
0.0
 10
10.8965856466
 20
10.0580351602
 30
0.0
 10
10.896656463
 20
10.0644162794
 30
0.0
 10
10.896656463
 20
10.0676652465
 30
0.0
  0
SPLINE
  5
2D5
100
AcDbEntity
  8
0
100
AcDbSpline
 62
9
  6
CONTINUOUS
 70
0
 71
3
 72
18
 73
14
 74
0
 42
0.0000001
 43
0.0000001
 44
0.0000000001
 40
0.0
 40
0.0
 40
0.0
 40
0.0
 40
0.0466389307
 40
0.0941515885
 40
0.1431318509
 40
0.194099528
 40
0.2474896912
 40
0.3036068516
 40
0.4244788274
 40
0.5566714771
 40
0.6985471515
 40
0.8475932438
 40
1.0
 40
1.0
 40
1.0
 40
1.0
 10
10.3712038458
 20
10.0176652465
 30
0.0
 10
10.3721998136
 20
10.0176652463
 30
0.0
 10
10.3742139432
 20
10.0178310785
 30
0.0
 10
10.3771934997
 20
10.0185629103
 30
0.0
 10
10.3801147834
 20
10.019769161
 30
0.0
 10
10.3829418106
 20
10.0214414376
 30
0.0
 10
10.385648376
 20
10.023557568
 30
0.0
 10
10.3891519656
 20
10.0270247867
 30
0.0
 10
10.39306097
 20
10.0324022014
 30
0.0
 10
10.3968001225
 20
10.0399979386
 30
0.0
 10
10.3995709551
 20
10.0486293413
 30
0.0
 10
10.4012696377
 20
10.0579665002
 30
0.0
 10
10.4016542283
 20
10.0644106216
 30
0.0
 10
10.4016542283
 20
10.0676652465
 30
0.0
  0
LINE
  5
2D6
100
AcDbEntity
  8
0
100
AcDbLine
 62
9
  6
CONTINUOUS
 10
9.1699213602
 20
7.9966652444
 11
9.169951002
 21
8.0287704746
  0
LINE
  5
2D7
100
AcDbEntity
  8
0
100
AcDbLine
 62
7
  6
CONTINUOUS
 10
11.7354413794
 20
10.3004758249
 11
11.7404956944
 21
10.2618116364
  0
SPLINE
  5
2D8
100
AcDbEntity
  8
0
100
AcDbSpline
 62
9
  6
CONTINUOUS
 70
0
 71
3
 72
14
 73
10
 74
0
 42
0.0000001
 43
0.0000001
 44
0.0000000001
 40
0.0
 40
0.0
 40
0.0
 40
0.0
 40
0.1287992624
 40
0.2571290165
 40
0.3844692835
 40
0.5105728716
 40
0.6352476741
 40
0.7584088216
 40
1.0
 40
1.0
 40
1.0
 40
1.0
 10
9.8202540046
 20
9.4132436042
 30
0.0
 10
9.8106087107
 20
9.3686111377
 30
0.0
 10
9.789460508
 20
9.2799101334
 30
0.0
 10
9.753066092
 20
9.1485291806
 30
0.0
 10
9.7126381847
 20
9.0193327657
 30
0.0
 10
9.6683798808
 20
8.8927713524
 30
0.0
 10
9.6204414578
 20
8.7691395528
 30
0.0
 10
9.5520607717
 20
8.6096432094
 30
0.0
 10
9.4945720498
 20
8.4936233514
 30
0.0
 10
9.4534760858
 20
8.4184759485
 30
0.0
  0
SPLINE
  5
2D9
100
AcDbEntity
  8
0
100
AcDbSpline
 62
9
  6
CONTINUOUS
 70
0
 71
3
 72
14
 73
10
 74
0
 42
0.0000001
 43
0.0000001
 44
0.0000000001
 40
0.0
 40
0.0
 40
0.0
 40
0.0
 40
0.0517382695
 40
0.1322784469
 40
0.2406946203
 40
0.3724774915
 40
0.5217883926
 40
0.6810551492
 40
1.0
 40
1.0
 40
1.0
 40
1.0
 10
11.7404960856
 20
10.2618085353
 30
0.0
 10
11.7406312515
 20
10.2609779883
 30
0.0
 10
11.7409498027
 20
10.2588502191
 30
0.0
 10
11.7415049145
 20
10.2549751369
 30
0.0
 10
11.7422207584
 20
10.2498079367
 30
0.0
 10
11.7430737157
 20
10.2435306145
 30
0.0
 10
11.7440227852
 20
10.2364317226
 30
0.0
 10
11.7453591912
 20
10.2263135378
 30
0.0
 10
11.7463617412
 20
10.2186007544
 30
0.0
 10
11.7470245141
 20
10.213455934
 30
0.0
  0
SPLINE
  5
2DA
100
AcDbEntity
  8
0
100
AcDbSpline
 62
9
  6
CONTINUOUS
 70
0
 71
3
 72
10
 73
6
 74
0
 42
0.0000001
 43
0.0000001
 44
0.0000000001
 40
0.0
 40
0.0
 40
0.0
 40
0.0
 40
0.2517749395
 40
0.5021661602
 40
1.0
 40
1.0
 40
1.0
 40
1.0
 10
9.8193045819
 20
9.6116648437
 30
0.0
 10
9.8131095966
 20
9.5953542539
 30
0.0
 10
9.8013030248
 20
9.5626126139
 30
0.0
 10
9.7794796797
 20
9.4968359596
 30
0.0
 10
9.7644303279
 20
9.4472115275
 30
0.0
 10
9.7545280737
 20
9.41416443
 30
0.0
  0
SPLINE
  5
2DB
100
AcDbEntity
  8
0
100
AcDbSpline
 62
9
  6
CONTINUOUS
 70
0
 71
3
 72
17
 73
13
 74
0
 42
0.0000001
 43
0.0000001
 44
0.0000000001
 40
0.0
 40
0.0
 40
0.0
 40
0.0
 40
0.1285240851
 40
0.1924112218
 40
0.2560283571
 40
0.3193970272
 40
0.3825236121
 40
0.5080440014
 40
0.6325883919
 40
0.7561356153
 40
0.87862936
 40
1.0
 40
1.0
 40
1.0
 40
1.0
 10
9.7545299156
 20
9.4141637757
 30
0.0
 10
9.7446819857
 20
9.380960342
 30
0.0
 10
9.7300409502
 20
9.3312213991
 30
0.0
 10
9.7099690439
 20
9.2652137073
 30
0.0
 10
9.6945593814
 20
9.2161412395
 30
0.0
 10
9.6786021435
 20
9.1674590473
 30
0.0
 10
9.6565701574
 20
9.1032204493
 30
0.0
 10
9.6274711348
 20
9.0239863152
 30
0.0
 10
9.5898590772
 20
8.9305822431
 30
0.0
 10
9.5496342815
 20
8.8391624935
 30
0.0
 10
9.506876343
 20
8.7498481536
 30
0.0
 10
9.4766068845
 20
8.6915063116
 30
0.0
 10
9.4610831948
 20
8.6627198285
 30
0.0
  0
SPLINE
  5
2DC
100
AcDbEntity
  8
0
100
AcDbSpline
 62
9
  6
CONTINUOUS
 70
0
 71
3
 72
14
 73
10
 74
0
 42
0.0000001
 43
0.0000001
 44
0.0000000001
 40
0.0
 40
0.0
 40
0.0
 40
0.0
 40
0.2425685785
 40
0.3660273768
 40
0.4908141579
 40
0.6168200427
 40
0.7438583372
 40
0.8717151676
 40
1.0
 40
1.0
 40
1.0
 40
1.0
 10
9.4151124728
 20
8.412784862
 30
0.0
 10
9.4587377085
 20
8.4882239979
 30
0.0
 10
9.5201024249
 20
8.6047189659
 30
0.0
 10
9.5933737108
 20
8.7651322852
 30
0.0
 10
9.6446713801
 20
8.8894511588
 30
0.0
 10
9.6918349849
 20
9.0167641639
 30
0.0
 10
9.7346732576
 20
9.1467603258
 30
0.0
 10
9.7729556986
 20
9.2790227751
 30
0.0
 10
9.7952282078
 20
9.3683318401
 30
0.0
 10
9.8056233977
 20
9.41323163
 30
0.0
  0
SPLINE
  5
2DD
100
AcDbEntity
  8
0
100
AcDbSpline
 62
9
  6
CONTINUOUS
 70
0
 71
3
 72
24
 73
20
 74
0
 42
0.0000001
 43
0.0000001
 44
0.0000000001
 40
0.0
 40
0.0
 40
0.0
 40
0.0
 40
0.1793675541
 40
0.3624786543
 40
0.5388486209
 40
0.620821803
 40
0.6966223563
 40
0.7648944178
 40
0.8249265927
 40
0.8761807374
 40
0.9181448566
 40
0.935525117
 40
0.9505627135
 40
0.963361963
 40
0.9740448191
 40
0.982765196
 40
0.9897383956
 40
0.99530053
 40
1.0
 40
1.0
 40
1.0
 40
1.0
 10
10.969188703
 20
10.1636652465
 30
0.0
 10
10.9691887112
 20
10.1667061501
 30
0.0
 10
10.9691295156
 20
10.1728515824
 30
0.0
 10
10.9688605543
 20
10.1819836215
 30
0.0
 10
10.9684604716
 20
10.1894581265
 30
0.0
 10
10.9680320771
 20
10.195107008
 30
0.0
 10
10.9676756953
 20
10.1989229229
 30
0.0
 10
10.9672779295
 20
10.2023605853
 30
0.0
 10
10.9668485189
 20
10.2053747795
 30
0.0
 10
10.9663964893
 20
10.2079337411
 30
0.0
 10
10.9659883888
 20
10.2097650947
 30
0.0
 10
10.9656454726
 20
10.2109789601
 30
0.0
 10
10.9654034383
 20
10.2117066854
 30
0.0
 10
10.96516138
 20
10.21231373
 30
0.0
 10
10.964919993
 20
10.2128042195
 30
0.0
 10
10.9646797511
 20
10.2131828374
 30
0.0
 10
10.9644397346
 20
10.2134544531
 30
0.0
 10
10.9641964217
 20
10.2136237407
 30
0.0
 10
10.964021435
 20
10.2136652477
 30
0.0
 10
10.9639417626
 20
10.2136652477
 30
0.0
  0
SPLINE
  5
2DE
100
AcDbEntity
  8
0
100
AcDbSpline
 62
9
  6
CONTINUOUS
 70
0
 71
3
 72
23
 73
19
 74
0
 42
0.0000001
 43
0.0000001
 44
0.0000000001
 40
0.0
 40
0.0
 40
0.0
 40
0.0
 40
0.0086918269
 40
0.0163575318
 40
0.0233748524
 40
0.0303302737
 40
0.0466566683
 40
0.0572754472
 40
0.0699994895
 40
0.1024714959
 40
0.1447932353
 40
0.1971853314
 40
0.2597291659
 40
0.3320971509
 40
0.4129968905
 40
0.5944575816
 40
0.7929353239
 40
1.0
 40
1.0
 40
1.0
 40
1.0
 10
9.2019582248
 20
8.0289205075
 30
0.0
 10
9.2020115924
 20
8.0290020389
 30
0.0
 10
9.2021018157
 20
8.0291628777
 30
0.0
 10
9.202181976
 20
8.0294148864
 30
0.0
 10
9.2021902092
 20
8.0296611406
 30
0.0
 10
9.2020885808
 20
8.029992119
 30
0.0
 10
9.2018022433
 20
8.030271456
 30
0.0
 10
9.2014169165
 20
8.030491266
 30
0.0
 10
9.2008353079
 20
8.0307283546
 30
0.0
 10
9.199877934
 20
8.0309588895
 30
0.0
 10
9.1984637894
 20
8.031150203
 30
0.0
 10
9.1967031188
 20
8.0312623519
 30
0.0
 10
9.1946027868
 20
8.0312885689
 30
0.0
 10
9.1921836924
 20
8.0312242361
 30
0.0
 10
9.1884363165
 20
8.0310187872
 30
0.0
 10
9.1832886808
 20
8.0305612481
 30
0.0
 10
9.1767544089
 20
8.0297734518
 30
0.0
 10
9.1722540327
 20
8.0291242945
 30
0.0
 10
9.1699594847
 20
8.0287721167
 30
0.0
  0
SPLINE
  5
2DF
100
AcDbEntity
  8
0
100
AcDbSpline
 62
9
  6
CONTINUOUS
 70
0
 71
3
 72
20
 73
16
 74
0
 42
0.0000001
 43
0.0000001
 44
0.0000000001
 40
0.0
 40
0.0
 40
0.0
 40
0.0
 40
0.162703559
 40
0.2430468928
 40
0.3222678681
 40
0.3999123314
 40
0.4754561375
 40
0.5483715157
 40
0.6181126559
 40
0.7457416064
 40
0.8539175543
 40
0.8996030638
 40
0.9392121036
 40
0.9726768455
 40
1.0
 40
1.0
 40
1.0
 40
1.0
 10
9.1023322957
 20
8.0287326228
 30
0.0
 10
9.0974885999
 20
8.0289845962
 30
0.0
 10
9.0902594906
 20
8.0294766212
 30
0.0
 10
9.0806757839
 20
8.0301426118
 30
0.0
 10
9.0736177378
 20
8.0305768927
 30
0.0
 10
9.0666990537
 20
8.0309410468
 30
0.0
 10
9.0599658794
 20
8.0312500278
 30
0.0
 10
9.0534666052
 20
8.0315143763
 30
0.0
 10
9.0454146808
 20
8.0318086287
 30
0.0
 10
9.0363094601
 20
8.0320636249
 30
0.0
 10
9.0279171936
 20
8.0321163708
 30
0.0
 10
9.0221503679
 20
8.0320189057
 30
0.0
 10
9.0186120481
 20
8.0318934762
 30
0.0
 10
9.0156241693
 20
8.0317161698
 30
0.0
 10
9.0138190148
 20
8.0315505657
 30
0.0
 10
9.0130102403
 20
8.031454059
 30
0.0
  0
SPLINE
  5
2E0
100
AcDbEntity
  8
0
100
AcDbSpline
 62
9
  6
CONTINUOUS
 70
0
 71
3
 72
12
 73
8
 74
0
 42
0.0000001
 43
0.0000001
 44
0.0000000001
 40
0.0
 40
0.0
 40
0.0
 40
0.0
 40
0.3689673587
 40
0.653356041
 40
0.8598985558
 40
0.9372358587
 40
1.0
 40
1.0
 40
1.0
 40
1.0
 10
9.0130102403
 20
8.031454059
 30
0.0
 10
9.0124570204
 20
8.0313880462
 30
0.0
 10
9.0114787934
 20
8.0312531827
 30
0.0
 10
9.0102071585
 20
8.0309900098
 30
0.0
 10
9.0093855826
 20
8.0307242924
 30
0.0
 10
9.0089244325
 20
8.0304736819
 30
0.0
 10
9.0087578494
 20
8.0303398071
 30
0.0
 10
9.0086933484
 20
8.0302703677
 30
0.0
  0
SPLINE
  5
2E1
100
AcDbEntity
  8
0
100
AcDbSpline
 62
9
  6
CONTINUOUS
 70
0
 71
3
 72
21
 73
17
 74
0
 42
0.0000001
 43
0.0000001
 44
0.0000000001
 40
0.0
 40
0.0
 40
0.0
 40
0.0
 40
0.1648193621
 40
0.3267927977
 40
0.4048862247
 40
0.4801000125
 40
0.5517600784
 40
0.6192426437
 40
0.6820632255
 40
0.7400810857
 40
0.7932945748
 40
0.8418047207
 40
0.8859311872
 40
0.9264140375
 40
0.9641345043
 40
1.0
 40
1.0
 40
1.0
 40
1.0
 10
9.4149640841
 20
8.4125282867
 30
0.0
 10
9.4097868405
 20
8.4151795912
 30
0.0
 10
9.3993400097
 20
8.4200894702
 30
0.0
 10
9.385975352
 20
8.4251958011
 30
0.0
 10
9.3753255917
 20
8.4284319773
 30
0.0
 10
9.3676196159
 20
8.4303579433
 30
0.0
 10
9.3601860754
 20
8.4317842568
 30
0.0
 10
9.3531097538
 20
8.4326831048
 30
0.0
 10
9.3464653545
 20
8.4330232816
 30
0.0
 10
9.3403180033
 20
8.432817543
 30
0.0
 10
9.3347183897
 20
8.4320835168
 30
0.0
 10
9.3297103837
 20
8.4308376026
 30
0.0
 10
9.3253337432
 20
8.4290844632
 30
0.0
 10
9.3216060142
 20
8.4268686537
 30
0.0
 10
9.3185297442
 20
8.4242412494
 30
0.0
 10
9.3168829182
 20
8.4222106512
 30
0.0
 10
9.3161823917
 20
8.4211564541
 30
0.0
  0
SPLINE
  5
2E2
100
AcDbEntity
  8
0
100
AcDbSpline
 62
9
  6
CONTINUOUS
 70
0
 71
3
 72
13
 73
9
 74
0
 42
0.0000001
 43
0.0000001
 44
0.0000000001
 40
0.0
 40
0.0
 40
0.0
 40
0.0
 40
0.2457322697
 40
0.3698328407
 40
0.4946983141
 40
0.6202373097
 40
0.7463605537
 40
1.0
 40
1.0
 40
1.0
 40
1.0
 10
9.819306602
 20
9.6116681693
 30
0.0
 10
9.8182353041
 20
9.5954104904
 30
0.0
 10
9.816847382
 20
9.5709279384
 30
0.0
 10
9.8150276404
 20
9.5381782937
 30
0.0
 10
9.8135796812
 20
9.5133894377
 30
0.0
 10
9.8119863503
 20
9.4884749161
 30
0.0
 10
9.8095664578
 20
9.4550589681
 30
0.0
 10
9.8073486715
 20
9.4299736982
 30
0.0
 10
9.8056253797
 20
9.4132450142
 30
0.0
  0
SPLINE
  5
2E3
100
AcDbEntity
  8
0
100
AcDbSpline
 62
9
  6
CONTINUOUS
 70
0
 71
3
 72
14
 73
10
 74
0
 42
0.0000001
 43
0.0000001
 44
0.0000000001
 40
0.0
 40
0.0
 40
0.0
 40
0.0
 40
0.3187524695
 40
0.4645862935
 40
0.5989704515
 40
0.7203421269
 40
0.8279407241
 40
0.9212722554
 40
1.0
 40
1.0
 40
1.0
 40
1.0
 10
9.8056253797
 20
9.4132450142
 30
0.0
 10
9.8002198742
 20
9.4139858005
 30
0.0
 10
9.7923158424
 20
9.4149002935
 30
0.0
 10
9.7820891696
 20
9.4156445685
 30
0.0
 10
9.7752189868
 20
9.4159167222
 30
0.0
 10
9.768997529
 20
9.4159072873
 30
0.0
 10
9.7634848957
 20
9.4156259395
 30
0.0
 10
9.7587255372
 20
9.415085422
 30
0.0
 10
9.7558303121
 20
9.4145127482
 30
0.0
 10
9.7545282339
 20
9.4141655683
 30
0.0
  0
SPLINE
  5
2E4
100
AcDbEntity
  8
0
100
AcDbSpline
 62
9
  6
CONTINUOUS
 70
0
 71
3
 72
9
 73
5
 74
0
 42
0.0000001
 43
0.0000001
 44
0.0000000001
 40
0.0
 40
0.0
 40
0.0
 40
0.0
 40
0.251160634
 40
1.0
 40
1.0
 40
1.0
 40
1.0
 10
9.8517047384
 20
9.6116653944
 30
0.0
 10
9.848398428
 20
9.5949333504
 30
0.0
 10
9.8346197673
 20
9.5284360241
 30
0.0
 10
9.818581025
 20
9.4624176916
 30
0.0
 10
9.805626512
 20
9.413243968
 30
0.0
  0
ENDSEC
  0
SECTION
  2
OBJECTS
  0
DICTIONARY
  5
C
100
AcDbDictionary
280
0
281
1
  3
ACAD_GROUP
350
D
  3
ACAD_MLINESTYLE
350
17
  3
ACAD_LAYOUT
350
1A
  3
ACAD_PLOTSETTINGS
350
19
  3
ACAD_PLOTSTYLENAME
350
E
  0
DICTIONARY
  5
D
102
{ACAD_REACTORS
330
C
102
}
100
AcDbDictionary
280
0
281
1
  0
ACDBDICTIONARYWDFLT
  5
E
102
{ACAD_REACTORS
330
C
102
}
100
AcDbDictionary
281
1
  3
Normal
350
F
100
AcDbDictionaryWithDefault
340
F
  0
DICTIONARY
  5
17
102
{ACAD_REACTORS
330
C
102
}
100
AcDbDictionary
280
0
281
1
  3
Standard
350
18
  0
DICTIONARY
  5
19
102
{ACAD_REACTORS
330
C
102
}
100
AcDbDictionary
281
1
  0
DICTIONARY
  5
1A
102
{ACAD_REACTORS
330
C
102
}
100
AcDbDictionary
281
1
  3
Model
350
2E5
  3
Layout1
350
2E6
  0
ACDBPLACEHOLDER
  5
F
102
{ACAD_REACTORS
330
E
102
}
  0
MLINESTYLE
  5
18
102
{ACAD_REACTORS
330
17
102
}
100
AcDbMlineStyle
  2
STANDARD
 70
0
  3

 62
256
 51
90.0
 52
90.0
 71
2
 49
0.5
 62
256
  6
BYLAYER
 49
-0.5
 62
256
  6
BYLAYER
  0
LAYOUT
  5
2E5
102
{ACAD_REACTORS
330
1A
102
}
100
AcDbPlotSettings
  1

  2
none_device
  4
ANSI_C_(22.00_x_17.00_Inches)
  6

 40
0.0
 41
0.0
 42
0.0
 43
0.0
 44
558.8
 45
431.8
 46
0.0
 47
0.0
 48
0.0
 49
0.0
140
0.0
141
0.0
142
1.0
143
1.0
 70
1024
 72
0
 73
0
 74
0
  7

 75
0
147
1.0
148
0.0
149
0.0
100
AcDbLayout
  1
Model
 70
0
 71
0
 10
0.0
 20
0.0
 11
22.0
 21
17.0
 12
0.0
 22
0.0
 32
0.0
 14
0.0
 24
0.0
 34
0.0
 15
0.0
 25
0.0
 35
0.0
146
0.0
 13
0.0
 23
0.0
 33
0.0
 16
1.0
 26
0.0
 36
0.0
 17
0.0
 27
1.0
 37
0.0
 76
0
330
202
345
0
346
0
  0
LAYOUT
  5
2E6
102
{ACAD_REACTORS
330
1A
102
}
100
AcDbPlotSettings
  1

  2
none_device
  4
ANSI_C_(22.00_x_17.00_Inches)
  6

 40
0.0
 41
0.0
 42
0.0
 43
0.0
 44
558.8
 45
431.8
 46
0.0
 47
0.0
 48
0.0
 49
0.0
140
0.0
141
0.0
142
1.0
143
1.0
 70
0
 72
0
 73
0
 74
0
  7

 75
0
147
1.0
148
0.0
149
0.0
100
AcDbLayout
  1
Layout1
 70
0
 71
1
 10
0.0
 20
0.0
 11
22.0
 21
17.0
 12
0.0
 22
0.0
 32
0.0
 14
0.0
 24
0.0
 34
0.0
 15
0.0
 25
0.0
 35
0.0
146
0.0
 13
0.0
 23
0.0
 33
0.0
 16
1.0
 26
0.0
 36
0.0
 17
0.0
 27
1.0
 37
0.0
 76
0
330
203
345
0
346
0
  0
ENDSEC
  0
EOF
