999
DXF file: E:\BT Custom\CADOUTPUT\_RIGHT.dxf
999
Pro/ENGINEER 2018400 by Parametric Technology Corporation
  0
SECTION
  2
HEADER
  9
$ACADVER
  1
AC1018
  9
$DWGCODEPAGE
  3
ANSI_1252
  9
$EXTMAX
 10
22.0
 20
17.0
 30
0.0
  9
$EXTMIN
 10
0.0
 20
0.0
 30
0.0
  9
$LIMMIN
 10
0.0
 20
0.0
  9
$LIMMAX
 10
22.0
 20
17.0
  9
$VIEWCTR
 10
11.0
 20
8.5
  9
$VIEWSIZE
 40
17.0
  9
$CLAYER
  8
0
  9
$LTSCALE
 40
1.21
  9
$CELTYPE
  6
BYLAYER
  9
$DIMSCALE
 40
1.0
  9
$DIMASZ
 40
0.1
  9
$DIMEXO
 40
0.0625
  9
$DIMDLI
 40
0.836
  9
$DIMEXE
 40
0.125
  9
$DIMCEN
 40
0.198
  9
$DIMLFAC
 40
1.0
  9
$DIMBLK
  1
_FILLED
  9
$DIMALT
 70
1
  9
$DIMALTD
 70
2
  9
$DIMALTTD
 70
2
  9
$DIMALTF
 40
25.4
  9
$DIMTXT
 40
0.08
  9
$DIMTOL
 70
1
  9
$DIMLIM
 70
0
  9
$DIMTFAC
 40
1.0
  9
$DIMTP
 40
0.001
  9
$DIMTM
 40
0.001
  9
$DIMGAP
 40
0.09
  9
$DIMDSEP
 70
46
  9
$AUNITS
 70
0
  9
$PDMODE
 70
3
  9
$PDSIZE
 40
0.06
  9
$HANDSEED
  5
36B
  9
$TILEMODE
 70
1
  9
$MEASUREMENT
 70
0
  9
$INSUNITS
 70
1
  0
ENDSEC
  0
SECTION
  2
CLASSES
  0
CLASS
  1
ACDBDICTIONARYWDFLT
  2
AcDbDictionaryWithDefault
  3
AutoCAD 2000
 90
0
 91
1
280
0
281
0
  0
CLASS
  1
ACDBPLACEHOLDER
  2
AcDbPlaceHolder
  3
AutoCAD 2000
 90
0
 91
1
280
0
281
0
  0
CLASS
  1
LAYOUT
  2
AcDbLayout
  3
AutoCAD 2000
 90
0
 91
0
280
0
281
0
  0
ENDSEC
  0
SECTION
  2
TABLES
  0
TABLE
  2
VPORT
  5
8
100
AcDbSymbolTable
 70
2
  0
VPORT
  5
1F4
100
AcDbSymbolTableRecord
100
AcDbViewportTableRecord
  2
*ACTIVE
 70
0
 10
0.0
 20
0.0
 11
1.0
 21
1.0
 12
11.0
 22
8.5
 13
0.0
 23
0.0
 14
1.0
 24
1.0
 15
0.0
 25
0.0
 16
0.0
 26
0.0
 36
1.0
 17
0.0
 27
0.0
 37
0.0
 40
17.0
 41
1.2941176471
 42
50.0
 43
0.0
 44
0.0
 50
0.0
 51
0.0
 71
0
 72
100
 73
1
 74
1
 75
0
 76
0
 77
0
 78
0
  0
ENDTAB
  0
TABLE
  2
LTYPE
  5
5
100
AcDbSymbolTable
 70
6
  0
LTYPE
  5
14
100
AcDbSymbolTableRecord
100
AcDbLinetypeTableRecord
  2
BYBLOCK
 70
0
  3

 72
65
 73
0
 40
0.0
  0
LTYPE
  5
15
100
AcDbSymbolTableRecord
100
AcDbLinetypeTableRecord
  2
BYLAYER
 70
0
  3

 72
65
 73
0
 40
0.0
  0
LTYPE
  5
16
100
AcDbSymbolTableRecord
100
AcDbLinetypeTableRecord
  2
CONTINUOUS
 70
64
  3
Solid line
 72
65
 73
0
 40
0.0
  0
LTYPE
  5
1F5
100
AcDbSymbolTableRecord
100
AcDbLinetypeTableRecord
  2
CENTER
 70
64
  3
____ _ ____ _ ____ _ ____ _ ____ _ ____ _ ____
 72
65
 73
4
 40
0.6
 49
0.375
 74
0
 49
-0.075
 74
0
 49
0.075
 74
0
 49
-0.075
 74
0
  0
LTYPE
  5
1F6
100
AcDbSymbolTableRecord
100
AcDbLinetypeTableRecord
  2
HIDDEN
 70
64
  3
- - - - - - - - - - - - - - - - - - - -
 72
65
 73
2
 40
0.2
 49
0.1
 74
0
 49
-0.1
 74
0
  0
LTYPE
  5
1F7
100
AcDbSymbolTableRecord
100
AcDbLinetypeTableRecord
  2
PHANTOM
 70
64
  3
_____ _ _ _____ _ _ _____ _ _ _____
 72
65
 73
6
 40
0.8
 49
0.45
 74
0
 49
-0.05
 74
0
 49
0.1
 74
0
 49
-0.05
 74
0
 49
0.1
 74
0
 49
-0.05
 74
0
  0
LTYPE
  5
1F8
100
AcDbSymbolTableRecord
100
AcDbLinetypeTableRecord
  2
DOT
 70
64
  3
. . . . . . . . . . . . . . . . . . . .
 72
65
 73
2
 40
0.2
 49
0.1
 74
0
 49
-0.1
 74
0
  0
LTYPE
  5
1F9
100
AcDbSymbolTableRecord
100
AcDbLinetypeTableRecord
  2
DASHED
 70
64
  3
- - - - - - - - - - - - - - - - - - - -
 72
65
 73
2
 40
0.2
 49
0.1
 74
0
 49
-0.1
 74
0
  0
ENDTAB
  0
TABLE
  2
LAYER
  5
2
100
AcDbSymbolTable
 70
36
  0
LAYER
  5
10
100
AcDbSymbolTableRecord
100
AcDbLayerTableRecord
  2
0
 70
0
 62
7
  6
CONTINUOUS
370
-3
390
F
  0
LAYER
  5
1FA
100
AcDbSymbolTableRecord
100
AcDbLayerTableRecord
  2
DEFAULT_1
 70
0
 62
7
  6
CENTER
370
-3
390
F
  0
LAYER
  5
1FB
100
AcDbSymbolTableRecord
100
AcDbLayerTableRecord
  2
DEFAULT_2
 70
0
 62
8
  6
HIDDEN
370
-3
390
F
  0
LAYER
  5
1FC
100
AcDbSymbolTableRecord
100
AcDbLayerTableRecord
  2
DEFAULT_3
 70
0
 62
7
  6
PHANTOM
370
-3
390
F
  0
LAYER
  5
1FD
100
AcDbSymbolTableRecord
100
AcDbLayerTableRecord
  2
ALL_FEATURES
 70
0
 62
7
  6
CONTINUOUS
370
-3
390
F
  0
LAYER
  5
1FE
100
AcDbSymbolTableRecord
100
AcDbLayerTableRecord
  2
AXES_FEATURES
 70
0
 62
7
  6
CONTINUOUS
370
-3
390
F
  0
LAYER
  5
1FF
100
AcDbSymbolTableRecord
100
AcDbLayerTableRecord
  2
DIMENSIONS
 70
0
 62
7
  6
CONTINUOUS
370
-3
390
F
  0
ENDTAB
  0
TABLE
  2
STYLE
  5
3
100
AcDbSymbolTable
 70
1
  0
STYLE
  5
11
100
AcDbSymbolTableRecord
100
AcDbTextStyleTableRecord
  2
STANDARD
 70
0
 40
0.0
 41
0.8
 50
0.0
 71
0
 42
0.2
  3
txt
  4

  0
STYLE
  5
200
100
AcDbSymbolTableRecord
100
AcDbTextStyleTableRecord
  2
TEXTSTYLE_1
 70
0
 40
0.0
 41
0.8
 50
0.0
 71
0
 42
0.2
  3
gdt
  4

  0
ENDTAB
  0
TABLE
  2
VIEW
  5
6
100
AcDbSymbolTable
 70
0
  0
ENDTAB
  0
TABLE
  2
UCS
  5
7
100
AcDbSymbolTable
 70
0
  0
ENDTAB
  0
TABLE
  2
APPID
  5
9
100
AcDbSymbolTable
 70
1
  0
APPID
  5
201
100
AcDbSymbolTableRecord
100
AcDbRegAppTableRecord
  2
ACAD
 70
0
  0
ENDTAB
  0
TABLE
  2
BLOCK_RECORD
  5
1
100
AcDbSymbolTable
 70
0
  0
BLOCK_RECORD
  5
202
100
AcDbSymbolTableRecord
100
AcDbBlockTableRecord
  2
*Model_Space
  0
BLOCK_RECORD
  5
203
100
AcDbSymbolTableRecord
100
AcDbBlockTableRecord
  2
*Paper_Space
  0
BLOCK_RECORD
  5
204
100
AcDbSymbolTableRecord
100
AcDbBlockTableRecord
  2
_FILLED
  0
ENDTAB
  0
TABLE
  2
DIMSTYLE
  5
A
100
AcDbSymbolTable
 70
1
100
AcDbDimStyleTable
 71
0
  0
DIMSTYLE
105
205
100
AcDbSymbolTableRecord
100
AcDbDimStyleTableRecord
  2
STANDARD
 70
0
  3

  4

 40
1.0
 41
0.1
 42
0.0625
 43
0.38
 44
0.125
 45
0.0
 46
0.0
 47
0.001
 48
0.001
140
0.08
141
0.09
142
0.0
143
25.4
144
1.0
145
0.0
146
1.0
147
0.09
 71
1.0
 72
0.0
 73
1
 74
1
 75
0
 76
0
 77
0
 78
4
 79
1
170
1
171
2
172
0
173
0
174
0
175
0
176
0
177
0
178
0
270
2
179
3
271
3
272
3
273
2
274
2
275
0
280
0
281
0
282
0
283
1
284
4
285
0
286
0
287
3
288
0
340
11
278
46
341
204
342
204
343
204
344
204
  0
ENDTAB
  0
ENDSEC
  0
SECTION
  2
BLOCKS
  0
BLOCK
  5
20
100
AcDbEntity
  8
0
100
AcDbBlockBegin
  2
*Model_Space
 70
0
 10
0.0
 20
0.0
 30
0.0
  3
*Model_Space
  1

  0
ENDBLK
  5
21
100
AcDbEntity
  8
0
100
AcDbBlockEnd
  0
BLOCK
  5
1C
100
AcDbEntity
  8
0
100
AcDbBlockBegin
  2
*Paper_Space
 70
0
 10
0.0
 20
0.0
 30
0.0
  3
*Paper_Space
  1

  0
ENDBLK
  5
1D
100
AcDbEntity
  8
0
100
AcDbBlockEnd
  0
BLOCK
  5
206
100
AcDbEntity
  8
0
100
AcDbBlockBegin
  2
_FILLED
 70
64
 10
0.0
 20
0.0
  3
_FILLED
  1

  0
SOLID
  5
207
100
AcDbEntity
  8
0
  6
BYBLOCK
 62
0
100
AcDbTrace
 10
0.0
 20
0.0
 11
-1.0
 21
0.2
 12
-1.0
 22
-0.2
 13
-1.0
 23
-0.2
  0
ENDBLK
  5
208
100
AcDbEntity
  8
0
  6
BYBLOCK
 62
0
100
AcDbBlockEnd
  0
ENDSEC
  0
SECTION
  2
ENTITIES
  0
LINE
  5
209
100
AcDbEntity
  8
0
100
AcDbLine
 62
7
  6
CONTINUOUS
 10
11.788033307
 20
7.7388879718
 11
11.7879463209
 21
7.7388875461
  0
LINE
  5
20A
100
AcDbEntity
  8
0
100
AcDbLine
 62
9
  6
CONTINUOUS
 10
9.7779118547
 20
7.771001905
 11
9.7102932738
 21
7.7709458117
  0
LINE
  5
20B
100
AcDbEntity
  8
0
100
AcDbLine
 62
9
  6
CONTINUOUS
 10
10.7099834891
 20
7.7726602885
 11
9.8982118764
 21
7.7724813974
  0
LINE
  5
20C
100
AcDbEntity
  8
0
100
AcDbLine
 62
7
  6
CONTINUOUS
 10
9.6849846053
 20
7.7288875484
 11
11.734982373
 21
7.7288875484
  0
LINE
  5
20D
100
AcDbEntity
  8
0
100
AcDbLine
 62
7
  6
CONTINUOUS
 10
9.6313107595
 20
7.7388875484
 11
11.7886527328
 21
7.7388875484
  0
LINE
  5
20E
100
AcDbEntity
  8
0
100
AcDbLine
 62
9
  6
CONTINUOUS
 10
11.5217552634
 20
7.7724813533
 11
10.7099834891
 21
7.7726602885
  0
LINE
  5
20F
100
AcDbEntity
  8
0
100
AcDbLine
 62
9
  6
CONTINUOUS
 10
11.709673698
 20
7.7709458374
 11
11.6420551154
 21
7.7710019261
  0
LINE
  5
210
100
AcDbEntity
  8
0
100
AcDbLine
 62
7
  6
CONTINUOUS
 10
9.6849834891
 20
7.7388875484
 11
9.6849834891
 21
7.7288875484
  0
LWPOLYLINE
  5
211
100
AcDbEntity
  8
0
100
AcDbPolyline
 62
7
  6
CONTINUOUS
 90
8
 70
0
 10
10.6415537785
 20
10.2122965515
 10
10.6394062586
 20
10.2081672938
 10
10.6366794014
 20
10.2041675335
 10
10.63335921
 20
10.2003956966
 10
10.6294521067
 20
10.1969615794
 10
10.6249745546
 20
10.1939724689
 10
10.6199604081
 20
10.1915406928
 10
10.6156849616
 20
10.1900981541
  0
LINE
  5
212
100
AcDbEntity
  8
0
100
AcDbLine
 62
7
  6
CONTINUOUS
 10
10.2179834891
 20
9.8098875484
 11
10.2179834891
 21
9.9058875484
  0
LINE
  5
213
100
AcDbEntity
  8
0
100
AcDbLine
 62
7
  6
CONTINUOUS
 10
10.3164834891
 20
9.7108875484
 11
10.3164834891
 21
9.7198875484
  0
LINE
  5
214
100
AcDbEntity
  8
0
100
AcDbLine
 62
7
  6
CONTINUOUS
 10
10.3164834891
 20
9.9958875484
 11
10.3164834891
 21
10.0048875484
  0
LINE
  5
215
100
AcDbEntity
  8
0
100
AcDbLine
 62
9
  6
CONTINUOUS
 10
10.3197466028
 20
9.9058875484
 11
10.3197466028
 21
9.8098875484
  0
LWPOLYLINE
  5
216
100
AcDbEntity
  8
0
100
AcDbPolyline
 62
7
  6
CONTINUOUS
 90
4
 70
0
 10
10.3559834891
 20
9.3538875484
 10
10.2995822065
 20
9.0322958914
 10
10.2028201291
 20
8.7122132203
 10
10.0678220749
 20
8.4059847141
  0
LINE
  5
217
100
AcDbEntity
  8
0
100
AcDbLine
 62
7
  6
CONTINUOUS
 10
10.3949834891
 20
9.6608875484
 11
10.3949834891
 21
9.4648875484
  0
LINE
  5
218
100
AcDbEntity
  8
0
100
AcDbLine
 62
9
  6
CONTINUOUS
 10
10.3966766868
 20
9.7108875484
 11
10.3966766868
 21
9.7198875484
  0
LINE
  5
219
100
AcDbEntity
  8
0
100
AcDbLine
 62
9
  6
CONTINUOUS
 10
10.3966766868
 20
9.9958875484
 11
10.3966766868
 21
10.0048875484
  0
LINE
  5
21A
100
AcDbEntity
  8
0
100
AcDbLine
 62
7
  6
CONTINUOUS
 10
10.4569834891
 20
9.3848875484
 11
10.4569834891
 21
9.3538875484
  0
LINE
  5
21B
100
AcDbEntity
  8
0
100
AcDbLine
 62
7
  6
CONTINUOUS
 10
10.5720681878
 20
9.9586283257
 11
10.5707917953
 21
9.9499460896
  0
LWPOLYLINE
  5
21C
100
AcDbEntity
  8
0
100
AcDbPolyline
 62
7
  6
CONTINUOUS
 90
9
 70
0
 10
10.0678220749
 20
8.4059847141
 10
10.0616748974
 20
8.3941465494
 10
10.0546847584
 20
8.3808655153
 10
10.0471398579
 20
8.3667501511
 10
10.0391621328
 20
8.3520736452
 10
10.0307212588
 20
8.3368196963
 10
10.0217503295
 20
8.3209094471
 10
10.0131474613
 20
8.3059380065
 10
10.0049257809
 20
8.2918914987
  0
LINE
  5
21D
100
AcDbEntity
  8
0
100
AcDbLine
 62
7
  6
CONTINUOUS
 10
10.0049257809
 20
8.2918914987
 11
9.9954358567
 21
8.2759931797
  0
LINE
  5
21E
100
AcDbEntity
  8
0
100
AcDbLine
 62
7
  6
CONTINUOUS
 10
9.9967878943
 20
8.2782378569
 11
9.9954358567
 21
8.2759931797
  0
LINE
  5
21F
100
AcDbEntity
  8
0
100
AcDbLine
 62
7
  6
CONTINUOUS
 10
10.002522664
 20
8.2878008318
 11
9.9241433521
 21
8.1633787735
  0
LWPOLYLINE
  5
220
100
AcDbEntity
  8
0
100
AcDbPolyline
 62
7
  6
CONTINUOUS
 90
3
 70
0
 10
10.5720715258
 20
9.7570905308
 10
10.5743082704
 20
9.7123875127
 10
10.576628139
 20
9.6504296131
  0
LINE
  5
221
100
AcDbEntity
  8
0
100
AcDbLine
 62
7
  6
CONTINUOUS
 10
10.576628139
 20
9.6504296131
 11
10.5788888915
 21
9.5743902615
  0
LINE
  5
222
100
AcDbEntity
  8
0
100
AcDbLine
 62
9
  6
CONTINUOUS
 10
10.5720709175
 20
9.7571006993
 11
10.5719834883
 21
9.7600803356
  0
LINE
  5
223
100
AcDbEntity
  8
0
100
AcDbLine
 62
9
  6
CONTINUOUS
 10
10.578888916
 20
9.5743961178
 11
10.5788723824
 21
9.5757355446
  0
LINE
  5
224
100
AcDbEntity
  8
0
100
AcDbLine
 62
9
  6
CONTINUOUS
 10
10.5200623363
 20
9.9058875484
 11
10.5200623363
 21
9.8098875484
  0
LINE
  5
225
100
AcDbEntity
  8
0
100
AcDbLine
 62
9
  6
CONTINUOUS
 10
10.5719834891
 20
9.9556936351
 11
10.5719834891
 21
9.7600803178
  0
LINE
  5
226
100
AcDbEntity
  8
0
100
AcDbLine
 62
9
  6
CONTINUOUS
 10
10.5788889465
 20
10.141378983
 11
10.5788724163
 21
10.1400372414
  0
LINE
  5
227
100
AcDbEntity
  8
0
100
AcDbLine
 62
9
  6
CONTINUOUS
 10
10.5720681878
 20
9.9586283257
 11
10.5719835067
 21
9.9556782359
  0
LWPOLYLINE
  5
228
100
AcDbEntity
  8
0
100
AcDbPolyline
 62
7
  6
CONTINUOUS
 90
4
 70
0
 10
10.5788897409
 20
10.1414082304
 10
10.5766333243
 20
10.0655020087
 10
10.5743134786
 20
10.0035088015
 10
10.5720715069
 20
9.9586842499
  0
LWPOLYLINE
  5
229
100
AcDbEntity
  8
0
100
AcDbPolyline
 62
7
  6
CONTINUOUS
 90
8
 70
0
 10
10.644981386
 20
10.2265195125
 10
10.6449826476
 20
10.2265602147
 10
10.6449781204
 20
10.2264520055
 10
10.6449380563
 20
10.2257528409
 10
10.6447531172
 20
10.2238048588
 10
10.6442132403
 20
10.2205126942
 10
10.6431715528
 20
10.2165360865
 10
10.6415537785
 20
10.2122965515
  0
LINE
  5
22A
100
AcDbEntity
  8
0
100
AcDbLine
 62
7
  6
CONTINUOUS
 10
10.5720705827
 20
9.9586687896
 11
10.5720681878
 21
9.9586283257
  0
LWPOLYLINE
  5
22B
100
AcDbEntity
  8
0
100
AcDbPolyline
 62
7
  6
CONTINUOUS
 90
8
 70
0
 10
10.7784149827
 20
9.5034825349
 10
10.7805626447
 20
9.5076110464
 10
10.7832895595
 20
9.5116101418
 10
10.7866097252
 20
9.51538138
 10
10.790516708
 20
9.5188149522
 10
10.7949940315
 20
9.5218035739
 10
10.8000078174
 20
9.5242349288
 10
10.8042820107
 20
9.5256769661
  0
LINE
  5
22C
100
AcDbEntity
  8
0
100
AcDbLine
 62
7
  6
CONTINUOUS
 10
10.061423915
 20
8.1606741291
 11
10.058306454
 21
8.15498998
  0
LWPOLYLINE
  5
22D
100
AcDbEntity
  8
0
100
AcDbPolyline
 62
7
  6
CONTINUOUS
 90
4
 70
0
 10
10.0583072196
 20
8.1549910089
 10
9.9784284496
 20
8.0178136145
 10
9.8890230163
 20
7.8806764519
 10
9.8096699123
 20
7.7709733656
  0
LINE
  5
22E
100
AcDbEntity
  8
0
100
AcDbLine
 62
7
  6
CONTINUOUS
 10
9.9241433521
 20
8.1633787735
 11
9.9241391657
 21
8.1633724676
  0
LWPOLYLINE
  5
22F
100
AcDbEntity
  8
0
100
AcDbPolyline
 62
7
  6
CONTINUOUS
 90
3
 70
0
 10
9.9241391079
 20
8.1633725912
 10
9.8279284354
 20
8.0265704739
 10
9.7197559294
 20
7.889520665
  0
LINE
  5
230
100
AcDbEntity
  8
0
100
AcDbLine
 62
7
  6
CONTINUOUS
 10
10.5720715258
 20
9.7570905308
 11
10.5720709175
 21
9.7571006993
  0
LINE
  5
231
100
AcDbEntity
  8
0
100
AcDbLine
 62
7
  6
CONTINUOUS
 10
10.6447527241
 20
9.4918753554
 11
10.6449206273
 21
9.4799448099
  0
LINE
  5
232
100
AcDbEntity
  8
0
100
AcDbLine
 62
7
  6
CONTINUOUS
 10
10.6449213191
 20
9.492781302
 11
10.6449211622
 21
9.4927937125
  0
LINE
  5
233
100
AcDbEntity
  8
0
100
AcDbLine
 62
9
  6
CONTINUOUS
 10
10.6449241764
 20
9.4922816445
 11
10.6449213191
 21
9.492781302
  0
LINE
  5
234
100
AcDbEntity
  8
0
100
AcDbLine
 62
9
  6
CONTINUOUS
 10
10.6449171638
 20
9.4805645913
 11
10.6449206089
 21
9.4799520172
  0
LINE
  5
235
100
AcDbEntity
  8
0
100
AcDbLine
 62
9
  6
CONTINUOUS
 10
10.7099834891
 20
9.3538868516
 11
10.7099834891
 21
7.7726602885
  0
LINE
  5
236
100
AcDbEntity
  8
0
100
AcDbLine
 62
9
  6
CONTINUOUS
 10
10.6449171678
 20
10.235210075
 11
10.6449206084
 21
10.2358227331
  0
LINE
  5
237
100
AcDbEntity
  8
0
100
AcDbLine
 62
9
  6
CONTINUOUS
 10
10.6449241771
 20
10.2234928471
 11
10.644921318
 21
10.2229953149
  0
LINE
  5
238
100
AcDbEntity
  8
0
100
AcDbLine
 62
7
  6
CONTINUOUS
 10
10.644921318
 20
10.2229953149
 11
10.64492124
 21
10.2229891037
  0
LINE
  5
239
100
AcDbEntity
  8
0
100
AcDbLine
 62
7
  6
CONTINUOUS
 10
10.6449206978
 20
10.2358299869
 11
10.6447511805
 21
10.2237930489
  0
LINE
  5
23A
100
AcDbEntity
  8
0
100
AcDbLine
 62
7
  6
CONTINUOUS
 10
9.7197559294
 20
7.889520665
 11
9.6166543482
 21
7.7724926815
  0
LINE
  5
23B
100
AcDbEntity
  8
0
100
AcDbLine
 62
7
  6
CONTINUOUS
 10
11.8033229991
 20
7.7724813334
 11
11.8033124537
 21
7.7724928719
  0
LWPOLYLINE
  5
23C
100
AcDbEntity
  8
0
100
AcDbPolyline
 62
7
  6
CONTINUOUS
 90
4
 70
0
 10
11.8033124537
 20
7.7724928719
 10
11.7002187331
 20
7.8895114808
 10
11.5920488075
 20
8.0265567193
 10
11.4958279199
 20
8.1633726179
  0
LINE
  5
23D
100
AcDbEntity
  8
0
100
AcDbLine
 62
7
  6
CONTINUOUS
 10
11.6103109518
 20
7.7709549247
 11
11.6103008119
 21
7.7709686445
  0
LWPOLYLINE
  5
23E
100
AcDbEntity
  8
0
100
AcDbPolyline
 62
7
  6
CONTINUOUS
 90
4
 70
0
 10
11.6103008119
 20
7.7709686445
 10
11.5309590066
 20
7.8806548017
 10
11.441549169
 20
8.0177963174
 10
11.361659838
 20
8.1549910335
  0
LINE
  5
23F
100
AcDbEntity
  8
0
100
AcDbLine
 62
7
  6
CONTINUOUS
 10
10.5705341767
 20
9.7665841157
 11
10.5720684328
 21
9.7571426019
  0
LINE
  5
240
100
AcDbEntity
  8
0
100
AcDbLine
 62
7
  6
CONTINUOUS
 10
10.7752142364
 20
10.2239009999
 11
10.7750463509
 21
10.2358302867
  0
LINE
  5
241
100
AcDbEntity
  8
0
100
AcDbLine
 62
7
  6
CONTINUOUS
 10
10.775045662
 20
10.2229935546
 11
10.7750457184
 21
10.2229890552
  0
LINE
  5
242
100
AcDbEntity
  8
0
100
AcDbLine
 62
9
  6
CONTINUOUS
 10
10.7750428046
 20
10.2234931245
 11
10.775045662
 21
10.2229935546
  0
LINE
  5
243
100
AcDbEntity
  8
0
100
AcDbLine
 62
9
  6
CONTINUOUS
 10
10.7750498111
 20
10.2352105055
 11
10.7750463658
 21
10.2358230798
  0
LINE
  5
244
100
AcDbEntity
  8
0
100
AcDbLine
 62
9
  6
CONTINUOUS
 10
10.775049814
 20
9.4805650212
 11
10.7750463736
 21
9.4799523627
  0
LINE
  5
245
100
AcDbEntity
  8
0
100
AcDbLine
 62
9
  6
CONTINUOUS
 10
10.7750427974
 20
9.4922819382
 11
10.7750456566
 21
9.4927794804
  0
LINE
  5
246
100
AcDbEntity
  8
0
100
AcDbLine
 62
9
  6
CONTINUOUS
 10
10.841078062
 20
9.5743961026
 11
10.8410945912
 21
9.5757377443
  0
LINE
  5
247
100
AcDbEntity
  8
0
100
AcDbLine
 62
7
  6
CONTINUOUS
 10
10.7750456566
 20
9.4927794804
 11
10.7750458361
 21
9.4927936513
  0
LINE
  5
248
100
AcDbEntity
  8
0
100
AcDbLine
 62
7
  6
CONTINUOUS
 10
10.775046284
 20
9.4799450957
 11
10.7752200698
 21
9.4922855305
  0
LINE
  5
249
100
AcDbEntity
  8
0
100
AcDbLine
 62
9
  6
CONTINUOUS
 10
10.8478987867
 20
9.7571467114
 11
10.8479834564
 21
9.7601073605
  0
LWPOLYLINE
  5
24A
100
AcDbEntity
  8
0
100
AcDbPolyline
 62
7
  6
CONTINUOUS
 90
4
 70
0
 10
10.8410772655
 20
9.5743667803
 10
10.8433336444
 20
9.6502727939
 10
10.84565349
 20
9.7122660737
 10
10.8478954714
 20
9.7570908466
  0
LWPOLYLINE
  5
24B
100
AcDbEntity
  8
0
100
AcDbPolyline
 62
7
  6
CONTINUOUS
 90
8
 70
0
 10
10.7749856567
 20
9.4892539671
 10
10.7749844359
 20
9.4892145253
 10
10.7749891126
 20
9.4893265165
 10
10.7750294488
 20
9.4900290278
 10
10.7752147919
 20
9.491977712
 10
10.7757551432
 20
9.4952691297
 10
10.7767971024
 20
9.4992442855
 10
10.7784149827
 20
9.5034825349
  0
LINE
  5
24C
100
AcDbEntity
  8
0
100
AcDbLine
 62
7
  6
CONTINUOUS
 10
10.8478968745
 20
9.7571143586
 11
10.8478987867
 21
9.7571467114
  0
LINE
  5
24D
100
AcDbEntity
  8
0
100
AcDbLine
 62
7
  6
CONTINUOUS
 10
10.8478987867
 20
9.7571467114
 11
10.8491752652
 21
9.7658292875
  0
LINE
  5
24E
100
AcDbEntity
  8
0
100
AcDbLine
 62
7
  6
CONTINUOUS
 10
9.8096699123
 20
7.7709733656
 11
9.8096561952
 21
7.7709549288
  0
LINE
  5
24F
100
AcDbEntity
  8
0
100
AcDbLine
 62
7
  6
CONTINUOUS
 10
9.6166543482
 20
7.7724926815
 11
9.6166440107
 21
7.7724813673
  0
LWPOLYLINE
  5
250
100
AcDbEntity
  8
0
100
AcDbPolyline
 62
7
  6
CONTINUOUS
 90
6
 70
0
 10
10.6418227218
 20
9.5028647391
 10
10.6433608597
 20
9.4986263644
 10
10.6443267296
 20
9.4946947375
 10
10.644800599
 20
9.4915585019
 10
10.6449528186
 20
9.4897937289
 10
10.6449714333
 20
9.4894616719
  0
LWPOLYLINE
  5
251
100
AcDbEntity
  8
0
100
AcDbPolyline
 62
7
  6
CONTINUOUS
 90
3
 70
0
 10
10.8478954524
 20
9.9586845661
 10
10.8456587212
 20
10.0033872786
 10
10.8433388526
 20
10.0653450789
  0
LINE
  5
252
100
AcDbEntity
  8
0
100
AcDbLine
 62
7
  6
CONTINUOUS
 10
10.8433388526
 20
10.0653450789
 11
10.8410780867
 21
10.1413848381
  0
LINE
  5
253
100
AcDbEntity
  8
0
100
AcDbLine
 62
9
  6
CONTINUOUS
 10
10.8478954524
 20
9.9586845661
 11
10.84798349
 21
9.9556947716
  0
LINE
  5
254
100
AcDbEntity
  8
0
100
AcDbLine
 62
9
  6
CONTINUOUS
 10
10.841077998
 20
10.1413777365
 11
10.8410945021
 21
10.1400395524
  0
LINE
  5
255
100
AcDbEntity
  8
0
100
AcDbLine
 62
9
  6
CONTINUOUS
 10
10.8479834891
 20
9.7600814535
 11
10.8479834891
 21
9.9556947895
  0
LINE
  5
256
100
AcDbEntity
  8
0
100
AcDbLine
 62
9
  6
CONTINUOUS
 10
10.899904642
 20
9.9058875484
 11
10.899904642
 21
9.8098875484
  0
LINE
  5
257
100
AcDbEntity
  8
0
100
AcDbLine
 62
7
  6
CONTINUOUS
 10
11.4958277039
 20
8.1633727612
 11
11.4958237756
 21
8.1633786783
  0
LINE
  5
258
100
AcDbEntity
  8
0
100
AcDbLine
 62
7
  6
CONTINUOUS
 10
11.4958237756
 20
8.1633786783
 11
11.4174247796
 21
8.2878335513
  0
LINE
  5
259
100
AcDbEntity
  8
0
100
AcDbLine
 62
7
  6
CONTINUOUS
 10
11.4245449025
 20
8.2759703323
 11
11.4151241056
 21
8.2917511498
  0
LINE
  5
25A
100
AcDbEntity
  8
0
100
AcDbLine
 62
7
  6
CONTINUOUS
 10
11.3616605242
 20
8.15498998
 11
11.3586271684
 21
8.160520337
  0
LINE
  5
25B
100
AcDbEntity
  8
0
100
AcDbLine
 62
7
  6
CONTINUOUS
 10
10.9629834891
 20
9.3848875484
 11
10.9629834891
 21
9.3538875484
  0
LINE
  5
25C
100
AcDbEntity
  8
0
100
AcDbLine
 62
9
  6
CONTINUOUS
 10
11.0232902914
 20
9.7108875484
 11
11.0232902914
 21
9.7198875484
  0
LINE
  5
25D
100
AcDbEntity
  8
0
100
AcDbLine
 62
9
  6
CONTINUOUS
 10
11.0232902914
 20
9.9958875484
 11
11.0232902914
 21
10.0048875484
  0
LINE
  5
25E
100
AcDbEntity
  8
0
100
AcDbLine
 62
7
  6
CONTINUOUS
 10
11.0249834891
 20
9.6608875484
 11
11.0249834891
 21
9.4648875484
  0
LINE
  5
25F
100
AcDbEntity
  8
0
100
AcDbLine
 62
7
  6
CONTINUOUS
 10
11.0639750362
 20
9.3538875484
 11
10.3559919421
 21
9.3538875484
  0
LINE
  5
260
100
AcDbEntity
  8
0
100
AcDbLine
 62
7
  6
CONTINUOUS
 10
10.5722433695
 20
9.7641919034
 11
10.5705341767
 21
9.7665841157
  0
LWPOLYLINE
  5
261
100
AcDbEntity
  8
0
100
AcDbPolyline
 62
7
  6
CONTINUOUS
 90
8
 70
0
 10
11.4151241056
 20
8.2917511498
 10
11.4068953776
 20
8.3058072332
 10
11.3982877273
 20
8.3207846037
 10
11.3893052646
 20
8.336713077
 10
11.3808508027
 20
8.351989834
 10
11.3728592106
 20
8.3666906042
 10
11.3653023996
 20
8.3808274568
 10
11.3583018608
 20
8.3941278325
  0
LINE
  5
262
100
AcDbEntity
  8
0
100
AcDbLine
 62
7
  6
CONTINUOUS
 10
11.3582966081
 20
8.3941379481
 11
11.3521449034
 21
8.4059847141
  0
LWPOLYLINE
  5
263
100
AcDbEntity
  8
0
100
AcDbPolyline
 62
7
  6
CONTINUOUS
 90
4
 70
0
 10
11.3521449034
 20
8.4059847141
 10
11.2171468491
 20
8.7122132203
 10
11.1203847718
 20
9.0322958914
 10
11.0639834891
 20
9.3538875484
  0
LINE
  5
264
100
AcDbEntity
  8
0
100
AcDbLine
 62
7
  6
CONTINUOUS
 10
10.8494328373
 20
9.9491908772
 11
10.8478985467
 21
9.9586324665
  0
LINE
  5
265
100
AcDbEntity
  8
0
100
AcDbLine
 62
9
  6
CONTINUOUS
 10
11.1002203755
 20
9.9058875484
 11
11.1002203755
 21
9.8098875484
  0
LINE
  5
266
100
AcDbEntity
  8
0
100
AcDbLine
 62
7
  6
CONTINUOUS
 10
11.1034834891
 20
9.7108875484
 11
11.1034834891
 21
9.7198875484
  0
LINE
  5
267
100
AcDbEntity
  8
0
100
AcDbLine
 62
7
  6
CONTINUOUS
 10
11.1034834891
 20
9.9958875484
 11
11.1034834891
 21
10.0048875484
  0
LINE
  5
268
100
AcDbEntity
  8
0
100
AcDbLine
 62
7
  6
CONTINUOUS
 10
11.0444834891
 20
9.3848875484
 11
10.3754834891
 21
9.3848875484
  0
LINE
  5
269
100
AcDbEntity
  8
0
100
AcDbLine
 62
7
  6
CONTINUOUS
 10
10.7249062201
 20
9.4248790371
 11
10.6950607581
 21
9.4248790371
  0
LINE
  5
26A
100
AcDbEntity
  8
0
100
AcDbLine
 62
7
  6
CONTINUOUS
 10
11.0444834891
 20
9.4648875484
 11
10.7738622384
 21
9.4648875484
  0
LINE
  5
26B
100
AcDbEntity
  8
0
100
AcDbLine
 62
7
  6
CONTINUOUS
 10
10.646097191
 20
9.4648875484
 11
10.3754834891
 21
9.4648875484
  0
LWPOLYLINE
  5
26C
100
AcDbEntity
  8
0
100
AcDbPolyline
 62
7
  6
CONTINUOUS
 90
8
 70
0
 10
10.6156849501
 20
9.5256769713
 10
10.6200146076
 20
9.5242126185
 10
10.6250961402
 20
9.5217325446
 10
10.6296448989
 20
9.5186642108
 10
10.6336119789
 20
9.5151239948
 10
10.6369688627
 20
9.5112291604
 10
10.6397018075
 20
9.5071039856
 10
10.6418227218
 20
9.5028647391
  0
LINE
  5
26D
100
AcDbEntity
  8
0
100
AcDbLine
 62
7
  6
CONTINUOUS
 10
11.2019834891
 20
9.8098875484
 11
11.2019834891
 21
9.9058875484
  0
LWPOLYLINE
  5
26E
100
AcDbEntity
  8
0
100
AcDbPolyline
 62
7
  6
CONTINUOUS
 90
6
 70
0
 10
10.7781427551
 20
10.2129138757
 10
10.7766049313
 20
10.2171526847
 10
10.7756393898
 20
10.2210847704
 10
10.7751656914
 20
10.2242225636
 10
10.7750137312
 20
10.2259871624
 10
10.7749952198
 20
10.2263180828
  0
LINE
  5
26F
100
AcDbEntity
  8
0
100
AcDbLine
 62
9
  6
CONTINUOUS
 10
10.7246543579
 20
9.5881390685
 11
10.6953126203
 21
9.5881390685
  0
LINE
  5
270
100
AcDbEntity
  8
0
100
AcDbLine
 62
7
  6
CONTINUOUS
 10
10.3664799371
 20
9.6608875484
 11
10.576236566
 21
9.6608875484
  0
LINE
  5
271
100
AcDbEntity
  8
0
100
AcDbLine
 62
7
  6
CONTINUOUS
 10
10.8437308583
 20
9.6608875484
 11
11.053474732
 21
9.6608875484
  0
LINE
  5
272
100
AcDbEntity
  8
0
100
AcDbLine
 62
7
  6
CONTINUOUS
 10
10.8477243615
 20
9.9515823583
 11
10.8494328373
 21
9.9491908772
  0
LINE
  5
273
100
AcDbEntity
  8
0
100
AcDbLine
 62
9
  6
CONTINUOUS
 10
10.3164834891
 20
9.7108875484
 11
10.574364433
 21
9.7108875484
  0
LINE
  5
274
100
AcDbEntity
  8
0
100
AcDbLine
 62
9
  6
CONTINUOUS
 10
10.8456019043
 20
9.7108875484
 11
11.1034834891
 21
9.7108875484
  0
LINE
  5
275
100
AcDbEntity
  8
0
100
AcDbLine
 62
9
  6
CONTINUOUS
 10
11.1034834891
 20
9.7198875484
 11
10.84603469
 21
9.7198875484
  0
LINE
  5
276
100
AcDbEntity
  8
0
100
AcDbLine
 62
9
  6
CONTINUOUS
 10
10.5739330012
 20
9.7198875484
 11
10.3164834891
 21
9.7198875484
  0
LINE
  5
277
100
AcDbEntity
  8
0
100
AcDbLine
 62
7
  6
CONTINUOUS
 10
10.2679946503
 20
9.7598875484
 11
10.5716223761
 21
9.7598875484
  0
LINE
  5
278
100
AcDbEntity
  8
0
100
AcDbLine
 62
7
  6
CONTINUOUS
 10
10.8479834891
 20
9.7598875484
 11
11.1519882156
 21
9.7598875484
  0
LINE
  5
279
100
AcDbEntity
  8
0
100
AcDbLine
 62
9
  6
CONTINUOUS
 10
10.8919702594
 20
9.8098668997
 11
11.2019834891
 21
9.8098875484
  0
LINE
  5
27A
100
AcDbEntity
  8
0
100
AcDbLine
 62
9
  6
CONTINUOUS
 10
10.2179834891
 20
9.8098875484
 11
10.5279966549
 21
9.8098845768
  0
LINE
  5
27B
100
AcDbEntity
  8
0
100
AcDbLine
 62
9
  6
CONTINUOUS
 10
10.5279967138
 20
9.905907251
 11
10.2179834891
 21
9.9058875484
  0
LINE
  5
27C
100
AcDbEntity
  8
0
100
AcDbLine
 62
9
  6
CONTINUOUS
 10
11.2019834891
 20
9.9058875484
 11
10.891970325
 21
9.9058895873
  0
LINE
  5
27D
100
AcDbEntity
  8
0
100
AcDbLine
 62
7
  6
CONTINUOUS
 10
11.7349834891
 20
7.7388875484
 11
11.7349834891
 21
7.7288875484
  0
LINE
  5
27E
100
AcDbEntity
  8
0
100
AcDbLine
 62
7
  6
CONTINUOUS
 10
11.151972328
 20
9.9558875484
 11
10.8483446053
 21
9.9558875484
  0
LINE
  5
27F
100
AcDbEntity
  8
0
100
AcDbLine
 62
7
  6
CONTINUOUS
 10
10.5719834891
 20
9.9558875484
 11
10.2679787533
 21
9.9558875484
  0
LINE
  5
280
100
AcDbEntity
  8
0
100
AcDbLine
 62
9
  6
CONTINUOUS
 10
10.3164834891
 20
9.9958875484
 11
10.5739322894
 21
9.9958875484
  0
LINE
  5
281
100
AcDbEntity
  8
0
100
AcDbLine
 62
9
  6
CONTINUOUS
 10
10.8460339754
 20
9.9958875484
 11
11.1034834891
 21
9.9958875484
  0
LINE
  5
282
100
AcDbEntity
  8
0
100
AcDbLine
 62
9
  6
CONTINUOUS
 10
11.1034834891
 20
10.0048875484
 11
10.845602547
 21
10.0048875484
  0
LINE
  5
283
100
AcDbEntity
  8
0
100
AcDbLine
 62
9
  6
CONTINUOUS
 10
10.5743650727
 20
10.0048875484
 11
10.3164834891
 21
10.0048875484
  0
LINE
  5
284
100
AcDbEntity
  8
0
100
AcDbLine
 62
7
  6
CONTINUOUS
 10
11.0534869477
 20
10.0548875484
 11
10.843730411
 21
10.0548875484
  0
LINE
  5
285
100
AcDbEntity
  8
0
100
AcDbLine
 62
7
  6
CONTINUOUS
 10
10.5762361209
 20
10.0548875484
 11
10.3664921937
 21
10.0548875484
  0
LINE
  5
286
100
AcDbEntity
  8
0
100
AcDbLine
 62
9
  6
CONTINUOUS
 10
10.6953126204
 20
10.1276360283
 11
10.7246543579
 21
10.1276360283
  0
LWPOLYLINE
  5
287
100
AcDbEntity
  8
0
100
AcDbPolyline
 62
7
  6
CONTINUOUS
 90
8
 70
0
 10
10.8042820216
 20
10.1900981527
 10
10.7999511717
 20
10.191562986
 10
10.7948692797
 20
10.1940434774
 10
10.7903202913
 20
10.1971123014
 10
10.7863531098
 20
10.2006530489
 10
10.7829962526
 20
10.204548421
 10
10.7802634451
 20
10.2086741193
 10
10.7781427551
 20
10.2129138757
  0
LINE
  5
288
100
AcDbEntity
  8
0
100
AcDbLine
 62
7
  6
CONTINUOUS
 10
10.7249062204
 20
10.2908960597
 11
10.6950607579
 21
10.2908960597
  0
ARC
  5
289
100
AcDbEntity
  8
0
100
AcDbCircle
 62
9
  6
CONTINUOUS
 10
10.0856853619
 20
8.1396545164
 40
0.0313967704
100
AcDbArc
 50
139.5167179136
 51
140.2976141765
  0
ARC
  5
28A
100
AcDbEntity
  8
0
100
AcDbCircle
 62
7
  6
CONTINUOUS
 10
9.6313391693
 20
7.7588997993
 40
0.0200162939
100
AcDbArc
 50
137.2552002231
 51
269.9278299084
  0
ARC
  5
28B
100
AcDbEntity
  8
0
100
AcDbCircle
 62
9
  6
CONTINUOUS
 10
-172.8836027711
 20
9.857887551
 40
183.4631044885
100
AcDbArc
 50
359.9237231719
 51
0.0762768314
  0
ARC
  5
28C
100
AcDbEntity
  8
0
100
AcDbCircle
 62
9
  6
CONTINUOUS
 10
-5.9171502034
 20
9.5869920121
 40
16.5627251631
100
AcDbArc
 50
359.6719872617
 51
0.0335824573
  0
ARC
  5
28D
100
AcDbEntity
  8
0
100
AcDbCircle
 62
9
  6
CONTINUOUS
 10
6.5806864989
 20
10.098761307
 40
3.9986540595
100
AcDbArc
 50
0.0482488781
 51
0.4442487913
  0
ARC
  5
28E
100
AcDbEntity
  8
0
100
AcDbCircle
 62
9
  6
CONTINUOUS
 10
6.5809456558
 20
9.6170130453
 40
3.998394902
100
AcDbArc
 50
359.5557008912
 51
359.9517588886
  0
ARC
  5
28F
100
AcDbEntity
  8
0
100
AcDbCircle
 62
9
  6
CONTINUOUS
 10
7.3599856435
 20
9.8658881142
 40
3.0778826038
100
AcDbArc
 50
329.1552805643
 51
331.6675139008
  0
ARC
  5
290
100
AcDbEntity
  8
0
100
AcDbCircle
 62
9
  6
CONTINUOUS
 10
7.5645012286
 20
9.6343358324
 40
2.9854160019
100
AcDbArc
 50
321.4168331985
 51
330.476004766
  0
ARC
  5
291
100
AcDbEntity
  8
0
100
AcDbCircle
 62
9
  6
CONTINUOUS
 10
7.6223970606
 20
9.79115042
 40
2.9052494299
100
AcDbArc
 50
315.9441403637
 51
325.7183965645
  0
ARC
  5
292
100
AcDbEntity
  8
0
100
AcDbCircle
 62
7
  6
CONTINUOUS
 10
7.5499480667
 20
9.4923112709
 40
2.8407609475
100
AcDbArc
 50
322.7037960316
 51
324.2968421983
  0
ARC
  5
293
100
AcDbEntity
  8
0
100
AcDbCircle
 62
9
  6
CONTINUOUS
 10
7.8772918513
 20
9.6615587808
 40
2.600640735
100
AcDbArc
 50
348.7784690631
 51
353.2056538159
  0
ARC
  5
294
100
AcDbEntity
  8
0
100
AcDbCircle
 62
9
  6
CONTINUOUS
 10
9.3033928266
 20
10.2183163008
 40
1.3419183369
100
AcDbArc
 50
0.364878585
 51
0.7743881515
  0
ARC
  5
295
100
AcDbEntity
  8
0
100
AcDbCircle
 62
9
  6
CONTINUOUS
 10
10.4556407667
 20
9.7532151509
 40
0.1165480069
100
AcDbArc
 50
3.5467980144
 51
5.6068999415
  0
ARC
  5
296
100
AcDbEntity
  8
0
100
AcDbCircle
 62
9
  6
CONTINUOUS
 10
10.4623653404
 20
9.9620469258
 40
0.1098025152
100
AcDbArc
 50
353.2053496299
 51
356.5007912709
  0
ARC
  5
297
100
AcDbEntity
  8
0
100
AcDbCircle
 62
7
  6
CONTINUOUS
 10
10.6349572212
 20
10.1411803566
 40
0.0560401611
100
AcDbArc
 50
174.3432165068
 51
176.5964694817
  0
ARC
  5
298
100
AcDbEntity
  8
0
100
AcDbCircle
 62
9
  6
CONTINUOUS
 10
10.5778591653
 20
9.9058619739
 40
0.0500286364
100
AcDbArc
 50
97.3757855563
 51
99.2159168629
  0
ARC
  5
299
100
AcDbEntity
  8
0
100
AcDbCircle
 62
9
  6
CONTINUOUS
 10
10.577858251
 20
9.8099066333
 40
0.0500220793
100
AcDbArc
 50
260.7748248884
 51
262.8554527729
  0
ARC
  5
29A
100
AcDbEntity
  8
0
100
AcDbCircle
 62
7
  6
CONTINUOUS
 10
10.3664834891
 20
10.0048875484
 40
0.05
100
AcDbArc
 50
90.0
 51
180.0
  0
ARC
  5
29B
100
AcDbEntity
  8
0
100
AcDbCircle
 62
7
  6
CONTINUOUS
 10
10.2679834891
 20
9.8098875484
 40
0.05
100
AcDbArc
 50
180.0
 51
270.0
  0
ARC
  5
29C
100
AcDbEntity
  8
0
100
AcDbCircle
 62
7
  6
CONTINUOUS
 10
10.2679834891
 20
9.9058875484
 40
0.05
100
AcDbArc
 50
90.0
 51
180.0
  0
ARC
  5
29D
100
AcDbEntity
  8
0
100
AcDbCircle
 62
7
  6
CONTINUOUS
 10
10.3664834891
 20
9.7108875484
 40
0.05
100
AcDbArc
 50
180.0
 51
270.0
  0
ARC
  5
29E
100
AcDbEntity
  8
0
100
AcDbCircle
 62
7
  6
CONTINUOUS
 10
10.2764834891
 20
9.9958875484
 40
0.04
100
AcDbArc
 50
270.0000311552
 51
360.0
  0
ARC
  5
29F
100
AcDbEntity
  8
0
100
AcDbCircle
 62
7
  6
CONTINUOUS
 10
10.3754834891
 20
9.4248875484
 40
0.04
100
AcDbArc
 50
90.0
 51
270.0
  0
ARC
  5
2A0
100
AcDbEntity
  8
0
100
AcDbCircle
 62
7
  6
CONTINUOUS
 10
10.2764834891
 20
9.7198875484
 40
0.04
100
AcDbArc
 50
0.0
 51
89.9999688464
  0
ARC
  5
2A1
100
AcDbEntity
  8
0
100
AcDbCircle
 62
7
  6
CONTINUOUS
 10
11.7886537121
 20
7.7588873643
 40
0.0199982113
100
AcDbArc
 50
269.9971777353
 51
42.828692677
  0
ARC
  5
2A2
100
AcDbEntity
  8
0
100
AcDbCircle
 62
9
  6
CONTINUOUS
 10
194.3035677782
 20
9.8578875508
 40
183.4631025174
100
AcDbArc
 50
179.9237231681
 51
180.0762768289
  0
ARC
  5
2A3
100
AcDbEntity
  8
0
100
AcDbCircle
 62
9
  6
CONTINUOUS
 10
27.3372121547
 20
10.1287828645
 40
16.562820136
100
AcDbArc
 50
179.6719891201
 51
180.0335816041
  0
ARC
  5
2A4
100
AcDbEntity
  8
0
100
AcDbCircle
 62
9
  6
CONTINUOUS
 10
14.8392953967
 20
9.6170139212
 40
3.9986689769
100
AcDbArc
 50
180.0482503563
 51
180.4442487678
  0
ARC
  5
2A5
100
AcDbEntity
  8
0
100
AcDbCircle
 62
9
  6
CONTINUOUS
 10
14.8390129687
 20
10.0987621545
 40
3.9983865481
100
AcDbArc
 50
179.5557011907
 51
179.9517600562
  0
ARC
  5
2A6
100
AcDbEntity
  8
0
100
AcDbCircle
 62
9
  6
CONTINUOUS
 10
14.1647453228
 20
9.994015198
 40
3.267772953
100
AcDbArc
 50
191.2968388876
 51
194.8690497927
  0
ARC
  5
2A7
100
AcDbEntity
  8
0
100
AcDbCircle
 62
9
  6
CONTINUOUS
 10
14.0588832306
 20
9.8652742503
 40
3.0766250247
100
AcDbArc
 50
208.3234044368
 51
210.8450415674
  0
ARC
  5
2A8
100
AcDbEntity
  8
0
100
AcDbCircle
 62
9
  6
CONTINUOUS
 10
13.8554006642
 20
9.6342918424
 40
2.9853373944
100
AcDbArc
 50
209.5238763922
 51
218.5832882544
  0
ARC
  5
2A9
100
AcDbEntity
  8
0
100
AcDbCircle
 62
9
  6
CONTINUOUS
 10
13.795005524
 20
9.7890397699
 40
2.9019330809
100
AcDbArc
 50
214.2756889704
 51
224.0611175644
  0
ARC
  5
2AA
100
AcDbEntity
  8
0
100
AcDbCircle
 62
7
  6
CONTINUOUS
 10
13.8819249621
 20
9.5010773013
 40
2.8555440123
100
AcDbArc
 50
215.7094628189
 51
217.291269819
  0
ARC
  5
2AB
100
AcDbEntity
  8
0
100
AcDbCircle
 62
9
  6
CONTINUOUS
 10
13.5558122021
 20
9.6636397389
 40
2.613932675
100
AcDbArc
 50
186.8055637509
 51
191.2102330834
  0
ARC
  5
2AC
100
AcDbEntity
  8
0
100
AcDbCircle
 62
9
  6
CONTINUOUS
 10
12.1165717362
 20
9.4974587702
 40
1.3419159214
100
AcDbArc
 50
180.3648782692
 51
180.7743889385
  0
ARC
  5
2AD
100
AcDbEntity
  8
0
100
AcDbCircle
 62
9
  6
CONTINUOUS
 10
10.964241151
 20
9.962544915
 40
0.116463114
100
AcDbArc
 50
183.5410679091
 51
185.6031380938
  0
ARC
  5
2AE
100
AcDbEntity
  8
0
100
AcDbCircle
 62
9
  6
CONTINUOUS
 10
10.9574825232
 20
9.7537397581
 40
0.1096835652
100
AcDbArc
 50
173.2046886522
 51
176.5036645518
  0
ARC
  5
2AF
100
AcDbEntity
  8
0
100
AcDbCircle
 62
7
  6
CONTINUOUS
 10
10.7850105605
 20
9.5745944855
 40
0.05603938
100
AcDbArc
 50
354.3438901103
 51
356.5968597501
  0
ARC
  5
2B0
100
AcDbEntity
  8
0
100
AcDbCircle
 62
9
  6
CONTINUOUS
 10
10.8421078201
 20
9.8099130875
 40
0.0500285998
100
AcDbArc
 50
277.3758024381
 51
279.2159129822
  0
ARC
  5
2B1
100
AcDbEntity
  8
0
100
AcDbCircle
 62
9
  6
CONTINUOUS
 10
10.8421087172
 20
9.9058684092
 40
0.0500221309
100
AcDbArc
 50
80.7748227689
 51
82.8544378785
  0
ARC
  5
2B2
100
AcDbEntity
  8
0
100
AcDbCircle
 62
7
  6
CONTINUOUS
 10
11.0534834891
 20
10.0048875484
 40
0.05
100
AcDbArc
 50
0.0
 51
90.0
  0
ARC
  5
2B3
100
AcDbEntity
  8
0
100
AcDbCircle
 62
7
  6
CONTINUOUS
 10
11.1519834891
 20
9.8098875484
 40
0.05
100
AcDbArc
 50
270.0
 51
360.0
  0
ARC
  5
2B4
100
AcDbEntity
  8
0
100
AcDbCircle
 62
7
  6
CONTINUOUS
 10
11.1519834891
 20
9.9058875484
 40
0.05
100
AcDbArc
 50
0.0
 51
90.0
  0
ARC
  5
2B5
100
AcDbEntity
  8
0
100
AcDbCircle
 62
7
  6
CONTINUOUS
 10
11.0534834891
 20
9.7108875484
 40
0.05
100
AcDbArc
 50
270.0
 51
360.0
  0
ARC
  5
2B6
100
AcDbEntity
  8
0
100
AcDbCircle
 62
7
  6
CONTINUOUS
 10
11.1434834891
 20
9.9958875484
 40
0.04
100
AcDbArc
 50
180.0
 51
269.9999688448
  0
ARC
  5
2B7
100
AcDbEntity
  8
0
100
AcDbCircle
 62
7
  6
CONTINUOUS
 10
11.0444834891
 20
9.4248875484
 40
0.04
100
AcDbArc
 50
270.0
 51
90.0
  0
ARC
  5
2B8
100
AcDbEntity
  8
0
100
AcDbCircle
 62
7
  6
CONTINUOUS
 10
11.1434834891
 20
9.7198875484
 40
0.04
100
AcDbArc
 50
90.0000311536
 51
180.0
  0
SPLINE
  5
2B9
100
AcDbEntity
  8
0
100
AcDbSpline
 62
7
  6
CONTINUOUS
 70
0
 71
3
 72
37
 73
33
 74
0
 42
0.0000001
 43
0.0000001
 44
0.0000000001
 40
0.0
 40
0.0
 40
0.0
 40
0.0
 40
0.1542779714
 40
0.2095026524
 40
0.2499219993
 40
0.2645348515
 40
0.2704345566
 40
0.2753938152
 40
0.2794109818
 40
0.282485135
 40
0.2846188126
 40
0.2853360596
 40
0.2858245878
 40
0.2860978181
 40
0.286246958
 40
0.2865319803
 40
0.2870334326
 40
0.2887244518
 40
0.2913477034
 40
0.2949071352
 40
0.299403572
 40
0.3048368678
 40
0.3112064776
 40
0.3267515341
 40
0.346031859
 40
0.369039784
 40
0.3957673374
 40
0.4603479732
 40
0.5396556382
 40
0.6334866279
 40
0.7416290552
 40
1.0
 40
1.0
 40
1.0
 40
1.0
 10
10.7750428347
 20
10.2234898452
 30
0.0
 10
10.7750312686
 20
10.2244199366
 30
0.0
 10
10.7750139281
 20
10.2256829505
 30
0.0
 10
10.774982908
 20
10.2271894524
 30
0.0
 10
10.7749647311
 20
10.2278539649
 30
0.0
 10
10.7749503251
 20
10.2282210663
 30
0.0
 10
10.7749426798
 20
10.2283744401
 30
0.0
 10
10.7749373898
 20
10.2284639992
 30
0.0
 10
10.7749321354
 20
10.2285364029
 30
0.0
 10
10.7749269883
 20
10.2285919486
 30
0.0
 10
10.7749223572
 20
10.2286270647
 30
0.0
 10
10.7749185296
 20
10.2286472642
 30
0.0
 10
10.7749158136
 20
10.2286551594
 30
0.0
 10
10.7749137333
 20
10.2286613334
 30
0.0
 10
10.7749086495
 20
10.2286610372
 30
0.0
 10
10.7749067239
 20
10.2286548171
 30
0.0
 10
10.7749022292
 20
10.228641315
 30
0.0
 10
10.7748982506
 20
10.2286117546
 30
0.0
 10
10.7748928557
 20
10.2285650145
 30
0.0
 10
10.7748877747
 20
10.2285006385
 30
0.0
 10
10.7748824597
 20
10.2284195537
 30
0.0
 10
10.7748771802
 20
10.2283213978
 30
0.0
 10
10.7748695769
 20
10.2281566987
 30
0.0
 10
10.7748603897
 20
10.227908487
 30
0.0
 10
10.7748498809
 20
10.2275599621
 30
0.0
 10
10.7748393589
 20
10.2271439869
 30
0.0
 10
10.7748243642
 20
10.2264549219
 30
0.0
 10
10.7748062706
 20
10.2254264104
 30
0.0
 10
10.7747857157
 20
10.2239933141
 30
0.0
 10
10.7747653144
 20
10.222297553
 30
0.0
 10
10.7747366727
 20
10.21952222
 30
0.0
 10
10.7747184105
 20
10.2173125331
 30
0.0
 10
10.7747066791
 20
10.2157548231
 30
0.0
  0
LINE
  5
2BA
100
AcDbEntity
  8
0
100
AcDbLine
 62
7
  6
CONTINUOUS
 10
10.7747066791
 20
10.2157548231
 11
10.774440483
 21
10.1191211705
  0
LINE
  5
2BB
100
AcDbEntity
  8
0
100
AcDbLine
 62
7
  6
CONTINUOUS
 10
10.774440483
 20
10.1191211705
 11
10.7744391335
 21
10.1169790502
  0
LINE
  5
2BC
100
AcDbEntity
  8
0
100
AcDbLine
 62
7
  6
CONTINUOUS
 10
10.7744391329
 20
9.5987975304
 11
10.7744405429
 21
9.5966538663
  0
LINE
  5
2BD
100
AcDbEntity
  8
0
100
AcDbLine
 62
7
  6
CONTINUOUS
 10
10.7744405429
 20
9.5966538663
 11
10.7747066749
 21
9.5000206817
  0
SPLINE
  5
2BE
100
AcDbEntity
  8
0
100
AcDbSpline
 62
7
  6
CONTINUOUS
 70
0
 71
3
 72
37
 73
33
 74
0
 42
0.0000001
 43
0.0000001
 44
0.0000000001
 40
0.0
 40
0.0
 40
0.0
 40
0.0
 40
0.258376706
 40
0.3665173872
 40
0.4603431899
 40
0.5396419609
 40
0.6042098138
 40
0.6309296329
 40
0.6539290359
 40
0.6732001311
 40
0.6887353302
 40
0.6950998011
 40
0.7005278314
 40
0.7050188865
 40
0.708572832
 40
0.7111905078
 40
0.7128758963
 40
0.7133745685
 40
0.7136570521
 40
0.7138059115
 40
0.7140814911
 40
0.7145727505
 40
0.7152928328
 40
0.7174323068
 40
0.7205123339
 40
0.7245353892
 40
0.7295005102
 40
0.7354060179
 40
0.7500301694
 40
0.7904700283
 40
0.8457108107
 40
1.0
 40
1.0
 40
1.0
 40
1.0
 10
10.7747066749
 20
9.5000206817
 30
0.0
 10
10.7747184067
 20
9.4984626948
 30
0.0
 10
10.7747366667
 20
9.4962526401
 30
0.0
 10
10.7747653089
 20
9.4934768827
 30
0.0
 10
10.774785714
 20
9.4917809533
 30
0.0
 10
10.7748062778
 20
9.4903477964
 30
0.0
 10
10.7748243869
 20
9.4893193025
 30
0.0
 10
10.7748393975
 20
9.4886303058
 30
0.0
 10
10.7748499302
 20
9.4882144199
 30
0.0
 10
10.7748604485
 20
9.4878660077
 30
0.0
 10
10.7748696429
 20
9.4876179036
 30
0.0
 10
10.7748772504
 20
9.4874533017
 30
0.0
 10
10.7748825321
 20
9.4873552251
 30
0.0
 10
10.7748878467
 20
9.4872742276
 30
0.0
 10
10.7748929303
 20
9.4872099348
 30
0.0
 10
10.7748983154
 20
9.4871633024
 30
0.0
 10
10.7749023058
 20
9.4871337972
 30
0.0
 10
10.7749067792
 20
9.4871203864
 30
0.0
 10
10.7749087307
 20
9.4871141743
 30
0.0
 10
10.7749138168
 20
9.4871139996
 30
0.0
 10
10.7749158564
 20
9.4871201909
 30
0.0
 10
10.774918589
 20
9.4871281487
 30
0.0
 10
10.7749223979
 20
9.487148414
 30
0.0
 10
10.7749270311
 20
9.4871836315
 30
0.0
 10
10.774932163
 20
9.4872392897
 30
0.0
 10
10.7749374067
 20
9.4873118135
 30
0.0
 10
10.7749426818
 20
9.487401493
 30
0.0
 10
10.7749503051
 20
9.4875550306
 30
0.0
 10
10.7749646659
 20
9.4879224176
 30
0.0
 10
10.7749827958
 20
9.4885873238
 30
0.0
 10
10.7750137864
 20
9.490094349
 30
0.0
 10
10.775031218
 20
9.4913577223
 30
0.0
 10
10.775042891
 20
9.4922880246
 30
0.0
  0
SPLINE
  5
2BF
100
AcDbEntity
  8
0
100
AcDbSpline
 62
7
  6
CONTINUOUS
 70
0
 71
3
 72
37
 73
33
 74
0
 42
0.0000001
 43
0.0000001
 44
0.0000000001
 40
0.0
 40
0.0
 40
0.0
 40
0.0
 40
0.1542724435
 40
0.2094957658
 40
0.2499143447
 40
0.2645269508
 40
0.2704265526
 40
0.275385715
 40
0.279402788
 40
0.2824768439
 40
0.2846104105
 40
0.2853275906
 40
0.2858160354
 40
0.2860891435
 40
0.2862381091
 40
0.2865230669
 40
0.2870244978
 40
0.2887155206
 40
0.2913388013
 40
0.2948982765
 40
0.2993947673
 40
0.3048281264
 40
0.3111978081
 40
0.326743035
 40
0.3460235681
 40
0.3690317432
 40
0.3957595936
 40
0.4603409859
 40
0.5396496482
 40
0.6334818604
 40
0.7416257106
 40
1.0
 40
1.0
 40
1.0
 40
1.0
 10
10.6449241412
 20
9.4922853015
 30
0.0
 10
10.644935811
 20
9.4913552231
 30
0.0
 10
10.6449532371
 20
9.490092223
 30
0.0
 10
10.6449842251
 20
9.4885857317
 30
0.0
 10
10.6450023517
 20
9.4879212168
 30
0.0
 10
10.645016712
 20
9.4875541118
 30
0.0
 10
10.6450243342
 20
9.4874007361
 30
0.0
 10
10.645029609
 20
9.4873111757
 30
0.0
 10
10.6450348497
 20
9.4872387713
 30
0.0
 10
10.6450399847
 20
9.4871832246
 30
0.0
 10
10.6450446073
 20
9.487148109
 30
0.0
 10
10.6450484278
 20
9.4871279084
 30
0.0
 10
10.6450511407
 20
9.4871200149
 30
0.0
 10
10.645053216
 20
9.4871138397
 30
0.0
 10
10.6450582977
 20
9.4871141369
 30
0.0
 10
10.6450602186
 20
9.4871203578
 30
0.0
 10
10.6450647115
 20
9.4871338594
 30
0.0
 10
10.645068686
 20
9.4871634218
 30
0.0
 10
10.6450740797
 20
9.4872101632
 30
0.0
 10
10.6450791596
 20
9.4872745418
 30
0.0
 10
10.6450844749
 20
9.4873556293
 30
0.0
 10
10.6450897554
 20
9.4874537887
 30
0.0
 10
10.6450973616
 20
9.4876184933
 30
0.0
 10
10.6451065543
 20
9.4878667132
 30
0.0
 10
10.6451170711
 20
9.4882152498
 30
0.0
 10
10.6451276021
 20
9.488631239
 30
0.0
 10
10.6451426099
 20
9.4893203276
 30
0.0
 10
10.6451607159
 20
9.4903488752
 30
0.0
 10
10.6451812764
 20
9.4917820226
 30
0.0
 10
10.6452016783
 20
9.4934778452
 30
0.0
 10
10.6452303155
 20
9.4962532788
 30
0.0
 10
10.6452485729
 20
9.4984630458
 30
0.0
 10
10.6452603031
 20
9.5000208122
 30
0.0
  0
LINE
  5
2C0
100
AcDbEntity
  8
0
100
AcDbLine
 62
7
  6
CONTINUOUS
 10
10.6452603031
 20
9.5000208122
 11
10.6455264357
 21
9.5966539035
  0
LINE
  5
2C1
100
AcDbEntity
  8
0
100
AcDbLine
 62
7
  6
CONTINUOUS
 10
10.6455264357
 20
9.5966539035
 11
10.6455278446
 21
9.5987957784
  0
LINE
  5
2C2
100
AcDbEntity
  8
0
100
AcDbLine
 62
7
  6
CONTINUOUS
 10
10.6455278454
 20
10.1169775292
 11
10.6455264948
 21
10.1191212028
  0
LINE
  5
2C3
100
AcDbEntity
  8
0
100
AcDbLine
 62
7
  6
CONTINUOUS
 10
10.6455264948
 20
10.1191212028
 11
10.6452602995
 21
10.2157549528
  0
SPLINE
  5
2C4
100
AcDbEntity
  8
0
100
AcDbSpline
 62
7
  6
CONTINUOUS
 70
0
 71
3
 72
37
 73
33
 74
0
 42
0.0000001
 43
0.0000001
 44
0.0000000001
 40
0.0
 40
0.0
 40
0.0
 40
0.0
 40
0.2583733988
 40
0.3665128038
 40
0.4603376262
 40
0.5396357452
 40
0.6042032954
 40
0.6309230815
 40
0.6539225198
 40
0.6731937111
 40
0.6887290602
 40
0.6950936247
 40
0.7005217603
 40
0.7050129326
 40
0.7085670081
 40
0.7111848301
 40
0.7128703906
 40
0.7133691699
 40
0.7136517957
 40
0.7138008328
 40
0.7140764577
 40
0.7145677138
 40
0.7152877739
 40
0.7174271783
 40
0.7205071209
 40
0.7245300886
 40
0.7294951254
 40
0.7354005577
 40
0.7500246043
 40
0.7904645677
 40
0.8457061206
 40
1.0
 40
1.0
 40
1.0
 40
1.0
 10
10.6452602995
 20
10.2157549528
 30
0.0
 10
10.6452485664
 20
10.217312878
 30
0.0
 10
10.6452303017
 20
10.2195228458
 30
0.0
 10
10.6452016552
 20
10.2222984951
 30
0.0
 10
10.6451812506
 20
10.2239943615
 30
0.0
 10
10.6451606927
 20
10.2254274684
 30
0.0
 10
10.6451425961
 20
10.2264559289
 30
0.0
 10
10.6451275985
 20
10.2271449056
 30
0.0
 10
10.6451170749
 20
10.2275607812
 30
0.0
 10
10.6451065647
 20
10.227909186
 30
0.0
 10
10.6450973759
 20
10.2281572856
 30
0.0
 10
10.6450897712
 20
10.2283218853
 30
0.0
 10
10.6450844906
 20
10.2284199613
 30
0.0
 10
10.6450791763
 20
10.2285009589
 30
0.0
 10
10.6450740917
 20
10.2285652519
 30
0.0
 10
10.6450687051
 20
10.2286118865
 30
0.0
 10
10.6450647111
 20
10.2286413913
 30
0.0
 10
10.6450602352
 20
10.2286548055
 30
0.0
 10
10.64505828
 20
10.2286610171
 30
0.0
 10
10.6450531919
 20
10.2286611946
 30
0.0
 10
10.6450511462
 20
10.2286550049
 30
0.0
 10
10.6450484111
 20
10.2286470475
 30
0.0
 10
10.6450445947
 20
10.2286267851
 30
0.0
 10
10.6450399534
 20
10.2285915703
 30
0.0
 10
10.6450348092
 20
10.2285359164
 30
0.0
 10
10.6450295519
 20
10.228463397
 30
0.0
 10
10.6450242616
 20
10.2283737224
 30
0.0
 10
10.6450166151
 20
10.2282201916
 30
0.0
 10
10.6450022086
 20
10.2278528166
 30
0.0
 10
10.6449840284
 20
10.2271879248
 30
0.0
 10
10.6449530057
 20
10.2256809071
 30
0.0
 10
10.64493566
 20
10.2244175331
 30
0.0
 10
10.6449240911
 20
10.2234872262
 30
0.0
  0
SPLINE
  5
2C5
100
AcDbEntity
  8
0
100
AcDbSpline
 62
7
  6
CONTINUOUS
 70
0
 71
3
 72
18
 73
14
 74
0
 42
0.0000001
 43
0.0000001
 44
0.0000000001
 40
0.0
 40
0.0
 40
0.0
 40
0.0
 40
0.1273794616
 40
0.25483892
 40
0.3820573286
 40
0.5091833251
 40
0.6362028642
 40
0.7631815737
 40
0.8266118192
 40
0.8896303049
 40
0.9208971231
 40
0.9509433473
 40
1.0
 40
1.0
 40
1.0
 40
1.0
 10
10.6950607617
 20
10.2908961453
 30
0.0
 10
10.6918971776
 20
10.2908960199
 30
0.0
 10
10.6855521711
 20
10.2902879797
 30
0.0
 10
10.6763929756
 20
10.287607546
 30
0.0
 10
10.6679107282
 20
10.2832404369
 30
0.0
 10
10.6604122758
 20
10.2773612012
 30
0.0
 10
10.6541616476
 20
10.2701791543
 30
0.0
 10
10.6501731846
 20
10.2633189502
 30
0.0
 10
10.6478100669
 20
10.257477407
 30
0.0
 10
10.6466833822
 20
10.2537189478
 30
0.0
 10
10.646011937
 20
10.2507040556
 30
0.0
 10
10.6455310026
 20
10.2480045954
 30
0.0
 10
10.6453072337
 20
10.2460507185
 30
0.0
 10
10.6452047429
 20
10.2448366707
 30
0.0
  0
LINE
  5
2C6
100
AcDbEntity
  8
0
100
AcDbLine
 62
7
  6
CONTINUOUS
 10
10.6452047429
 20
10.2448366707
 11
10.6449206978
 21
10.2358299869
  0
LINE
  5
2C7
100
AcDbEntity
  8
0
100
AcDbLine
 62
7
  6
CONTINUOUS
 10
10.7749734848
 20
10.2402913153
 11
10.7746883519
 21
10.2456600839
  0
SPLINE
  5
2C8
100
AcDbEntity
  8
0
100
AcDbSpline
 62
7
  6
CONTINUOUS
 70
0
 71
3
 72
17
 73
13
 74
0
 42
0.0000001
 43
0.0000001
 44
0.0000000001
 40
0.0
 40
0.0
 40
0.0
 40
0.0
 40
0.0538984045
 40
0.1155561631
 40
0.1783701107
 40
0.2414609483
 40
0.3677116088
 40
0.4940562809
 40
0.6204463475
 40
0.7468432376
 40
0.8734231101
 40
1.0
 40
1.0
 40
1.0
 40
1.0
 10
10.7746883519
 20
10.2456600839
 30
0.0
 10
10.7745568346
 20
10.2469773558
 30
0.0
 10
10.7741768197
 20
10.2497932333
 30
0.0
 10
10.7732138039
 20
10.2540733397
 30
0.0
 10
10.7717976535
 20
10.2584642063
 30
0.0
 10
10.769354276
 20
10.2641631768
 30
0.0
 10
10.7653135962
 20
10.2708379941
 30
0.0
 10
10.7590636867
 20
10.277807567
 30
0.0
 10
10.7516267822
 20
10.2835012305
 30
0.0
 10
10.7432574032
 20
10.2877203339
 30
0.0
 10
10.7342483373
 20
10.2903109691
 30
0.0
 10
10.7280151237
 20
10.2908960508
 30
0.0
 10
10.7249062165
 20
10.2908961461
 30
0.0
  0
SPLINE
  5
2C9
100
AcDbEntity
  8
0
100
AcDbSpline
 62
7
  6
CONTINUOUS
 70
0
 71
3
 72
21
 73
17
 74
0
 42
0.0000001
 43
0.0000001
 44
0.0000000001
 40
0.0
 40
0.0
 40
0.0
 40
0.0
 40
0.1367114223
 40
0.2733563224
 40
0.4099777607
 40
0.5465323869
 40
0.6830071118
 40
0.7512567818
 40
0.8191823666
 40
0.8527908144
 40
0.8858697092
 40
0.9167263477
 40
0.9417618398
 40
0.9601824165
 40
0.9750274051
 40
1.0
 40
1.0
 40
1.0
 40
1.0
 10
10.8042817336
 20
10.190098456
 30
0.0
 10
10.8071616167
 20
10.1893047206
 30
0.0
 10
10.8127907161
 20
10.1871959656
 30
0.0
 10
10.8205214698
 20
10.1825795768
 30
0.0
 10
10.8273064335
 20
10.1766605058
 30
0.0
 10
10.8329216121
 20
10.1696296817
 30
0.0
 10
10.8364852568
 20
10.1630293035
 30
0.0
 10
10.8385872652
 20
10.1574479571
 30
0.0
 10
10.8395840617
 20
10.1538688572
 30
0.0
 10
10.8401870176
 20
10.1509891018
 30
0.0
 10
10.8405259856
 20
10.1488839884
 30
0.0
 10
10.8407559559
 20
10.1469531984
 30
0.0
 10
10.8409048153
 20
10.1453360282
 30
0.0
 10
10.8409836846
 20
10.1440643697
 30
0.0
 10
10.8410326789
 20
10.142792733
 30
0.0
 10
10.8410633677
 20
10.1419232132
 30
0.0
 10
10.841077998
 20
10.1413777365
 30
0.0
  0
LINE
  5
2CA
100
AcDbEntity
  8
0
100
AcDbLine
 62
7
  6
CONTINUOUS
 10
10.841078062
 20
9.5743961026
 11
10.8409511193
 21
9.5712679271
  0
SPLINE
  5
2CB
100
AcDbEntity
  8
0
100
AcDbSpline
 62
7
  6
CONTINUOUS
 70
0
 71
3
 72
16
 73
12
 74
0
 42
0.0000001
 43
0.0000001
 44
0.0000000001
 40
0.0
 40
0.0
 40
0.0
 40
0.0
 40
0.0575656828
 40
0.1194765708
 40
0.2448452677
 40
0.3705679383
 40
0.4964062376
 40
0.6222436773
 40
0.7481364232
 40
0.8740269872
 40
1.0
 40
1.0
 40
1.0
 40
1.0
 10
10.8407771049
 20
9.5690713853
 30
0.0
 10
10.8406618756
 20
9.5679214469
 30
0.0
 10
10.8403465982
 20
9.5655413996
 30
0.0
 10
10.8393516618
 20
9.5607238949
 30
0.0
 10
10.8373914316
 20
9.5547262087
 30
0.0
 10
10.8339698757
 20
9.5479448147
 30
0.0
 10
10.8295575592
 20
9.541749454
 30
0.0
 10
10.8242577802
 20
9.5362894898
 30
0.0
 10
10.8181920295
 20
9.5316928599
 30
0.0
 10
10.8115006269
 20
9.5280646966
 30
0.0
 10
10.8067199264
 20
9.5263483876
 30
0.0
 10
10.8042818685
 20
9.5256760911
 30
0.0
  0
SPLINE
  5
2CC
100
AcDbEntity
  8
0
100
AcDbSpline
 62
7
  6
CONTINUOUS
 70
0
 71
3
 72
22
 73
18
 74
0
 42
0.0000001
 43
0.0000001
 44
0.0000000001
 40
0.0
 40
0.0
 40
0.0
 40
0.0
 40
0.101085004
 40
0.156730628
 40
0.215796328
 40
0.2784944197
 40
0.3439961867
 40
0.4113308161
 40
0.4798820766
 40
0.5494435813
 40
0.6194430118
 40
0.6888499509
 40
0.7564984582
 40
0.8215579392
 40
0.8840458599
 40
0.9437358167
 40
1.0
 40
1.0
 40
1.0
 40
1.0
 10
9.8256053174
 20
7.7388875484
 30
0.0
 10
9.8241123306
 20
7.7388875488
 30
0.0
 10
9.8217864358
 20
7.7391419887
 30
0.0
 10
9.8187213602
 20
7.7400389249
 30
0.0
 10
9.8163176302
 20
7.7411039405
 30
0.0
 10
9.813962938
 20
7.7425713226
 30
0.0
 10
9.8117316033
 20
7.744418693
 30
0.0
 10
9.8097198972
 20
7.7466235843
 30
0.0
 10
9.8080308194
 20
7.7491608701
 30
0.0
 10
9.8067777003
 20
7.7519825612
 30
0.0
 10
9.8059605484
 20
7.7549699295
 30
0.0
 10
9.8055803351
 20
7.7580145781
 30
0.0
 10
9.8056403416
 20
7.7610108724
 30
0.0
 10
9.8061542476
 20
7.76385945
 30
0.0
 10
9.8070393579
 20
7.7664888794
 30
0.0
 10
9.8082082132
 20
7.7688587816
 30
0.0
 10
9.8091547365
 20
7.7702922749
 30
0.0
 10
9.8096561374
 20
7.7709549655
 30
0.0
  0
SPLINE
  5
2CD
100
AcDbEntity
  8
0
100
AcDbSpline
 62
7
  6
CONTINUOUS
 70
0
 71
3
 72
21
 73
17
 74
0
 42
0.0000001
 43
0.0000001
 44
0.0000000001
 40
0.0
 40
0.0
 40
0.0
 40
0.0
 40
0.1367099792
 40
0.2733537312
 40
0.4099733058
 40
0.546526558
 40
0.6829999473
 40
0.751248797
 40
0.8191733154
 40
0.8527810496
 40
0.8858587443
 40
0.9167136952
 40
0.9417492088
 40
0.9601729711
 40
0.9750219278
 40
1.0
 40
1.0
 40
1.0
 40
1.0
 10
10.6156851912
 20
9.5256764403
 30
0.0
 10
10.6128053847
 20
9.5264701548
 30
0.0
 10
10.6071764303
 20
9.5285788529
 30
0.0
 10
10.5994458473
 20
9.53319505
 30
0.0
 10
10.5926610021
 20
9.5391138884
 30
0.0
 10
10.5870458674
 20
9.54614443
 30
0.0
 10
10.5834821742
 20
9.5527445556
 30
0.0
 10
10.5813800971
 20
9.558325698
 30
0.0
 10
10.580383228
 20
9.5619046565
 30
0.0
 10
10.5797802148
 20
9.5647842853
 30
0.0
 10
10.5794412001
 20
9.5668892766
 30
0.0
 10
10.5792111672
 20
9.5688199646
 30
0.0
 10
10.5790622504
 20
9.5704371368
 30
0.0
 10
10.5789833314
 20
9.5717089288
 30
0.0
 10
10.5789342783
 20
9.5729808191
 30
0.0
 10
10.5789035625
 20
9.5738505305
 30
0.0
 10
10.578888916
 20
9.5743961178
 30
0.0
  0
SPLINE
  5
2CE
100
AcDbEntity
  8
0
100
AcDbSpline
 62
7
  6
CONTINUOUS
 70
0
 71
3
 72
22
 73
18
 74
0
 42
0.0000001
 43
0.0000001
 44
0.0000000001
 40
0.0
 40
0.0
 40
0.0
 40
0.0
 40
0.1010742033
 40
0.1567146676
 40
0.2157757134
 40
0.2784697772
 40
0.3439682192
 40
0.4113004518
 40
0.4798506064
 40
0.549412584
 40
0.6194137871
 40
0.688823521
 40
0.7564757719
 40
0.8215400203
 40
0.884033542
 40
0.9437295892
 40
1.0
 40
1.0
 40
1.0
 40
1.0
 10
11.594361741
 20
7.7388875484
 30
0.0
 10
11.5958545664
 20
7.7388875488
 30
0.0
 10
11.5981802198
 20
7.739141928
 30
0.0
 10
11.6012450238
 20
7.7400386894
 30
0.0
 10
11.6036486044
 20
7.7411035229
 30
0.0
 10
11.6060032222
 20
7.7425706788
 30
0.0
 10
11.6082345578
 20
7.7444178149
 30
0.0
 10
11.6102463366
 20
7.7466224976
 30
0.0
 10
11.6119355522
 20
7.7491596329
 30
0.0
 10
11.613188866
 20
7.7519812514
 30
0.0
 10
11.6140062429
 20
7.7549686316
 30
0.0
 10
11.6143866737
 20
7.758013374
 30
0.0
 10
11.6143268387
 20
7.7610098374
 30
0.0
 10
11.6138130228
 20
7.7638586421
 30
0.0
 10
11.6129279265
 20
7.7664883312
 30
0.0
 10
11.6117590145
 20
7.7688584987
 30
0.0
 10
11.6108124092
 20
7.7702921556
 30
0.0
 10
11.6103109553
 20
7.7709549202
 30
0.0
  0
LINE
  5
2CF
100
AcDbEntity
  8
0
100
AcDbLine
 62
7
  6
CONTINUOUS
 10
10.5788889465
 20
10.141378983
 11
10.5790159054
 21
10.1445073424
  0
SPLINE
  5
2D0
100
AcDbEntity
  8
0
100
AcDbSpline
 62
7
  6
CONTINUOUS
 70
0
 71
3
 72
16
 73
12
 74
0
 42
0.0000001
 43
0.0000001
 44
0.0000000001
 40
0.0
 40
0.0
 40
0.0
 40
0.0
 40
0.0575677523
 40
0.1194788609
 40
0.2448473361
 40
0.3705697083
 40
0.4964079254
 40
0.6222449495
 40
0.7481377072
 40
0.874027834
 40
1.0
 40
1.0
 40
1.0
 40
1.0
 10
10.5791899645
 20
10.1467041894
 30
0.0
 10
10.5793052106
 20
10.1478541545
 30
0.0
 10
10.5796205256
 20
10.1502342155
 30
0.0
 10
10.580615531
 20
10.1550516904
 30
0.0
 10
10.5825758207
 20
10.1610492737
 30
0.0
 10
10.5859974101
 20
10.1678305385
 30
0.0
 10
10.5904097304
 20
10.1740257684
 30
0.0
 10
10.5957094818
 20
10.1794856221
 30
0.0
 10
10.6017751769
 20
10.1840821516
 30
0.0
 10
10.6084664931
 20
10.1877102338
 30
0.0
 10
10.6132471142
 20
10.1894265123
 30
0.0
 10
10.6156851279
 20
10.1900987957
 30
0.0
  0
SPLINE
  5
2D1
100
AcDbEntity
  8
0
100
AcDbSpline
 62
7
  6
CONTINUOUS
 70
0
 71
3
 72
9
 73
5
 74
0
 42
0.0000001
 43
0.0000001
 44
0.0000000001
 40
0.0
 40
0.0
 40
0.0
 40
0.0
 40
0.4747279439
 40
1.0
 40
1.0
 40
1.0
 40
1.0
 10
11.7886530166
 20
7.7388875484
 30
0.0
 10
11.7898314187
 20
7.7388875484
 30
0.0
 10
11.7923177967
 20
7.7391015036
 30
0.0
 10
11.7947280013
 20
7.7397717039
 30
0.0
 10
11.7959416969
 20
7.7402481596
 30
0.0
  0
LINE
  5
2D2
100
AcDbEntity
  8
0
100
AcDbLine
 62
7
  6
CONTINUOUS
 10
10.6449934907
 20
9.4754837659
 11
10.645278627
 21
9.4701149736
  0
SPLINE
  5
2D3
100
AcDbEntity
  8
0
100
AcDbSpline
 62
7
  6
CONTINUOUS
 70
0
 71
3
 72
17
 73
13
 74
0
 42
0.0000001
 43
0.0000001
 44
0.0000000001
 40
0.0
 40
0.0
 40
0.0
 40
0.0
 40
0.0538983881
 40
0.1155561286
 40
0.178370074
 40
0.2414609101
 40
0.3677115765
 40
0.4940562539
 40
0.6204463318
 40
0.746843228
 40
0.8734231044
 40
1.0
 40
1.0
 40
1.0
 40
1.0
 10
10.645278627
 20
9.4701149736
 30
0.0
 10
10.6454101451
 20
9.4687977027
 30
0.0
 10
10.6457901614
 20
9.4659818273
 30
0.0
 10
10.6467531788
 20
9.4617017238
 30
0.0
 10
10.6481693307
 20
9.45731086
 30
0.0
 10
10.6506127097
 20
9.4516118926
 30
0.0
 10
10.6546533905
 20
9.444937079
 30
0.0
 10
10.6609033003
 20
9.4379675101
 30
0.0
 10
10.6683402038
 20
9.43227385
 30
0.0
 10
10.676709581
 20
9.4280547494
 30
0.0
 10
10.6857186441
 20
9.4254641158
 30
0.0
 10
10.6919518558
 20
9.4248790346
 30
0.0
 10
10.695060762
 20
9.4248789393
 30
0.0
  0
SPLINE
  5
2D4
100
AcDbEntity
  8
0
100
AcDbSpline
 62
7
  6
CONTINUOUS
 70
0
 71
3
 72
18
 73
14
 74
0
 42
0.0000001
 43
0.0000001
 44
0.0000000001
 40
0.0
 40
0.0
 40
0.0
 40
0.0
 40
0.1273794923
 40
0.2548389782
 40
0.3820574165
 40
0.5091834434
 40
0.6362030129
 40
0.7631817588
 40
0.8266120146
 40
0.8896305027
 40
0.9208973162
 40
0.9509435068
 40
1.0
 40
1.0
 40
1.0
 40
1.0
 10
10.7249062163
 20
9.4248789399
 30
0.0
 10
10.7280698009
 20
9.4248790653
 30
0.0
 10
10.7344148083
 20
9.4254871056
 30
0.0
 10
10.7435740049
 20
9.4281675401
 30
0.0
 10
10.7520562534
 20
9.4325346501
 30
0.0
 10
10.7595547064
 20
9.4384138871
 30
0.0
 10
10.7658053351
 20
9.4455959356
 30
0.0
 10
10.769793798
 20
9.4524561412
 30
0.0
 10
10.7721569152
 20
9.4582976853
 30
0.0
 10
10.7732835996
 20
9.4620561444
 30
0.0
 10
10.773955044
 20
9.4650710356
 30
0.0
 10
10.7744359775
 20
9.4677704907
 30
0.0
 10
10.7746597461
 20
9.4697243626
 30
0.0
 10
10.7747622368
 20
9.4709384063
 30
0.0
  0
LINE
  5
2D5
100
AcDbEntity
  8
0
100
AcDbLine
 62
7
  6
CONTINUOUS
 10
10.7747622368
 20
9.4709384063
 11
10.775046284
 21
9.4799450957
  0
SPLINE
  5
2D6
100
AcDbEntity
  8
0
100
AcDbSpline
 62
9
  6
CONTINUOUS
 70
0
 71
3
 72
16
 73
12
 74
0
 42
0.0000001
 43
0.0000001
 44
0.0000000001
 40
0.0
 40
0.0
 40
0.0
 40
0.0
 40
0.1383511874
 40
0.275047524
 40
0.4079740739
 40
0.5360426769
 40
0.6586452547
 40
0.7759409306
 40
0.8330483889
 40
0.8893421094
 40
1.0
 40
1.0
 40
1.0
 40
1.0
 10
10.3966766868
 20
10.0048875484
 30
0.0
 10
10.3966766868
 20
10.0081463255
 30
0.0
 10
10.3971853506
 20
10.0146360738
 30
0.0
 10
10.399429827
 20
10.0240201887
 30
0.0
 10
10.4030920145
 20
10.0326917222
 30
0.0
 10
10.4080369106
 20
10.0403138293
 30
0.0
 10
10.4140781781
 20
10.0466063701
 30
0.0
 10
10.4199202872
 20
10.0505656593
 30
0.0
 10
10.424885856
 20
10.0528016897
 30
0.0
 10
10.4299281517
 20
10.0543882048
 30
0.0
 10
10.4338804824
 20
10.054887549
 30
0.0
 10
10.436486961
 20
10.0548875484
 30
0.0
  0
SPLINE
  5
2D7
100
AcDbEntity
  8
0
100
AcDbSpline
 62
9
  6
CONTINUOUS
 70
0
 71
3
 72
16
 73
12
 74
0
 42
0.0000001
 43
0.0000001
 44
0.0000000001
 40
0.0
 40
0.0
 40
0.0
 40
0.0
 40
0.138351189
 40
0.2750475265
 40
0.4079740768
 40
0.5360426794
 40
0.658645256
 40
0.7759409304
 40
0.8330483883
 40
0.8893421088
 40
1.0
 40
1.0
 40
1.0
 40
1.0
 10
11.0232902915
 20
10.0048875484
 30
0.0
 10
11.0232902915
 20
10.0081463259
 30
0.0
 10
11.0227816276
 20
10.0146360748
 30
0.0
 10
11.0205371507
 20
10.0240201906
 30
0.0
 10
11.0168749626
 20
10.0326917247
 30
0.0
 10
11.0119300655
 20
10.0403138322
 30
0.0
 10
11.005888797
 20
10.046606373
 30
0.0
 10
11.0000466868
 20
10.0505656617
 30
0.0
 10
10.9950811174
 20
10.0528016916
 30
0.0
 10
10.9900388209
 20
10.0543882061
 30
0.0
 10
10.9860864897
 20
10.0548875495
 30
0.0
 10
10.9834800109
 20
10.0548875484
 30
0.0
  0
SPLINE
  5
2D8
100
AcDbEntity
  8
0
100
AcDbSpline
 62
9
  6
CONTINUOUS
 70
0
 71
3
 72
22
 73
18
 74
0
 42
0.0000001
 43
0.0000001
 44
0.0000000001
 40
0.0
 40
0.0
 40
0.0
 40
0.0
 40
0.008172262
 40
0.0170125178
 40
0.0269914238
 40
0.03842897
 40
0.0663881769
 40
0.1017963109
 40
0.1448221122
 40
0.195334987
 40
0.2530775428
 40
0.3175962187
 40
0.3883252135
 40
0.4646747693
 40
0.6315423123
 40
0.8124149831
 40
1.0
 40
1.0
 40
1.0
 40
1.0
 10
10.7743909237
 20
9.596702486
 30
0.0
 10
10.7743880395
 20
9.5965617935
 30
0.0
 10
10.7743377482
 20
9.5962685088
 30
0.0
 10
10.7741392385
 20
9.5958436528
 30
0.0
 10
10.7738231258
 20
9.5954257711
 30
0.0
 10
10.7732059836
 20
9.5948370548
 30
0.0
 10
10.7721159601
 20
9.5941335319
 30
0.0
 10
10.7704507554
 20
9.5933637488
 30
0.0
 10
10.7683551536
 20
9.5926220431
 30
0.0
 10
10.7658465618
 20
9.5919154687
 30
0.0
 10
10.7629453223
 20
9.591252269
 30
0.0
 10
10.7596786645
 20
9.5906383748
 30
0.0
 10
10.7560776179
 20
9.5900796819
 30
0.0
 10
10.7507143174
 20
9.5893974384
 30
0.0
 10
10.7434389636
 20
9.5887384246
 30
0.0
 10
10.7342317016
 20
9.5882589632
 30
0.0
 10
10.7278866678
 20
9.5881439887
 30
0.0
 10
10.7246565563
 20
9.588139115
 30
0.0
  0
LINE
  5
2D9
100
AcDbEntity
  8
0
100
AcDbLine
 62
9
  6
CONTINUOUS
 10
10.7246525285
 20
9.5881390685
 11
10.7249036228
 21
9.4248785609
  0
SPLINE
  5
2DA
100
AcDbEntity
  8
0
100
AcDbSpline
 62
9
  6
CONTINUOUS
 70
0
 71
3
 72
22
 73
18
 74
0
 42
0.0000001
 43
0.0000001
 44
0.0000000001
 40
0.0
 40
0.0
 40
0.0
 40
0.0
 40
0.0081721476
 40
0.0170122926
 40
0.0269911142
 40
0.0384286126
 40
0.0663878373
 40
0.1017961431
 40
0.1448222546
 40
0.1953354876
 40
0.2530783883
 40
0.3175974119
 40
0.3883267051
 40
0.4646764547
 40
0.6315440763
 40
0.8124164757
 40
1.0
 40
1.0
 40
1.0
 40
1.0
 10
10.6455761126
 20
9.5967024299
 30
0.0
 10
10.6455789948
 20
9.5965617334
 30
0.0
 10
10.6456292848
 20
9.5962684395
 30
0.0
 10
10.6458278007
 20
9.5958435705
 30
0.0
 10
10.6461439266
 20
9.5954256763
 30
0.0
 10
10.6467610981
 20
9.5948369419
 30
0.0
 10
10.6478511761
 20
9.5941333986
 30
0.0
 10
10.6495164652
 20
9.5933635948
 30
0.0
 10
10.651612175
 20
9.592621872
 30
0.0
 10
10.6541208942
 20
9.591915283
 30
0.0
 10
10.6570222774
 20
9.5912520723
 30
0.0
 10
10.6602890929
 20
9.5906381721
 30
0.0
 10
10.6638903082
 20
9.5900794774
 30
0.0
 10
10.6692538472
 20
9.5893972378
 30
0.0
 10
10.6765295095
 20
9.5887382402
 30
0.0
 10
10.6857371309
 20
9.5882588196
 30
0.0
 10
10.6920824008
 20
9.5881438826
 30
0.0
 10
10.6953126217
 20
9.5881390326
 30
0.0
  0
LINE
  5
2DB
100
AcDbEntity
  8
0
100
AcDbLine
 62
9
  6
CONTINUOUS
 10
10.644746511
 20
10.2217034494
 11
10.6447533899
 21
10.2222405829
  0
LINE
  5
2DC
100
AcDbEntity
  8
0
100
AcDbLine
 62
9
  6
CONTINUOUS
 10
10.6447533899
 20
10.2222405829
 11
10.6447583981
 21
10.2226320877
  0
LINE
  5
2DD
100
AcDbEntity
  8
0
100
AcDbLine
 62
9
  6
CONTINUOUS
 10
10.6447583981
 20
10.2226320877
 11
10.6447957847
 21
10.2255664959
  0
LINE
  5
2DE
100
AcDbEntity
  8
0
100
AcDbLine
 62
9
  6
CONTINUOUS
 10
10.6447957847
 20
10.2255664959
 11
10.6449170686
 21
10.2352295518
  0
SPLINE
  5
2DF
100
AcDbEntity
  8
0
100
AcDbSpline
 62
9
  6
CONTINUOUS
 70
0
 71
3
 72
31
 73
27
 74
0
 42
0.0000001
 43
0.0000001
 44
0.0000000001
 40
0.0
 40
0.0
 40
0.0
 40
0.0
 40
0.2316649929
 40
0.3247920553
 40
0.402640692
 40
0.4358026759
 40
0.4651056502
 40
0.4905366973
 40
0.5120831399
 40
0.5297327555
 40
0.5434742977
 40
0.5532991724
 40
0.55921513
 40
0.561319899
 40
0.5634873873
 40
0.5694588411
 40
0.579316168
 40
0.5930668117
 40
0.610709224
 40
0.6322393697
 40
0.6576522515
 40
0.6869424218
 40
0.7201041941
 40
0.798019113
 40
0.8913487041
 40
1.0
 40
1.0
 40
1.0
 40
1.0
 10
10.6449170847
 20
10.2352092795
 30
0.0
 10
10.6449267981
 20
10.2359922093
 30
0.0
 10
10.6449417414
 20
10.2370898536
 30
0.0
 10
10.6449656649
 20
10.2384505112
 30
0.0
 10
10.6449801758
 20
10.2391403015
 30
0.0
 10
10.6449920955
 20
10.2396144095
 30
0.0
 10
10.6450005267
 20
10.2399113163
 30
0.0
 10
10.6450090355
 20
10.24016914
 30
0.0
 10
10.6450172674
 20
10.2403869849
 30
0.0
 10
10.6450261581
 20
10.2405668851
 30
0.0
 10
10.645033075
 20
10.2407029382
 30
0.0
 10
10.6450441247
 20
10.2408090935
 30
0.0
 10
10.645046111
 20
10.2408569042
 30
0.0
 10
10.6450613132
 20
10.24090701
 30
0.0
 10
10.6450758915
 20
10.2408558344
 30
0.0
 10
10.6450783268
 20
10.2408081052
 30
0.0
 10
10.645089114
 20
10.2407013429
 30
0.0
 10
10.645096151
 20
10.2405652845
 30
0.0
 10
10.6451049871
 20
10.2403853915
 30
0.0
 10
10.6451132285
 20
10.2401677019
 30
0.0
 10
10.6451217225
 20
10.2399100327
 30
0.0
 10
10.6451301468
 20
10.2396132328
 30
0.0
 10
10.6451420582
 20
10.2391389437
 30
0.0
 10
10.645156561
 20
10.2384482457
 30
0.0
 10
10.6451731664
 20
10.237502383
 30
0.0
 10
10.6451834139
 20
10.236819798
 30
0.0
 10
10.6451885999
 20
10.2364526108
 30
0.0
  0
LINE
  5
2E0
100
AcDbEntity
  8
0
100
AcDbLine
 62
9
  6
CONTINUOUS
 10
10.6452839525
 20
10.2268620254
 11
10.6452860008
 21
10.2265889546
  0
LINE
  5
2E1
100
AcDbEntity
  8
0
100
AcDbLine
 62
9
  6
CONTINUOUS
 10
10.6452860008
 20
10.2265889546
 11
10.6453041134
 21
10.2240380495
  0
LINE
  5
2E2
100
AcDbEntity
  8
0
100
AcDbLine
 62
9
  6
CONTINUOUS
 10
10.6453041134
 20
10.2240380495
 11
10.6453070296
 21
10.2236039195
  0
LINE
  5
2E3
100
AcDbEntity
  8
0
100
AcDbLine
 62
9
  6
CONTINUOUS
 10
10.6453070296
 20
10.2236039195
 11
10.6455760501
 21
10.1190752356
  0
LINE
  5
2E4
100
AcDbEntity
  8
0
100
AcDbLine
 62
9
  6
CONTINUOUS
 10
10.6455760501
 20
10.1190752356
 11
10.6455760501
 21
9.5966998321
  0
LINE
  5
2E5
100
AcDbEntity
  8
0
100
AcDbLine
 62
9
  6
CONTINUOUS
 10
10.6453070386
 20
9.4921725271
 11
10.6453040982
 21
9.4917347944
  0
LINE
  5
2E6
100
AcDbEntity
  8
0
100
AcDbLine
 62
9
  6
CONTINUOUS
 10
10.6453040982
 20
9.4917347944
 11
10.6452872381
 21
9.4893525806
  0
LINE
  5
2E7
100
AcDbEntity
  8
0
100
AcDbLine
 62
9
  6
CONTINUOUS
 10
10.6452872381
 20
9.4893525806
 11
10.6452839525
 21
9.4889130683
  0
SPLINE
  5
2E8
100
AcDbEntity
  8
0
100
AcDbSpline
 62
9
  6
CONTINUOUS
 70
0
 71
3
 72
37
 73
33
 74
0
 42
0.0000001
 43
0.0000001
 44
0.0000000001
 40
0.0
 40
0.0
 40
0.0
 40
0.0
 40
0.2631862772
 40
0.4711917275
 40
0.5540014533
 40
0.6224186689
 40
0.6763121329
 40
0.7156199304
 40
0.7297868993
 40
0.7354959772
 40
0.7402880152
 40
0.7441627938
 40
0.7471207768
 40
0.7491643387
 40
0.7498460259
 40
0.7503056177
 40
0.7505589204
 40
0.7507127879
 40
0.7510126683
 40
0.7515255875
 40
0.7532269463
 40
0.755844912
 40
0.7593851681
 40
0.7638484049
 40
0.7692334772
 40
0.7755388281
 40
0.7909031913
 40
0.8099264543
 40
0.8325927677
 40
0.858885969
 40
0.9222876178
 40
1.0
 40
1.0
 40
1.0
 40
1.0
 10
10.6452839525
 20
9.4889130683
 30
0.0
 10
10.6452715744
 20
9.4872722104
 30
0.0
 10
10.6452472083
 20
9.4843345407
 30
0.0
 10
10.6452104923
 20
9.4808806596
 30
0.0
 10
10.6451792609
 20
9.4786411456
 30
0.0
 10
10.6451576216
 20
9.4773624485
 30
0.0
 10
10.6451359706
 20
9.4763550227
 30
0.0
 10
10.6451169007
 20
9.4756858707
 30
0.0
 10
10.6451017647
 20
9.4753171651
 30
0.0
 10
10.6450937428
 20
9.4751635843
 30
0.0
 10
10.6450881866
 20
9.4750740994
 30
0.0
 10
10.6450826939
 20
9.4750018953
 30
0.0
 10
10.6450772475
 20
9.4749466428
 30
0.0
 10
10.6450724866
 20
9.474911862
 30
0.0
 10
10.6450683432
 20
9.4748919646
 30
0.0
 10
10.6450656785
 20
9.4748843559
 30
0.0
 10
10.6450631198
 20
9.4748783161
 30
0.0
 10
10.6450579776
 20
9.4748794896
 30
0.0
 10
10.6450560484
 20
9.4748858351
 30
0.0
 10
10.6450512728
 20
9.4749002695
 30
0.0
 10
10.6450471119
 20
9.474930694
 30
0.0
 10
10.645041418
 20
9.4749790596
 30
0.0
 10
10.6450360771
 20
9.4750452071
 30
0.0
 10
10.6450304839
 20
9.475128444
 30
0.0
 10
10.6450249295
 20
9.4752290251
 30
0.0
 10
10.6450169327
 20
9.4753975086
 30
0.0
 10
10.6450072648
 20
9.4756510452
 30
0.0
 10
10.6449962009
 20
9.4760065902
 30
0.0
 10
10.6449851219
 20
9.4764303042
 30
0.0
 10
10.6449693453
 20
9.4771306726
 30
0.0
 10
10.6449502984
 20
9.4781742478
 30
0.0
 10
10.6449371919
 20
9.4790539638
 30
0.0
 10
10.6449305092
 20
9.4795384362
 30
0.0
  0
LINE
  5
2E9
100
AcDbEntity
  8
0
100
AcDbLine
 62
9
  6
CONTINUOUS
 10
10.6449305092
 20
9.4795384362
 11
10.6449170848
 21
9.4805658159
  0
LINE
  5
2EA
100
AcDbEntity
  8
0
100
AcDbLine
 62
9
  6
CONTINUOUS
 10
10.6449170687
 20
9.4805455431
 11
10.6447929031
 21
9.490435514
  0
LINE
  5
2EB
100
AcDbEntity
  8
0
100
AcDbLine
 62
9
  6
CONTINUOUS
 10
10.6447929031
 20
9.490435514
 11
10.6447596554
 21
9.4930446676
  0
LINE
  5
2EC
100
AcDbEntity
  8
0
100
AcDbLine
 62
9
  6
CONTINUOUS
 10
10.6455277004
 20
9.5988020902
 11
10.6455277015
 21
10.1169712273
  0
SPLINE
  5
2ED
100
AcDbEntity
  8
0
100
AcDbSpline
 62
9
  6
CONTINUOUS
 70
0
 71
3
 72
16
 73
12
 74
0
 42
0.0000001
 43
0.0000001
 44
0.0000000001
 40
0.0
 40
0.0
 40
0.0
 40
0.0
 40
0.138351189
 40
0.2750475265
 40
0.4079740768
 40
0.5360426794
 40
0.658645256
 40
0.7759409304
 40
0.8330483883
 40
0.8893421088
 40
1.0
 40
1.0
 40
1.0
 40
1.0
 10
10.3966766868
 20
9.7108875484
 30
0.0
 10
10.3966766868
 20
9.7076287709
 30
0.0
 10
10.3971853506
 20
9.701139022
 30
0.0
 10
10.3994298275
 20
9.6917549062
 30
0.0
 10
10.4030920157
 20
9.6830833721
 30
0.0
 10
10.4080369127
 20
9.6754612646
 30
0.0
 10
10.4140781813
 20
9.6691687238
 30
0.0
 10
10.4199202914
 20
9.665209435
 30
0.0
 10
10.4248858609
 20
9.6629734051
 30
0.0
 10
10.4299281573
 20
9.6613868907
 30
0.0
 10
10.4338804885
 20
9.6608875473
 30
0.0
 10
10.4364869673
 20
9.6608875484
 30
0.0
  0
SPLINE
  5
2EE
100
AcDbEntity
  8
0
100
AcDbSpline
 62
9
  6
CONTINUOUS
 70
0
 71
3
 72
9
 73
5
 74
0
 42
0.0000001
 43
0.0000001
 44
0.0000000001
 40
0.0
 40
0.0
 40
0.0
 40
0.0
 40
0.4988450602
 40
1.0
 40
1.0
 40
1.0
 40
1.0
 10
10.9230249541
 20
9.3538871456
 30
0.0
 10
10.9231451961
 20
9.3210171424
 30
0.0
 10
10.9237927732
 20
9.2551169311
 30
0.0
 10
10.9275335434
 20
9.1892942284
 30
0.0
 10
10.9302862462
 20
9.1563867318
 30
0.0
  0
SPLINE
  5
2EF
100
AcDbEntity
  8
0
100
AcDbSpline
 62
9
  6
CONTINUOUS
 70
0
 71
3
 72
26
 73
22
 74
0
 42
0.0000001
 43
0.0000001
 44
0.0000000001
 40
0.0
 40
0.0
 40
0.0
 40
0.0
 40
0.0325669917
 40
0.065137519
 40
0.0976917463
 40
0.1302137282
 40
0.1626913949
 40
0.1951093056
 40
0.2597025735
 40
0.3239326236
 40
0.3877609337
 40
0.451155406
 40
0.5140913709
 40
0.5765534908
 40
0.6385277858
 40
0.7000037073
 40
0.7609795499
 40
0.8214594113
 40
0.8814532516
 40
0.9409671574
 40
1.0
 40
1.0
 40
1.0
 40
1.0
 10
10.9302850227
 20
9.1563860776
 30
0.0
 10
10.9313432087
 20
9.1450074555
 30
0.0
 10
10.9336643517
 20
9.1222673855
 30
0.0
 10
10.9377993824
 20
9.0882356226
 30
0.0
 10
10.9426293397
 20
9.0543109214
 30
0.0
 10
10.9481883245
 20
9.0205313021
 30
0.0
 10
10.9543809272
 20
8.9869113069
 30
0.0
 10
10.9633562392
 20
8.9423675567
 30
0.0
 10
10.9756921808
 20
8.887141754
 30
0.0
 10
10.9921317252
 20
8.8215628251
 30
0.0
 10
11.0100516796
 20
8.7568097865
 30
0.0
 10
11.029329941
 20
8.6929229307
 30
0.0
 10
11.049886321
 20
8.6299400461
 30
0.0
 10
11.0716840467
 20
8.5679038666
 30
0.0
 10
11.0946989936
 20
8.5068560127
 30
0.0
 10
11.1189127253
 20
8.446835565
 30
0.0
 10
11.1443012596
 20
8.3878729809
 30
0.0
 10
11.1708524986
 20
8.3299961674
 30
0.0
 10
11.1985752745
 20
8.2732412563
 30
0.0
 10
11.227446185
 20
8.2176337503
 30
0.0
 10
11.2475034273
 20
8.1811853133
 30
0.0
 10
11.2577081177
 20
8.163158744
 30
0.0
  0
LINE
  5
2F0
100
AcDbEntity
  8
0
100
AcDbLine
 62
9
  6
CONTINUOUS
 10
11.521755759
 20
7.772481487
 11
11.5217803384
 21
7.7388875484
  0
LINE
  5
2F1
100
AcDbEntity
  8
0
100
AcDbLine
 62
9
  6
CONTINUOUS
 10
10.7099835036
 20
7.7389643884
 11
10.7099834653
 21
7.7726910312
  0
SPLINE
  5
2F2
100
AcDbEntity
  8
0
100
AcDbSpline
 62
9
  6
CONTINUOUS
 70
0
 71
3
 72
13
 73
9
 74
0
 42
0.0000001
 43
0.0000001
 44
0.0000000001
 40
0.0
 40
0.0
 40
0.0
 40
0.0
 40
0.1250671801
 40
0.2501710492
 40
0.3752762532
 40
0.5003592314
 40
0.7503773137
 40
1.0
 40
1.0
 40
1.0
 40
1.0
 10
10.9230259466
 20
9.3538904712
 30
0.0
 10
10.9264196097
 20
9.3458151736
 30
0.0
 10
10.9330747512
 20
9.3296058495
 30
0.0
 10
10.9426451333
 20
9.3051253538
 30
0.0
 10
10.9517837047
 20
9.2804790424
 30
0.0
 10
10.9633931406
 20
9.2474237099
 30
0.0
 10
10.9769248654
 20
9.2058078271
 30
0.0
 10
10.9869148522
 20
9.172267462
 30
0.0
 10
10.9917532687
 20
9.1554673161
 30
0.0
  0
SPLINE
  5
2F3
100
AcDbEntity
  8
0
100
AcDbSpline
 62
9
  6
CONTINUOUS
 70
0
 71
3
 72
14
 73
10
 74
0
 42
0.0000001
 43
0.0000001
 44
0.0000000001
 40
0.0
 40
0.0
 40
0.0
 40
0.0
 40
0.0916627327
 40
0.1946916569
 40
0.3083718936
 40
0.4319259217
 40
0.5644151963
 40
0.704359871
 40
1.0
 40
1.0
 40
1.0
 40
1.0
 10
10.9917532687
 20
9.1554673161
 30
0.0
 10
10.9899141056
 20
9.1558809886
 30
0.0
 10
10.9859720659
 20
9.1566030482
 30
0.0
 10
10.9796753084
 20
9.1573794745
 30
0.0
 10
10.9726944942
 20
9.1578998446
 30
0.0
 10
10.9650930585
 20
9.1581495289
 30
0.0
 10
10.9569476736
 20
9.1581158279
 30
0.0
 10
10.9452709335
 20
9.1576996368
 30
0.0
 10
10.936334509
 20
9.1570028233
 30
0.0
 10
10.9302856309
 20
9.1563878702
 30
0.0
  0
SPLINE
  5
2F4
100
AcDbEntity
  8
0
100
AcDbSpline
 62
9
  6
CONTINUOUS
 70
0
 71
3
 72
23
 73
19
 74
0
 42
0.0000001
 43
0.0000001
 44
0.0000000001
 40
0.0
 40
0.0
 40
0.0
 40
0.0
 40
0.2065954882
 40
0.4046690797
 40
0.5858890111
 40
0.6667625602
 40
0.7391820235
 40
0.8018518045
 40
0.8544245419
 40
0.8969786268
 40
0.9297265347
 40
0.9532980488
 40
0.962273127
 40
0.9699366233
 40
0.9769062505
 40
0.9838751891
 40
0.9914415052
 40
1.0
 40
1.0
 40
1.0
 40
1.0
 10
11.6420344935
 20
7.770996262
 30
0.0
 10
11.6397479501
 20
7.7713471431
 30
0.0
 10
11.6352627912
 20
7.7719940962
 30
0.0
 10
11.6287490089
 20
7.7727799941
 30
0.0
 10
11.6236153237
 20
7.7732374507
 30
0.0
 10
11.6198750421
 20
7.7734442417
 30
0.0
 10
11.6174573443
 20
7.7735102455
 30
0.0
 10
11.6153553939
 20
7.7734865051
 30
0.0
 10
11.6135912059
 20
7.7733768576
 30
0.0
 10
11.6121693139
 20
7.7731891391
 30
0.0
 10
11.6110914869
 20
7.7729324068
 30
0.0
 10
11.6104101654
 20
7.7726402074
 30
0.0
 10
11.6100586745
 20
7.772353646
 30
0.0
 10
11.6098986227
 20
7.7721388962
 30
0.0
 10
11.6098192533
 20
7.7719057796
 30
0.0
 10
11.609820132
 20
7.7716610655
 30
0.0
 10
11.6098933617
 20
7.7714104735
 30
0.0
 10
11.6099793874
 20
7.7712505051
 30
0.0
 10
11.6100306062
 20
7.7711695088
 30
0.0
  0
SPLINE
  5
2F5
100
AcDbEntity
  8
0
100
AcDbSpline
 62
9
  6
CONTINUOUS
 70
0
 71
3
 72
20
 73
16
 74
0
 42
0.0000001
 43
0.0000001
 44
0.0000000001
 40
0.0
 40
0.0
 40
0.0
 40
0.0
 40
0.1156073669
 40
0.2372597453
 40
0.3000654406
 40
0.3639526727
 40
0.4285951396
 40
0.4936732183
 40
0.5589087644
 40
0.6240895199
 40
0.689009275
 40
0.7533991761
 40
0.8169487086
 40
0.8793409802
 40
1.0
 40
1.0
 40
1.0
 40
1.0
 10
10.5280506864
 20
9.9058875484
 30
0.0
 10
10.5280506169
 20
9.9085969297
 30
0.0
 10
10.5285090991
 20
9.9141657331
 30
0.0
 10
10.5302266769
 20
9.9210221132
 30
0.0
 10
10.5323760539
 20
9.9264384235
 30
0.0
 10
10.5344009061
 20
9.9304462259
 30
0.0
 10
10.5367978341
 20
9.934305703
 30
0.0
 10
10.5395474253
 20
9.9379624624
 30
0.0
 10
10.5426292319
 20
9.941361974
 30
0.0
 10
10.5460206484
 20
9.9444471688
 30
0.0
 10
10.5496642802
 20
9.9471961011
 30
0.0
 10
10.5535055854
 20
9.9495889327
 30
0.0
 10
10.5574907342
 20
9.9516071038
 30
0.0
 10
10.5628666944
 20
9.9537438665
 30
0.0
 10
10.5670555378
 20
9.954791948
 30
0.0
 10
10.5698468086
 20
9.9552448313
 30
0.0
  0
SPLINE
  5
2F6
100
AcDbEntity
  8
0
100
AcDbSpline
 62
9
  6
CONTINUOUS
 70
0
 71
3
 72
14
 73
10
 74
0
 42
0.0000001
 43
0.0000001
 44
0.0000000001
 40
0.0
 40
0.0
 40
0.0
 40
0.0
 40
0.1282880776
 40
0.2561494455
 40
0.3831894954
 40
0.5091941997
 40
0.6339798228
 40
0.757437689
 40
1.0
 40
1.0
 40
1.0
 40
1.0
 10
11.0063799979
 20
9.1554659061
 30
0.0
 10
11.0167814042
 20
9.1105324073
 30
0.0
 10
11.0390733811
 20
9.0211571635
 30
0.0
 10
11.0773879771
 20
8.8887975789
 30
0.0
 10
11.1202660481
 20
8.758709088
 30
0.0
 10
11.1674759468
 20
8.6313095094
 30
0.0
 10
11.2188249065
 20
8.5069086136
 30
0.0
 10
11.2921713275
 20
8.3463937287
 30
0.0
 10
11.353601946
 20
8.2298292715
 30
0.0
 10
11.3972747917
 20
8.1543480276
 30
0.0
  0
SPLINE
  5
2F7
100
AcDbEntity
  8
0
100
AcDbSpline
 62
9
  6
CONTINUOUS
 70
0
 71
3
 72
16
 73
12
 74
0
 42
0.0000001
 43
0.0000001
 44
0.0000000001
 40
0.0
 40
0.0
 40
0.0
 40
0.0
 40
0.1383511874
 40
0.275047524
 40
0.4079740739
 40
0.5360426769
 40
0.6586452547
 40
0.7759409306
 40
0.8330483889
 40
0.8893421094
 40
1.0
 40
1.0
 40
1.0
 40
1.0
 10
11.0232902914
 20
9.7108875484
 30
0.0
 10
11.0232902914
 20
9.7076287712
 30
0.0
 10
11.0227816277
 20
9.7011390229
 30
0.0
 10
11.0205371512
 20
9.691754908
 30
0.0
 10
11.0168749638
 20
9.6830833746
 30
0.0
 10
11.0119300677
 20
9.6754612674
 30
0.0
 10
11.0058888002
 20
9.6691687266
 30
0.0
 10
11.000046691
 20
9.6652094375
 30
0.0
 10
10.9950811223
 20
9.662973407
 30
0.0
 10
10.9900388266
 20
9.6613868919
 30
0.0
 10
10.9860864958
 20
9.6608875478
 30
0.0
 10
10.9834800173
 20
9.6608875484
 30
0.0
  0
LINE
  5
2F8
100
AcDbEntity
  8
0
100
AcDbLine
 62
9
  6
CONTINUOUS
 10
11.6420847879
 20
7.7388875463
 11
11.6420551073
 21
7.7709927977
  0
SPLINE
  5
2F9
100
AcDbEntity
  8
0
100
AcDbSpline
 62
9
  6
CONTINUOUS
 70
0
 71
3
 72
11
 73
7
 74
0
 42
0.0000001
 43
0.0000001
 44
0.0000000001
 40
0.0
 40
0.0
 40
0.0
 40
0.0
 40
0.244919698
 40
0.4933074749
 40
0.7450443184
 40
1.0
 40
1.0
 40
1.0
 40
1.0
 10
11.6420351815
 20
7.7709928083
 30
0.0
 10
11.6197558502
 20
7.8007829839
 30
0.0
 10
11.5760460015
 20
7.8616644746
 30
0.0
 10
11.5134667862
 20
7.9559762455
 30
0.0
 10
11.4535022178
 20
8.0537637896
 30
0.0
 10
11.4155686381
 20
8.1207449388
 30
0.0
 10
11.3970486263
 20
8.1547532422
 30
0.0
  0
LINE
  5
2FA
100
AcDbEntity
  8
0
100
AcDbLine
 62
9
  6
CONTINUOUS
 10
11.7097039216
 20
7.7388875484
 11
11.7096735957
 21
7.770954948
  0
SPLINE
  5
2FB
100
AcDbEntity
  8
0
100
AcDbSpline
 62
9
  6
CONTINUOUS
 70
0
 71
3
 72
10
 73
6
 74
0
 42
0.0000001
 43
0.0000001
 44
0.0000000001
 40
0.0
 40
0.0
 40
0.0
 40
0.0
 40
0.4978365695
 40
0.748228681
 40
1.0
 40
1.0
 40
1.0
 40
1.0
 10
11.0574770423
 20
9.1563860515
 30
0.0
 10
11.0475731231
 20
9.1894329401
 30
0.0
 10
11.0325276391
 20
9.239058969
 30
0.0
 10
11.0107004063
 20
9.3048345642
 30
0.0
 10
10.9988941859
 20
9.3375761533
 30
0.0
 10
10.992701204
 20
9.3538872835
 30
0.0
  0
SPLINE
  5
2FC
100
AcDbEntity
  8
0
100
AcDbSpline
 62
9
  6
CONTINUOUS
 70
0
 71
3
 72
18
 73
14
 74
0
 42
0.0000001
 43
0.0000001
 44
0.0000000001
 40
0.0
 40
0.0
 40
0.0
 40
0.0
 40
0.128520436
 40
0.1924052262
 40
0.256021496
 40
0.3193887516
 40
0.382513837
 40
0.4453967426
 40
0.5080375076
 40
0.6325824667
 40
0.7561291844
 40
0.8786251676
 40
1.0
 40
1.0
 40
1.0
 40
1.0
 10
11.0574774272
 20
9.1563870292
 30
0.0
 10
11.0673301451
 20
9.1232180875
 30
0.0
 10
11.0819421351
 20
9.0735202017
 30
0.0
 10
11.1019925923
 20
9.0075718559
 30
0.0
 10
11.1173896469
 20
8.9585445384
 30
0.0
 10
11.1333293656
 20
8.9099056117
 30
0.0
 10
11.1498673509
 20
8.86167539
 30
0.0
 10
11.1670288066
 20
8.8138709188
 30
0.0
 10
11.1907256572
 20
8.7508512713
 30
0.0
 10
11.2219680759
 20
8.6732300957
 30
0.0
 10
11.2621432967
 20
8.5818851043
 30
0.0
 10
11.3048473921
 20
8.4926405411
 30
0.0
 10
11.3350771239
 20
8.43434188
 30
0.0
 10
11.3505806092
 20
8.405576181
 30
0.0
  0
SPLINE
  5
2FD
100
AcDbEntity
  8
0
100
AcDbSpline
 62
9
  6
CONTINUOUS
 70
0
 71
3
 72
14
 73
10
 74
0
 42
0.0000001
 43
0.0000001
 44
0.0000000001
 40
0.0
 40
0.0
 40
0.0
 40
0.0
 40
0.0787279774
 40
0.1720596753
 40
0.2796583679
 40
0.4010300668
 40
0.5354141785
 40
0.6812478941
 40
1.0
 40
1.0
 40
1.0
 40
1.0
 10
11.0574766336
 20
9.1563867484
 30
0.0
 10
11.056174562
 20
9.1567339202
 30
0.0
 10
11.0532793552
 20
9.1573065796
 30
0.0
 10
11.0485200308
 20
9.15784708
 30
0.0
 10
11.0430074431
 20
9.158128413
 30
0.0
 10
11.0367860417
 20
9.1581378356
 30
0.0
 10
11.0299159254
 20
9.1578656725
 30
0.0
 10
11.0196893573
 20
9.1571213884
 30
0.0
 10
11.0117854082
 20
9.1562068928
 30
0.0
 10
11.0063799601
 20
9.1554661061
 30
0.0
  0
SPLINE
  5
2FE
100
AcDbEntity
  8
0
100
AcDbSpline
 62
9
  6
CONTINUOUS
 70
0
 71
3
 72
15
 73
11
 74
0
 42
0.0000001
 43
0.0000001
 44
0.0000000001
 40
0.0
 40
0.0
 40
0.0
 40
0.0
 40
0.1223613007
 40
0.2457000365
 40
0.3698617037
 40
0.4947291123
 40
0.620244633
 40
0.7463580835
 40
0.8729806279
 40
1.0
 40
1.0
 40
1.0
 40
1.0
 10
10.9926994659
 20
9.3538902612
 30
0.0
 10
10.9931978947
 20
9.345792501
 30
0.0
 10
10.99416967
 20
9.3295305058
 30
0.0
 10
10.9955831113
 20
9.3050478322
 30
0.0
 10
10.9969876142
 20
9.280398215
 30
0.0
 10
10.998434569
 20
9.2556064415
 30
0.0
 10
11.0000176725
 20
9.2306931403
 30
0.0
 10
11.0018302524
 20
9.205678573
 30
0.0
 10
11.0039227303
 20
9.1805857242
 30
0.0
 10
11.0055222002
 20
9.1638438491
 30
0.0
 10
11.0063795534
 20
9.1554656665
 30
0.0
  0
LINE
  5
2FF
100
AcDbEntity
  8
0
100
AcDbLine
 62
9
  6
CONTINUOUS
 10
10.7249056926
 20
10.2908965359
 11
10.7246543555
 21
10.1276360283
  0
SPLINE
  5
300
100
AcDbEntity
  8
0
100
AcDbSpline
 62
9
  6
CONTINUOUS
 70
0
 71
3
 72
15
 73
11
 74
0
 42
0.0000001
 43
0.0000001
 44
0.0000000001
 40
0.0
 40
0.0
 40
0.0
 40
0.0
 40
0.1383785136
 40
0.2751018506
 40
0.4080546579
 40
0.5361485605
 40
0.6587753602
 40
0.77609421
 40
0.8893202516
 40
1.0
 40
1.0
 40
1.0
 40
1.0
 10
10.3966766868
 20
9.7198875484
 30
0.0
 10
10.3966766868
 20
9.7224945695
 30
0.0
 10
10.3962697491
 20
9.7276863672
 30
0.0
 10
10.3944741994
 20
9.735193656
 30
0.0
 10
10.391544343
 20
9.7421308867
 30
0.0
 10
10.3875888079
 20
9.7482285533
 30
0.0
 10
10.382754466
 20
9.7532626507
 30
0.0
 10
10.377202709
 20
9.7570280968
 30
0.0
 10
10.3711488991
 20
9.7593548575
 30
0.0
 10
10.3669136622
 20
9.7598875478
 30
0.0
 10
10.3648284798
 20
9.7598875484
 30
0.0
  0
SPLINE
  5
301
100
AcDbEntity
  8
0
100
AcDbSpline
 62
9
  6
CONTINUOUS
 70
0
 71
3
 72
33
 73
29
 74
0
 42
0.0000001
 43
0.0000001
 44
0.0000000001
 40
0.0
 40
0.0
 40
0.0
 40
0.0
 40
0.0000772842
 40
0.0002795304
 40
0.0011061894
 40
0.0025052219
 40
0.0044795704
 40
0.0070308045
 40
0.0101601303
 40
0.0138685086
 40
0.0181543189
 40
0.0284413059
 40
0.0409865412
 40
0.0557552069
 40
0.0727124222
 40
0.091823274
 40
0.1130528302
 40
0.1363661473
 40
0.1617282746
 40
0.2184497121
 40
0.2827770065
 40
0.3541483039
 40
0.4319982704
 40
0.5157615606
 40
0.6048570958
 40
0.698584289
 40
0.7961876756
 40
1.0
 40
1.0
 40
1.0
 40
1.0
 10
10.8042819536
 20
9.5256845131
 30
0.0
 10
10.8042800284
 20
9.5256837971
 30
0.0
 10
10.8042743457
 20
9.5256925959
 30
0.0
 10
10.8042702213
 20
9.5257181341
 30
0.0
 10
10.8042598988
 20
9.5257855791
 30
0.0
 10
10.804252655
 20
9.5258948796
 30
0.0
 10
10.8042429406
 20
9.5260529818
 30
0.0
 10
10.8042340522
 20
9.526255878
 30
0.0
 10
10.8042247521
 20
9.5265053739
 30
0.0
 10
10.8042155682
 20
9.5268008249
 30
0.0
 10
10.8042024638
 20
9.5272865399
 30
0.0
 10
10.8041866495
 20
9.5280070932
 30
0.0
 10
10.8041686444
 20
9.529006282
 30
0.0
 10
10.8041507827
 20
9.5301827703
 30
0.0
 10
10.8041331038
 20
9.531533779
 30
0.0
 10
10.804115669
 20
9.5330565183
 30
0.0
 10
10.8040985206
 20
9.534748201
 30
0.0
 10
10.8040816994
 20
9.5366060389
 30
0.0
 10
10.804058901
 20
9.5394071525
 30
0.0
 10
10.8040319351
 20
9.5432983235
 30
0.0
 10
10.8040024465
 20
9.54841232
 30
0.0
 10
10.8039749717
 20
9.5540878824
 30
0.0
 10
10.8039497468
 20
9.5602800238
 30
0.0
 10
10.8039269993
 20
9.5669432469
 30
0.0
 10
10.8039069716
 20
9.5740284606
 30
0.0
 10
10.8038897769
 20
9.5814815206
 30
0.0
 10
10.8038704954
 20
9.5919834904
 30
0.0
 10
10.803861091
 20
9.5999944207
 30
0.0
 10
10.8038568743
 20
9.6054112807
 30
0.0
  0
SPLINE
  5
302
100
AcDbEntity
  8
0
100
AcDbSpline
 62
9
  6
CONTINUOUS
 70
0
 71
3
 72
15
 73
11
 74
0
 42
0.0000001
 43
0.0000001
 44
0.0000000001
 40
0.0
 40
0.0
 40
0.0
 40
0.0
 40
0.1383785105
 40
0.2751018452
 40
0.4080546517
 40
0.5361485552
 40
0.6587753574
 40
0.7760942102
 40
0.8893202529
 40
1.0
 40
1.0
 40
1.0
 40
1.0
 10
11.0232902914
 20
9.7198875484
 30
0.0
 10
11.0232902914
 20
9.7224945689
 30
0.0
 10
11.023697229
 20
9.7276863656
 30
0.0
 10
11.0254927779
 20
9.7351936529
 30
0.0
 10
11.0284226331
 20
9.7421308825
 30
0.0
 10
11.0323781667
 20
9.7482285485
 30
0.0
 10
11.0372125068
 20
9.7532626459
 30
0.0
 10
11.042764262
 20
9.7570280928
 30
0.0
 10
11.04881807
 20
9.7593548551
 30
0.0
 10
11.0530533058
 20
9.759887547
 30
0.0
 10
11.0551384878
 20
9.7598875484
 30
0.0
  0
LINE
  5
303
100
AcDbEntity
  8
0
100
AcDbLine
 62
9
  6
CONTINUOUS
 10
10.8479833136
 20
9.760172565
 11
10.8478348951
 21
9.7576557475
  0
SPLINE
  5
304
100
AcDbEntity
  8
0
100
AcDbSpline
 62
9
  6
CONTINUOUS
 70
0
 71
3
 72
12
 73
8
 74
0
 42
0.0000001
 43
0.0000001
 44
0.0000000001
 40
0.0
 40
0.0
 40
0.0
 40
0.0
 40
0.0862206458
 40
0.1835968942
 40
0.4116667162
 40
0.6839050808
 40
1.0
 40
1.0
 40
1.0
 40
1.0
 10
10.8478348951
 20
9.7576557475
 30
0.0
 10
10.8475305663
 20
9.7524307682
 30
0.0
 10
10.8469303593
 20
9.7413019796
 30
0.0
 10
10.8457403996
 20
9.7163408968
 30
0.0
 10
10.8442909036
 20
9.6800882615
 30
0.0
 10
10.8426333818
 20
9.6305578437
 30
0.0
 10
10.8416112147
 20
9.5948588619
 30
0.0
 10
10.8410948664
 20
9.5756779641
 30
0.0
  0
SPLINE
  5
305
100
AcDbEntity
  8
0
100
AcDbSpline
 62
9
  6
CONTINUOUS
 70
0
 71
3
 72
33
 73
29
 74
0
 42
0.0000001
 43
0.0000001
 44
0.0000000001
 40
0.0
 40
0.0
 40
0.0
 40
0.0
 40
0.0928705467
 40
0.1709703697
 40
0.2342011215
 40
0.2602109478
 40
0.2824686344
 40
0.3009640623
 40
0.3156891764
 40
0.32664085
 40
0.3338312961
 40
0.3360396775
 40
0.3373763965
 40
0.3381034959
 40
0.3391578708
 40
0.3410407203
 40
0.3438403886
 40
0.3522751459
 40
0.3645416006
 40
0.3806449987
 40
0.4005741361
 40
0.4243141218
 40
0.4831594472
 40
0.5570413015
 40
0.6458142585
 40
0.7493308065
 40
0.8674424156
 40
1.0
 40
1.0
 40
1.0
 40
1.0
 10
10.8410947713
 20
9.5757388168
 30
0.0
 10
10.8410901805
 20
9.5755679454
 30
0.0
 10
10.8410811211
 20
9.5752533937
 30
0.0
 10
10.8410662365
 20
9.5748225911
 30
0.0
 10
10.8410531335
 20
9.5745148597
 30
0.0
 10
10.8410422487
 20
9.5743099352
 30
0.0
 10
10.8410346534
 20
9.5741872713
 30
0.0
 10
10.8410270097
 20
9.5740854885
 30
0.0
 10
10.8410196335
 20
9.5740043991
 30
0.0
 10
10.8410119068
 20
9.573944655
 30
0.0
 10
10.8410059883
 20
9.5739071597
 30
0.0
 10
10.84099961
 20
9.5738888265
 30
0.0
 10
10.8409967152
 20
9.5738809972
 30
0.0
 10
10.8409902114
 20
9.5738789426
 30
0.0
 10
10.8409862041
 20
9.5738859427
 30
0.0
 10
10.8409827224
 20
9.5738952119
 30
0.0
 10
10.8409768792
 20
9.5739191421
 30
0.0
 10
10.8409704435
 20
9.5739615966
 30
0.0
 10
10.8409629212
 20
9.5740290978
 30
0.0
 10
10.8409554184
 20
9.5741176162
 30
0.0
 10
10.8409478093
 20
9.5742273944
 30
0.0
 10
10.8409368677
 20
9.5744157519
 30
0.0
 10
10.8409237254
 20
9.5747034536
 30
0.0
 10
10.8409088072
 20
9.5751108626
 30
0.0
 10
10.84089396
 20
9.5756005437
 30
0.0
 10
10.8408792209
 20
9.5761716639
 30
0.0
 10
10.8408646444
 20
9.5768233995
 30
0.0
 10
10.8408555773
 20
9.5772846807
 30
0.0
 10
10.8408510366
 20
9.5775286177
 30
0.0
  0
LINE
  5
306
100
AcDbEntity
  8
0
100
AcDbLine
 62
9
  6
CONTINUOUS
 10
10.8408510366
 20
9.5775286177
 11
10.840746616
 21
9.5860101373
  0
LINE
  5
307
100
AcDbEntity
  8
0
100
AcDbLine
 62
9
  6
CONTINUOUS
 10
10.8407466353
 20
10.1297672406
 11
10.8410023185
 21
10.1418784187
  0
LINE
  5
308
100
AcDbEntity
  8
0
100
AcDbLine
 62
9
  6
CONTINUOUS
 10
10.8410023185
 20
10.1418784187
 11
10.8410948382
 21
10.1400351998
  0
SPLINE
  5
309
100
AcDbEntity
  8
0
100
AcDbSpline
 62
9
  6
CONTINUOUS
 70
0
 71
3
 72
12
 73
8
 74
0
 42
0.0000001
 43
0.0000001
 44
0.0000000001
 40
0.0
 40
0.0
 40
0.0
 40
0.0
 40
0.3160797391
 40
0.5883128537
 40
0.8163876425
 40
0.9137702933
 40
1.0
 40
1.0
 40
1.0
 40
1.0
 10
10.8410949294
 20
10.1400936722
 30
0.0
 10
10.8416111932
 20
10.1209160158
 30
0.0
 10
10.8426331973
 20
10.0852225918
 30
0.0
 10
10.8442904312
 20
10.0356991019
 30
0.0
 10
10.8457396631
 20
9.9994504771
 30
0.0
 10
10.8469293925
 20
9.9744911683
 30
0.0
 10
10.8475294812
 20
9.9633627836
 30
0.0
 10
10.8478337473
 20
9.958137884
 30
0.0
  0
LINE
  5
30A
100
AcDbEntity
  8
0
100
AcDbLine
 62
9
  6
CONTINUOUS
 10
10.8478337473
 20
9.958137884
 11
10.8479833093
 21
9.9556014304
  0
LINE
  5
30B
100
AcDbEntity
  8
0
100
AcDbLine
 62
9
  6
CONTINUOUS
 10
10.8479834891
 20
9.9556290649
 11
10.8480003902
 21
9.9553516923
  0
SPLINE
  5
30C
100
AcDbEntity
  8
0
100
AcDbSpline
 62
9
  6
CONTINUOUS
 70
0
 71
3
 72
18
 73
14
 74
0
 42
0.0000001
 43
0.0000001
 44
0.0000000001
 40
0.0
 40
0.0
 40
0.0
 40
0.0
 40
0.1529794107
 40
0.2895804841
 40
0.4128045181
 40
0.4707316978
 40
0.5269754904
 40
0.5822249669
 40
0.6372076811
 40
0.6926626305
 40
0.7493087271
 40
0.8686551685
 40
1.0
 40
1.0
 40
1.0
 40
1.0
 10
10.8483344915
 20
9.9511737584
 30
0.0
 10
10.8486881394
 20
9.9475899031
 30
0.0
 10
10.8496929065
 20
9.9408287424
 30
0.0
 10
10.8523823074
 20
9.9314568339
 30
0.0
 10
10.8556306854
 20
9.9246654422
 30
0.0
 10
10.858794901
 20
9.9200475643
 30
0.0
 10
10.8613967513
 20
9.9170138167
 30
0.0
 10
10.8642756509
 20
9.9143420129
 30
0.0
 10
10.8674307265
 20
9.9120338268
 30
0.0
 10
10.8708606299
 20
9.910090775
 30
0.0
 10
10.8758820457
 20
9.9079500936
 30
0.0
 10
10.8829593982
 20
9.9062172059
 30
0.0
 10
10.8888784661
 20
9.9058638701
 30
0.0
 10
10.891970325
 20
9.9058895873
 30
0.0
  0
SPLINE
  5
30D
100
AcDbEntity
  8
0
100
AcDbSpline
 62
9
  6
CONTINUOUS
 70
0
 71
3
 72
18
 73
14
 74
0
 42
0.0000001
 43
0.0000001
 44
0.0000000001
 40
0.0
 40
0.0
 40
0.0
 40
0.0
 40
0.1324256023
 40
0.2529793665
 40
0.3101999465
 40
0.3661658839
 40
0.421559954
 40
0.4770895706
 40
0.5334570945
 40
0.5913340976
 40
0.7139049417
 40
0.8491159347
 40
1.0
 40
1.0
 40
1.0
 40
1.0
 10
10.8919702594
 20
9.8098668997
 30
0.0
 10
10.8889483719
 20
9.8098885622
 30
0.0
 10
10.8831594934
 20
9.8095451751
 30
0.0
 10
10.8762282029
 20
9.8078908431
 30
0.0
 10
10.8712898852
 20
9.8058502118
 30
0.0
 10
10.8679081754
 20
9.8039993603
 30
0.0
 10
10.8647878433
 20
9.8018016198
 30
0.0
 10
10.8619301919
 20
9.7992580288
 30
0.0
 10
10.8593361393
 20
9.796369785
 30
0.0
 10
10.8561692649
 20
9.7919797321
 30
0.0
 10
10.8528774201
 20
9.7855204851
 30
0.0
 10
10.8500819218
 20
9.7765899894
 30
0.0
 10
10.848978439
 20
9.770136629
 30
0.0
 10
10.8485694638
 20
9.7667178149
 30
0.0
  0
LINE
  5
30E
100
AcDbEntity
  8
0
100
AcDbLine
 62
9
  6
CONTINUOUS
 10
10.8480031119
 20
9.7604287774
 11
10.8479834891
 21
9.7601077104
  0
SPLINE
  5
30F
100
AcDbEntity
  8
0
100
AcDbSpline
 62
9
  6
CONTINUOUS
 70
0
 71
3
 72
17
 73
13
 74
0
 42
0.0000001
 43
0.0000001
 44
0.0000000001
 40
0.0
 40
0.0
 40
0.0
 40
0.0
 40
0.1244602837
 40
0.1869211261
 40
0.2493623084
 40
0.3740790894
 40
0.4989539019
 40
0.6239877455
 40
0.7491585226
 40
0.8119163093
 40
0.8747387366
 40
1.0
 40
1.0
 40
1.0
 40
1.0
 10
10.8502306352
 20
9.9558875484
 30
0.0
 10
10.8534741027
 20
9.9558875484
 30
0.0
 10
10.8583622878
 20
9.9553980387
 30
0.0
 10
10.8646719497
 20
9.953812076
 30
0.0
 10
10.8708015587
 20
9.9516052531
 30
0.0
 10
10.8780134019
 20
9.9477259806
 30
0.0
 10
10.8855831983
 20
9.9414631677
 30
0.0
 10
10.8918027282
 20
9.9338427813
 30
0.0
 10
10.8956522318
 20
9.9265883757
 30
0.0
 10
10.8978432033
 20
9.9204219614
 30
0.0
 10
10.8994187813
 20
9.9140700877
 30
0.0
 10
10.899904642
 20
9.9091518897
 30
0.0
 10
10.899904642
 20
9.9058875484
 30
0.0
  0
SPLINE
  5
310
100
AcDbEntity
  8
0
100
AcDbSpline
 62
9
  6
CONTINUOUS
 70
0
 71
3
 72
16
 73
12
 74
0
 42
0.0000001
 43
0.0000001
 44
0.0000000001
 40
0.0
 40
0.0
 40
0.0
 40
0.0
 40
0.1104166237
 40
0.1666036855
 40
0.2236200554
 40
0.3407927884
 40
0.4633628934
 40
0.5914882479
 40
0.7245478987
 40
0.861432483
 40
1.0
 40
1.0
 40
1.0
 40
1.0
 10
11.0605621505
 20
9.9558875484
 30
0.0
 10
11.063158825
 20
9.9558875488
 30
0.0
 10
11.0670967904
 20
9.9553879954
 30
0.0
 10
11.072119506
 20
9.953801476
 30
0.0
 10
11.0770671375
 20
9.9515648682
 30
0.0
 10
11.0828879315
 20
9.9476041677
 30
0.0
 10
11.0889054719
 20
9.9413113255
 30
0.0
 10
11.0938307285
 20
9.9336894151
 30
0.0
 10
11.0974782731
 20
9.9250184762
 30
0.0
 10
11.099713763
 20
9.9156351629
 30
0.0
 10
11.1002203755
 20
9.9091462492
 30
0.0
 10
11.1002203755
 20
9.9058875484
 30
0.0
  0
SPLINE
  5
311
100
AcDbEntity
  8
0
100
AcDbSpline
 62
9
  6
CONTINUOUS
 70
0
 71
3
 72
21
 73
17
 74
0
 42
0.0000001
 43
0.0000001
 44
0.0000000001
 40
0.0
 40
0.0
 40
0.0
 40
0.0
 40
0.0358652071
 40
0.0735853274
 40
0.114067802
 40
0.1581938914
 40
0.2067037015
 40
0.2599169309
 40
0.3179346171
 40
0.3807551144
 40
0.4482376949
 40
0.5198978779
 40
0.5951118733
 40
0.6732055856
 40
0.8351797656
 40
1.0
 40
1.0
 40
1.0
 40
1.0
 10
11.4958237476
 20
8.1633786597
 30
0.0
 10
11.4951232447
 20
8.1644328628
 30
0.0
 10
11.4934764636
 20
8.1664634749
 30
0.0
 10
11.4904002495
 20
8.1690909012
 30
0.0
 10
11.4866725682
 20
8.1713067306
 30
0.0
 10
11.4822959673
 20
8.1730598882
 30
0.0
 10
11.4772879905
 20
8.1743058155
 30
0.0
 10
11.4716883954
 20
8.1750398493
 30
0.0
 10
11.4655410521
 20
8.1752455906
 30
0.0
 10
11.4588966501
 20
8.1749054121
 30
0.0
 10
11.4518203156
 20
8.1740065561
 30
0.0
 10
11.4443867526
 20
8.1725802279
 30
0.0
 10
11.4366807459
 20
8.1706542415
 30
0.0
 10
11.426030931
 20
8.1674180301
 30
0.0
 10
11.4126661965
 20
8.1623116442
 30
0.0
 10
11.4022193041
 20
8.1574017164
 30
0.0
 10
11.3970420282
 20
8.1547503859
 30
0.0
  0
SPLINE
  5
312
100
AcDbEntity
  8
0
100
AcDbSpline
 62
9
  6
CONTINUOUS
 70
0
 71
3
 72
16
 73
12
 74
0
 42
0.0000001
 43
0.0000001
 44
0.0000000001
 40
0.0
 40
0.0
 40
0.0
 40
0.0
 40
0.1104166239
 40
0.1666036857
 40
0.2236200555
 40
0.3407927883
 40
0.463362893
 40
0.5914882473
 40
0.7245478982
 40
0.8614324827
 40
1.0
 40
1.0
 40
1.0
 40
1.0
 10
10.3594048291
 20
9.9558875484
 30
0.0
 10
10.3568081546
 20
9.9558875489
 30
0.0
 10
10.3528701891
 20
9.9553879956
 30
0.0
 10
10.3478474733
 20
9.9538014764
 30
0.0
 10
10.3428998417
 20
9.9515648687
 30
0.0
 10
10.3370790474
 20
9.9476041683
 30
0.0
 10
10.3310615068
 20
9.9413113261
 30
0.0
 10
10.32613625
 20
9.9336894157
 30
0.0
 10
10.3224887053
 20
9.9250184766
 30
0.0
 10
10.3202532153
 20
9.9156351631
 30
0.0
 10
10.3197466028
 20
9.9091462493
 30
0.0
 10
10.3197466028
 20
9.9058875484
 30
0.0
  0
SPLINE
  5
313
100
AcDbEntity
  8
0
100
AcDbSpline
 62
9
  6
CONTINUOUS
 70
0
 71
3
 72
17
 73
13
 74
0
 42
0.0000001
 43
0.0000001
 44
0.0000000001
 40
0.0
 40
0.0
 40
0.0
 40
0.0
 40
0.1244602842
 40
0.1869211269
 40
0.2493623094
 40
0.3740790903
 40
0.4989539025
 40
0.623987746
 40
0.7491585228
 40
0.8119163094
 40
0.8747387367
 40
1.0
 40
1.0
 40
1.0
 40
1.0
 10
10.5697363491
 20
9.9558875484
 30
0.0
 10
10.5664928813
 20
9.9558875488
 30
0.0
 10
10.5616046958
 20
9.9553980396
 30
0.0
 10
10.5552950332
 20
9.9538120774
 30
0.0
 10
10.5491654234
 20
9.9516052549
 30
0.0
 10
10.5419535794
 20
9.9477259827
 30
0.0
 10
10.534383782
 20
9.9414631698
 30
0.0
 10
10.5281642513
 20
9.9338427831
 30
0.0
 10
10.5243147471
 20
9.9265883771
 30
0.0
 10
10.5221237753
 20
9.9204219625
 30
0.0
 10
10.520548197
 20
9.9140700883
 30
0.0
 10
10.5200623363
 20
9.9091518899
 30
0.0
 10
10.5200623363
 20
9.9058875484
 30
0.0
  0
SPLINE
  5
314
100
AcDbEntity
  8
0
100
AcDbSpline
 62
9
  6
CONTINUOUS
 70
0
 71
3
 72
10
 73
6
 74
0
 42
0.0000001
 43
0.0000001
 44
0.0000000001
 40
0.0
 40
0.0
 40
0.0
 40
0.0
 40
0.2517748278
 40
0.5021660662
 40
1.0
 40
1.0
 40
1.0
 40
1.0
 10
10.4272656408
 20
9.3538873338
 30
0.0
 10
10.4210706757
 20
9.3375766961
 30
0.0
 10
10.409264104
 20
9.3048349676
 30
0.0
 10
10.3874406757
 20
9.2390581515
 30
0.0
 10
10.3723912576
 20
9.1894335905
 30
0.0
 10
10.3624889652
 20
9.156386404
 30
0.0
  0
SPLINE
  5
315
100
AcDbEntity
  8
0
100
AcDbSpline
 62
9
  6
CONTINUOUS
 70
0
 71
3
 72
17
 73
13
 74
0
 42
0.0000001
 43
0.0000001
 44
0.0000000001
 40
0.0
 40
0.0
 40
0.0
 40
0.0
 40
0.1285228399
 40
0.1924094964
 40
0.2560262312
 40
0.3193945671
 40
0.382520896
 40
0.508041022
 40
0.6325854889
 40
0.7561331786
 40
0.878627883
 40
1.0
 40
1.0
 40
1.0
 40
1.0
 10
10.3624908076
 20
9.1563857497
 30
0.0
 10
10.3526459967
 20
9.1231930167
 30
0.0
 10
10.3380096534
 20
9.0734700488
 30
0.0
 10
10.3179445865
 20
9.0074833856
 30
0.0
 10
10.302540417
 20
8.9584263654
 30
0.0
 10
10.2865891739
 20
8.909759319
 30
0.0
 10
10.2645657263
 20
8.8455404473
 30
0.0
 10
10.235478511
 20
8.7663301841
 30
0.0
 10
10.1978824185
 20
8.6729534974
 30
0.0
 10
10.1576751782
 20
8.5815596547
 30
0.0
 10
10.1149362643
 20
8.4922696201
 30
0.0
 10
10.0846804643
 20
8.4339430743
 30
0.0
 10
10.0691637933
 20
8.4051639529
 30
0.0
  0
SPLINE
  5
316
100
AcDbEntity
  8
0
100
AcDbSpline
 62
9
  6
CONTINUOUS
 70
0
 71
3
 72
20
 73
16
 74
0
 42
0.0000001
 43
0.0000001
 44
0.0000000001
 40
0.0
 40
0.0
 40
0.0
 40
0.0
 40
0.1206633293
 40
0.1830569577
 40
0.2466075079
 40
0.3109981305
 40
0.3759182325
 40
0.4410987753
 40
0.5063334115
 40
0.5714103244
 40
0.6360517862
 40
0.6999384085
 40
0.762743686
 40
0.8843932455
 40
1.0
 40
1.0
 40
1.0
 40
1.0
 10
10.569838966
 20
9.7605315436
 30
0.0
 10
10.5670479832
 20
9.7609848367
 30
0.0
 10
10.5628596466
 20
9.7620334676
 30
0.0
 10
10.5574844556
 20
9.7641708193
 30
0.0
 10
10.5534999763
 20
9.766189354
 30
0.0
 10
10.5496593768
 20
9.7685824411
 30
0.0
 10
10.5460164646
 20
9.7713314995
 30
0.0
 10
10.5426257335
 20
9.7744166467
 30
0.0
 10
10.5395446006
 20
9.7778159975
 30
0.0
 10
10.5367957
 20
9.7814725388
 30
0.0
 10
10.5343993956
 20
9.7853317203
 30
0.0
 10
10.5323750531
 20
9.7893391528
 30
0.0
 10
10.5302260859
 20
9.7947548173
 30
0.0
 10
10.5285089626
 20
9.8016104005
 30
0.0
 10
10.5280506627
 20
9.8071784876
 30
0.0
 10
10.5280506857
 20
9.8098875484
 30
0.0
  0
SPLINE
  5
317
100
AcDbEntity
  8
0
100
AcDbSpline
 62
9
  6
CONTINUOUS
 70
0
 71
3
 72
18
 73
14
 74
0
 42
0.0000001
 43
0.0000001
 44
0.0000000001
 40
0.0
 40
0.0
 40
0.0
 40
0.0
 40
0.132396705
 40
0.2529173773
 40
0.3101220177
 40
0.3660736896
 40
0.4214562047
 40
0.4769778773
 40
0.5333417842
 40
0.5912199891
 40
0.7138085261
 40
0.8490577802
 40
1.0
 40
1.0
 40
1.0
 40
1.0
 10
10.5279967138
 20
9.905907251
 30
0.0
 10
10.5310182408
 20
9.9058836511
 30
0.0
 10
10.5368065465
 20
9.9062235214
 30
0.0
 10
10.5437376368
 20
9.9078745412
 30
0.0
 10
10.5486757456
 20
9.9099133875
 30
0.0
 10
10.5520573362
 20
9.9117633309
 30
0.0
 10
10.5551775772
 20
9.9139605703
 30
0.0
 10
10.5580351642
 20
9.9165040513
 30
0.0
 10
10.5606291805
 20
9.9193925604
 30
0.0
 10
10.5637961801
 20
9.9237836541
 30
0.0
 10
10.5670881494
 20
9.9302451593
 30
0.0
 10
10.5698838405
 20
9.9391793256
 30
0.0
 10
10.5709875298
 20
9.9456355608
 30
0.0
 10
10.5713966641
 20
9.9490560524
 30
0.0
  0
LINE
  5
318
100
AcDbEntity
  8
0
100
AcDbLine
 62
9
  6
CONTINUOUS
 10
10.5719631443
 20
9.9553451562
 11
10.5719834891
 21
9.9556780239
  0
LINE
  5
319
100
AcDbEntity
  8
0
100
AcDbLine
 62
9
  6
CONTINUOUS
 10
10.5719834891
 20
9.7601307939
 11
10.5719655378
 21
9.7604252506
  0
SPLINE
  5
31A
100
AcDbEntity
  8
0
100
AcDbSpline
 62
9
  6
CONTINUOUS
 70
0
 71
3
 72
18
 73
14
 74
0
 42
0.0000001
 43
0.0000001
 44
0.0000000001
 40
0.0
 40
0.0
 40
0.0
 40
0.0
 40
0.1530203584
 40
0.2896491216
 40
0.4128861789
 40
0.4708144358
 40
0.5270560098
 40
0.5823003536
 40
0.6372755016
 40
0.6927209968
 40
0.7493562764
 40
0.8686788601
 40
1.0
 40
1.0
 40
1.0
 40
1.0
 10
10.5716311661
 20
9.7646022118
 30
0.0
 10
10.5712771833
 20
9.7681870778
 30
0.0
 10
10.5702718763
 20
9.7749499249
 30
0.0
 10
10.5675819324
 20
9.7843238735
 30
0.0
 10
10.5643332858
 20
9.7911164043
 30
0.0
 10
10.5611689382
 20
9.7957346762
 30
0.0
 10
10.558567133
 20
9.7987683813
 30
0.0
 10
10.5556883495
 20
9.8014399207
 30
0.0
 10
10.5525334606
 20
9.8037476259
 30
0.0
 10
10.5491038178
 20
9.8056899869
 30
0.0
 10
10.5440828774
 20
9.8078294436
 30
0.0
 10
10.537006229
 20
9.8095602456
 30
0.0
 10
10.5310880102
 20
9.8099114593
 30
0.0
 10
10.5279966549
 20
9.8098845768
 30
0.0
  0
SPLINE
  5
31B
100
AcDbEntity
  8
0
100
AcDbSpline
 62
9
  6
CONTINUOUS
 70
0
 71
3
 72
13
 73
9
 74
0
 42
0.0000001
 43
0.0000001
 44
0.0000000001
 40
0.0
 40
0.0
 40
0.0
 40
0.0
 40
0.2457323009
 40
0.3698328849
 40
0.4946983596
 40
0.6202373484
 40
0.7463605809
 40
1.0
 40
1.0
 40
1.0
 40
1.0
 10
10.4272675915
 20
9.3538904723
 30
0.0
 10
10.4261962815
 20
9.3376327643
 30
0.0
 10
10.4248083415
 20
9.3131501685
 30
0.0
 10
10.4229885797
 20
9.2804004658
 30
0.0
 10
10.4215406072
 20
9.2556115676
 30
0.0
 10
10.4199472663
 20
9.2306970051
 30
0.0
 10
10.4175273662
 20
9.1972810034
 30
0.0
 10
10.4153095771
 20
9.1721956932
 30
0.0
 10
10.4135862809
 20
9.1554669825
 30
0.0
  0
SPLINE
  5
31C
100
AcDbEntity
  8
0
100
AcDbSpline
 62
9
  6
CONTINUOUS
 70
0
 71
3
 72
14
 73
10
 74
0
 42
0.0000001
 43
0.0000001
 44
0.0000000001
 40
0.0
 40
0.0
 40
0.0
 40
0.0
 40
0.3187523464
 40
0.4645861351
 40
0.5989702792
 40
0.7203419642
 40
0.8279405943
 40
0.9212721805
 40
1.0
 40
1.0
 40
1.0
 40
1.0
 10
10.4135862809
 20
9.1554669825
 30
0.0
 10
10.4081807766
 20
9.1562077688
 30
0.0
 10
10.4002767462
 20
9.1571222619
 30
0.0
 10
10.3900500746
 20
9.1578665374
 30
0.0
 10
10.3831798914
 20
9.1581386916
 30
0.0
 10
10.3769584321
 20
9.1581292575
 30
0.0
 10
10.3714457962
 20
9.1578479107
 30
0.0
 10
10.3666864339
 20
9.1573073943
 30
0.0
 10
10.3637912059
 20
9.1567347216
 30
0.0
 10
10.3624891259
 20
9.1563875423
 30
0.0
  0
SPLINE
  5
31D
100
AcDbEntity
  8
0
100
AcDbSpline
 62
9
  6
CONTINUOUS
 70
0
 71
3
 72
9
 73
5
 74
0
 42
0.0000001
 43
0.0000001
 44
0.0000000001
 40
0.0
 40
0.0
 40
0.0
 40
0.0
 40
0.2511606363
 40
1.0
 40
1.0
 40
1.0
 40
1.0
 10
10.4596657274
 20
9.3538876964
 30
0.0
 10
10.4563594114
 20
9.3371556238
 30
0.0
 10
10.4425807263
 20
9.2706581852
 30
0.0
 10
10.4265419523
 20
9.2046397419
 30
0.0
 10
10.4135874131
 20
9.1554659363
 30
0.0
  0
SPLINE
  5
31E
100
AcDbEntity
  8
0
100
AcDbSpline
 62
9
  6
CONTINUOUS
 70
0
 71
3
 72
23
 73
19
 74
0
 42
0.0000001
 43
0.0000001
 44
0.0000000001
 40
0.0
 40
0.0
 40
0.0
 40
0.0
 40
0.0086927806
 40
0.0163592071
 40
0.0233768964
 40
0.0303322462
 40
0.0466573418
 40
0.0572751694
 40
0.0699981776
 40
0.1024681993
 40
0.1447882468
 40
0.1971790083
 40
0.2597218921
 40
0.3320894603
 40
0.4129893416
 40
0.5944516418
 40
0.7929321015
 40
1.0
 40
1.0
 40
1.0
 40
1.0
 10
9.8099190903
 20
7.7711426208
 30
0.0
 10
9.809972473
 20
7.7712241559
 30
0.0
 10
9.8100627256
 20
7.7713850009
 30
0.0
 10
9.8101429345
 20
7.7716370193
 30
0.0
 10
9.810151219
 20
7.7718832841
 30
0.0
 10
9.8100496654
 20
7.7722142768
 30
0.0
 10
9.8097633843
 20
7.7724936455
 30
0.0
 10
9.8093781053
 20
7.7727134717
 30
0.0
 10
9.8087965485
 20
7.7729505817
 30
0.0
 10
9.8078392256
 20
7.7731811368
 30
0.0
 10
9.8064251312
 20
7.7733724719
 30
0.0
 10
9.8046644943
 20
7.7734846403
 30
0.0
 10
9.8025641788
 20
7.773510875
 30
0.0
 10
9.8001450815
 20
7.7734465552
 30
0.0
 10
9.7963976649
 20
7.7732411173
 30
0.0
 10
9.7912499439
 20
7.7727835805
 30
0.0
 10
9.7847155436
 20
7.7719957743
 30
0.0
 10
9.7802150713
 20
7.7713466041
 30
0.0
 10
9.7779204723
 20
7.7709944184
 30
0.0
  0
SPLINE
  5
31F
100
AcDbEntity
  8
0
100
AcDbSpline
 62
9
  6
CONTINUOUS
 70
0
 71
3
 72
14
 73
10
 74
0
 42
0.0000001
 43
0.0000001
 44
0.0000000001
 40
0.0
 40
0.0
 40
0.0
 40
0.0
 40
0.2425685763
 40
0.366027372
 40
0.4908141517
 40
0.6168200394
 40
0.7438583368
 40
0.871715167
 40
1.0
 40
1.0
 40
1.0
 40
1.0
 10
10.0230734342
 20
8.1550071161
 30
0.0
 10
10.0666986589
 20
8.2304462303
 30
0.0
 10
10.1280633608
 20
8.3469411638
 30
0.0
 10
10.2013346333
 20
8.5073544344
 30
0.0
 10
10.2526322944
 20
8.6316732719
 30
0.0
 10
10.299795892
 20
8.7589862424
 30
0.0
 10
10.3426341604
 20
8.8889823689
 30
0.0
 10
10.3809166011
 20
9.021244781
 30
0.0
 10
10.403189107
 20
9.1105538214
 30
0.0
 10
10.4135842987
 20
9.1554535984
 30
0.0
  0
SPLINE
  5
320
100
AcDbEntity
  8
0
100
AcDbSpline
 62
9
  6
CONTINUOUS
 70
0
 71
3
 72
14
 73
10
 74
0
 42
0.0000001
 43
0.0000001
 44
0.0000000001
 40
0.0
 40
0.0
 40
0.0
 40
0.0
 40
0.1287994172
 40
0.2571292978
 40
0.3844696405
 40
0.5105732514
 40
0.6352480296
 40
0.758409108
 40
1.0
 40
1.0
 40
1.0
 40
1.0
 10
10.428215059
 20
9.1554662402
 30
0.0
 10
10.4185695134
 20
9.1108325816
 30
0.0
 10
10.397420708
 20
9.0221292283
 30
0.0
 10
10.3610251621
 20
8.8907448513
 30
0.0
 10
10.3205959289
 20
8.7615451518
 30
0.0
 10
10.2763361063
 20
8.6349806211
 30
0.0
 10
10.2283959767
 20
8.5113458841
 30
0.0
 10
10.1600127747
 20
8.351845953
 30
0.0
 10
10.1025218259
 20
8.2358236444
 30
0.0
 10
10.0614242295
 20
8.1606747625
 30
0.0
  0
LINE
  5
321
100
AcDbEntity
  8
0
100
AcDbLine
 62
9
  6
CONTINUOUS
 10
9.7778823492
 20
7.7388875463
 11
9.777911991
 21
7.7709927765
  0
LINE
  5
322
100
AcDbEntity
  8
0
100
AcDbLine
 62
9
  6
CONTINUOUS
 10
10.5719836646
 20
9.9556025259
 11
10.5721324869
 21
9.9581262756
  0
SPLINE
  5
323
100
AcDbEntity
  8
0
100
AcDbSpline
 62
9
  6
CONTINUOUS
 70
0
 71
3
 72
12
 73
8
 74
0
 42
0.0000001
 43
0.0000001
 44
0.0000000001
 40
0.0
 40
0.0
 40
0.0
 40
0.0
 40
0.086223757
 40
0.1836021727
 40
0.4116736067
 40
0.6839101375
 40
1.0
 40
1.0
 40
1.0
 40
1.0
 10
10.5721324869
 20
9.9581262756
 30
0.0
 10
10.5724367944
 20
9.9633512397
 30
0.0
 10
10.5730369611
 20
9.9744799135
 30
0.0
 10
10.5742268426
 20
9.9994404374
 30
0.0
 10
10.5756762491
 20
10.0356917701
 30
0.0
 10
10.5773336738
 20
10.0852199255
 30
0.0
 10
10.5783557863
 20
10.120917089
 30
0.0
 10
10.5788721064
 20
10.1400969276
 30
0.0
  0
SPLINE
  5
324
100
AcDbEntity
  8
0
100
AcDbSpline
 62
9
  6
CONTINUOUS
 70
0
 71
3
 72
33
 73
29
 74
0
 42
0.0000001
 43
0.0000001
 44
0.0000000001
 40
0.0
 40
0.0
 40
0.0
 40
0.0
 40
0.0928681777
 40
0.1709683402
 40
0.2342016076
 40
0.2602133411
 40
0.2824732783
 40
0.3009712332
 40
0.3156990814
 40
0.3266536243
 40
0.3338469865
 40
0.3360567867
 40
0.3373947753
 40
0.3381222428
 40
0.3391755428
 40
0.341057075
 40
0.3438554041
 40
0.3522875773
 40
0.3645516729
 40
0.3806529624
 40
0.4005802361
 40
0.4243185951
 40
0.4831613415
 40
0.5570414535
 40
0.6458134277
 40
0.7493296747
 40
0.8674415867
 40
1.0
 40
1.0
 40
1.0
 40
1.0
 10
10.5788722015
 20
10.1400360865
 30
0.0
 10
10.5788767925
 20
10.1402069558
 30
0.0
 10
10.5788858522
 20
10.1405215079
 30
0.0
 10
10.5789007371
 20
10.1409523171
 30
0.0
 10
10.5789138403
 20
10.1412600612
 30
0.0
 10
10.5789247252
 20
10.1414650007
 30
0.0
 10
10.5789323208
 20
10.1415876784
 30
0.0
 10
10.5789399647
 20
10.1416894767
 30
0.0
 10
10.5789473411
 20
10.1417705814
 30
0.0
 10
10.5789550684
 20
10.1418303439
 30
0.0
 10
10.5789609866
 20
10.1418678498
 30
0.0
 10
10.578967366
 20
10.1418861976
 30
0.0
 10
10.5789702588
 20
10.1418940289
 30
0.0
 10
10.5789767595
 20
10.1418961
 30
0.0
 10
10.5789807736
 20
10.141889106
 30
0.0
 10
10.5789842523
 20
10.1418798433
 30
0.0
 10
10.5789900978
 20
10.141855923
 30
0.0
 10
10.5789965318
 20
10.1418134794
 30
0.0
 10
10.579004055
 20
10.1417459904
 30
0.0
 10
10.5790115576
 20
10.1416574826
 30
0.0
 10
10.579019167
 20
10.1415477132
 30
0.0
 10
10.5790301089
 20
10.1413593645
 30
0.0
 10
10.5790432514
 20
10.14107167
 30
0.0
 10
10.57905817
 20
10.1406642655
 30
0.0
 10
10.5790730175
 20
10.1401745836
 30
0.0
 10
10.579087757
 20
10.1396034576
 30
0.0
 10
10.5791023339
 20
10.138951712
 30
0.0
 10
10.5791114012
 20
10.1384904227
 30
0.0
 10
10.5791159419
 20
10.1382464811
 30
0.0
  0
LINE
  5
325
100
AcDbEntity
  8
0
100
AcDbLine
 62
9
  6
CONTINUOUS
 10
10.5791159419
 20
10.1382464811
 11
10.5792203626
 21
10.1297649768
  0
LINE
  5
326
100
AcDbEntity
  8
0
100
AcDbLine
 62
9
  6
CONTINUOUS
 10
10.5792203427
 20
9.5860078735
 11
10.5789668719
 21
9.5738898502
  0
LINE
  5
327
100
AcDbEntity
  8
0
100
AcDbLine
 62
9
  6
CONTINUOUS
 10
10.5789668719
 20
9.5738898502
 11
10.5788721465
 21
9.575739689
  0
SPLINE
  5
328
100
AcDbEntity
  8
0
100
AcDbSpline
 62
9
  6
CONTINUOUS
 70
0
 71
3
 72
24
 73
20
 74
0
 42
0.0000001
 43
0.0000001
 44
0.0000000001
 40
0.0
 40
0.0
 40
0.0
 40
0.0
 40
0.198002006
 40
0.2945601087
 40
0.3881262168
 40
0.4776499592
 40
0.5620857152
 40
0.6404579337
 40
0.7118371484
 40
0.7754576698
 40
0.8310115409
 40
0.8782895831
 40
0.9173425045
 40
0.9484839797
 40
0.9721142632
 40
0.9813152399
 40
0.9889157487
 40
0.9950683754
 40
1.0
 40
1.0
 40
1.0
 40
1.0
 10
9.8982120996
 20
7.7724813065
 30
0.0
 10
9.8923458734
 20
7.7728407776
 30
0.0
 10
9.8836127679
 20
7.7732773643
 30
0.0
 10
9.8721008002
 20
7.7737238708
 30
0.0
 10
9.8638044759
 20
7.7739956247
 30
0.0
 10
9.8558659529
 20
7.7741932409
 30
0.0
 10
9.848376709
 20
7.7743025317
 30
0.0
 10
9.8414252439
 20
7.7743203174
 30
0.0
 10
9.8350919416
 20
7.7742499056
 30
0.0
 10
9.8294376864
 20
7.7740925784
 30
0.0
 10
9.8245022022
 20
7.7738545821
 30
0.0
 10
9.8203018599
 20
7.7735406416
 30
0.0
 10
9.8168347371
 20
7.7731583499
 30
0.0
 10
9.8140839836
 20
7.7727180731
 30
0.0
 10
9.8122310127
 20
7.772285585
 30
0.0
 10
9.8110954731
 20
7.7718938211
 30
0.0
 10
9.8104733168
 20
7.7716124463
 30
0.0
 10
9.8100007217
 20
7.7713187781
 30
0.0
 10
9.8097583416
 20
7.7710900119
 30
0.0
 10
9.8096699082
 20
7.7709733596
 30
0.0
  0
SPLINE
  5
329
100
AcDbEntity
  8
0
100
AcDbSpline
 62
9
  6
CONTINUOUS
 70
0
 71
3
 72
12
 73
8
 74
0
 42
0.0000001
 43
0.0000001
 44
0.0000000001
 40
0.0
 40
0.0
 40
0.0
 40
0.0
 40
0.3161138662
 40
0.5883586311
 40
0.8164221778
 40
0.9137904969
 40
1.0
 40
1.0
 40
1.0
 40
1.0
 10
10.5788720552
 20
9.575681196
 30
0.0
 10
10.5783556083
 20
9.5948656717
 30
0.0
 10
10.577333252
 20
9.6305707104
 30
0.0
 10
10.5756753962
 20
9.6801085526
 30
0.0
 10
10.5742255945
 20
9.7163652983
 30
0.0
 10
10.5730353682
 20
9.7413279948
 30
0.0
 10
10.5724350244
 20
9.7524570295
 30
0.0
 10
10.5721306231
 20
9.7576819907
 30
0.0
  0
LINE
  5
32A
100
AcDbEntity
  8
0
100
AcDbLine
 62
9
  6
CONTINUOUS
 10
10.5721306231
 20
9.7576819907
 11
10.571983669
 21
9.7601736719
  0
LINE
  5
32B
100
AcDbEntity
  8
0
100
AcDbLine
 62
9
  6
CONTINUOUS
 10
9.8981871874
 20
7.7388875484
 11
9.8982118455
 21
7.7724814799
  0
SPLINE
  5
32C
100
AcDbEntity
  8
0
100
AcDbSpline
 62
9
  6
CONTINUOUS
 70
0
 71
3
 72
9
 73
5
 74
0
 42
0.0000001
 43
0.0000001
 44
0.0000000001
 40
0.0
 40
0.0
 40
0.0
 40
0.0
 40
0.5011577508
 40
1.0
 40
1.0
 40
1.0
 40
1.0
 10
10.4896822981
 20
9.1563863793
 30
0.0
 10
10.4924359668
 20
9.1892940126
 30
0.0
 10
10.4961751011
 20
9.2551170071
 30
0.0
 10
10.4968183395
 20
9.3210172302
 30
0.0
 10
10.4969418216
 20
9.3538870677
 30
0.0
  0
SPLINE
  5
32D
100
AcDbEntity
  8
0
100
AcDbSpline
 62
9
  6
CONTINUOUS
 70
0
 71
3
 72
25
 73
21
 74
0
 42
0.0000001
 43
0.0000001
 44
0.0000000001
 40
0.0
 40
0.0
 40
0.0
 40
0.0
 40
0.0325647964
 40
0.0651369464
 40
0.0976944691
 40
0.1302180956
 40
0.162695514
 40
0.195112526
 40
0.2597056594
 40
0.3239368797
 40
0.3877662236
 40
0.4511618356
 40
0.5140983983
 40
0.5765605602
 40
0.6385351698
 40
0.7000120858
 40
0.7609889328
 40
0.821468918
 40
0.8814617494
 40
1.0
 40
1.0
 40
1.0
 40
1.0
 10
10.4896815308
 20
9.156387355
 30
0.0
 10
10.4886463111
 20
9.1450074711
 30
0.0
 10
10.4863437382
 20
9.122265526
 30
0.0
 10
10.4821904404
 20
9.088235086
 30
0.0
 10
10.4773328842
 20
9.0543123079
 30
0.0
 10
10.4717679307
 20
9.0205323747
 30
0.0
 10
10.4655795077
 20
8.9869116937
 30
0.0
 10
10.4566136606
 20
8.9423667952
 30
0.0
 10
10.4442770065
 20
8.8871413668
 30
0.0
 10
10.4278332823
 20
8.8215632647
 30
0.0
 10
10.4099164328
 20
8.7568086394
 30
0.0
 10
10.3906380947
 20
8.6929212255
 30
0.0
 10
10.3700803131
 20
8.6299386094
 30
0.0
 10
10.3482814196
 20
8.5679029574
 30
0.0
 10
10.3252669436
 20
8.5068549197
 30
0.0
 10
10.301054702
 20
8.4468334088
 30
0.0
 10
10.2756646438
 20
8.3878712781
 30
0.0
 10
10.2491103418
 20
8.329995669
 30
0.0
 10
10.2123048175
 20
8.254629004
 30
0.0
 10
10.1827614422
 20
8.1993494233
 30
0.0
 10
10.1622589188
 20
8.1631587868
 30
0.0
  0
SPLINE
  5
32E
100
AcDbEntity
  8
0
100
AcDbSpline
 62
9
  6
CONTINUOUS
 70
0
 71
3
 72
21
 73
17
 74
0
 42
0.0000001
 43
0.0000001
 44
0.0000000001
 40
0.0
 40
0.0
 40
0.0
 40
0.0
 40
0.1518006959
 40
0.2275572595
 40
0.3024899129
 40
0.4478327853
 40
0.5173121002
 40
0.5840299534
 40
0.6475829901
 40
0.7077192566
 40
0.7643970128
 40
0.8176325205
 40
0.8675024504
 40
0.9142034384
 40
0.9581926561
 40
1.0
 40
1.0
 40
1.0
 40
1.0
 10
10.1622589188
 20
8.1631587868
 30
0.0
 10
10.1572549842
 20
8.1650853604
 30
0.0
 10
10.1496409957
 20
8.1676943443
 30
0.0
 10
10.1393384694
 20
8.1705367395
 30
0.0
 10
10.1291438459
 20
8.1728735414
 30
0.0
 10
10.1190079132
 20
8.1744443898
 30
0.0
 10
10.1090828681
 20
8.1751401173
 30
0.0
 10
10.1020225121
 20
8.1752064016
 30
0.0
 10
10.0953025357
 20
8.1748096105
 30
0.0
 10
10.0889840408
 20
8.173940543
 30
0.0
 10
10.0831153268
 20
8.1726252525
 30
0.0
 10
10.0777370301
 20
8.1708850393
 30
0.0
 10
10.0728870471
 20
8.1687421575
 30
0.0
 10
10.0686019259
 20
8.1662093492
 30
0.0
 10
10.0648964516
 20
8.1633300373
 30
0.0
 10
10.0627638551
 20
8.1611613337
 30
0.0
 10
10.0618051218
 20
8.1600381207
 30
0.0
  0
SPLINE
  5
32F
100
AcDbEntity
  8
0
100
AcDbSpline
 62
9
  6
CONTINUOUS
 70
0
 71
3
 72
9
 73
5
 74
0
 42
0.0000001
 43
0.0000001
 44
0.0000000001
 40
0.0
 40
0.0
 40
0.0
 40
0.0
 40
0.2544326341
 40
1.0
 40
1.0
 40
1.0
 40
1.0
 10
10.0615295359
 20
8.1597107688
 30
0.0
 10
10.061219652
 20
8.1593375377
 30
0.0
 10
10.0600359211
 20
8.1578425982
 30
0.0
 10
10.058992364
 20
8.1562363143
 30
0.0
 10
10.0583070031
 20
8.1549909258
 30
0.0
  0
SPLINE
  5
330
100
AcDbEntity
  8
0
100
AcDbSpline
 62
9
  6
CONTINUOUS
 70
0
 71
3
 72
14
 73
10
 74
0
 42
0.0000001
 43
0.0000001
 44
0.0000000001
 40
0.0
 40
0.0
 40
0.0
 40
0.0
 40
0.2956402021
 40
0.4355848893
 40
0.5680741633
 40
0.6916281805
 40
0.8053083977
 40
0.9083372959
 40
1.0
 40
1.0
 40
1.0
 40
1.0
 10
10.4896817837
 20
9.1563870762
 30
0.0
 10
10.4836329872
 20
9.1570020164
 30
0.0
 10
10.4746966834
 20
9.1576988125
 30
0.0
 10
10.4630201021
 20
9.1581149843
 30
0.0
 10
10.4548748295
 20
9.1581486737
 30
0.0
 10
10.4472734996
 20
9.1578989802
 30
0.0
 10
10.4402927838
 20
9.1573786035
 30
0.0
 10
10.4339961165
 20
9.1566021731
 30
0.0
 10
10.4300541343
 20
9.1558801122
 30
0.0
 10
10.4282149986
 20
9.1554664395
 30
0.0
  0
SPLINE
  5
331
100
AcDbEntity
  8
0
100
AcDbSpline
 62
9
  6
CONTINUOUS
 70
0
 71
3
 72
13
 73
9
 74
0
 42
0.0000001
 43
0.0000001
 44
0.0000000001
 40
0.0
 40
0.0
 40
0.0
 40
0.0
 40
0.2501676792
 40
0.3752728397
 40
0.5003570866
 40
0.6253991592
 40
0.7503747965
 40
1.0
 40
1.0
 40
1.0
 40
1.0
 10
10.4969410262
 20
9.3538902601
 30
0.0
 10
10.4900897657
 20
9.3377641818
 30
0.0
 10
10.4803416872
 20
9.3133459325
 30
0.0
 10
10.4682049388
 20
9.2804702306
 30
0.0
 10
10.4594919202
 20
9.2556750541
 30
0.0
 10
10.4511583876
 20
9.2307595947
 30
0.0
 10
10.440543519
 20
9.1974135336
 30
0.0
 10
10.4330639248
 20
9.172263467
 30
0.0
 10
10.4282156922
 20
9.1554660008
 30
0.0
  0
SPLINE
  5
332
100
AcDbEntity
  8
0
100
AcDbSpline
 62
9
  6
CONTINUOUS
 70
0
 71
3
 72
19
 73
15
 74
0
 42
0.0000001
 43
0.0000001
 44
0.0000000001
 40
0.0
 40
0.0
 40
0.0
 40
0.0
 40
0.0174550755
 40
0.038498382
 40
0.0652160402
 40
0.0988969819
 40
0.140287429
 40
0.1894642239
 40
0.2462548841
 40
0.3104162234
 40
0.458896415
 40
0.6284364509
 40
0.8114459911
 40
1.0
 40
1.0
 40
1.0
 40
1.0
 10
10.6455279881
 20
10.1169648745
 30
0.0
 10
10.6455243831
 20
10.1167848355
 30
0.0
 10
10.6454164967
 20
10.1163878114
 30
0.0
 10
10.6450054262
 20
10.1158429503
 30
0.0
 10
10.6443513142
 20
10.1153078291
 30
0.0
 10
10.64344069
 20
10.1147788946
 30
0.0
 10
10.6422671326
 20
10.1142591678
 30
0.0
 10
10.6408334965
 20
10.1137503219
 30
0.0
 10
10.6391479473
 20
10.1132583445
 30
0.0
 10
10.6364461732
 20
10.1126019732
 30
0.0
 10
10.6325648792
 20
10.1118922667
 30
0.0
 10
10.6274400243
 20
10.1112092268
 30
0.0
 10
10.6218805335
 20
10.1106918049
 30
0.0
 10
10.6180539618
 20
10.1104559744
 30
0.0
 10
10.6161109452
 20
10.1103635043
 30
0.0
  0
SPLINE
  5
333
100
AcDbEntity
  8
0
100
AcDbSpline
 62
9
  6
CONTINUOUS
 70
0
 71
3
 72
19
 73
15
 74
0
 42
0.0000001
 43
0.0000001
 44
0.0000000001
 40
0.0
 40
0.0
 40
0.0
 40
0.0
 40
0.1967260031
 40
0.3803853957
 40
0.5456063656
 40
0.6885616053
 40
0.7506859811
 40
0.8061706208
 40
0.8547958857
 40
0.8964119693
 40
0.9310408482
 40
0.9590722944
 40
0.981416465
 40
1.0
 40
1.0
 40
1.0
 40
1.0
 10
10.6161103555
 20
10.1103645494
 30
0.0
 10
10.6135782416
 20
10.1102420845
 30
0.0
 10
10.6086852948
 20
10.109933937
 30
0.0
 10
10.6016847859
 20
10.1092652688
 30
0.0
 10
10.5954023993
 20
10.1084153313
 30
0.0
 10
10.5907071428
 20
10.1075461436
 30
0.0
 10
10.5874426804
 20
10.1067568544
 30
0.0
 10
10.5853834325
 20
10.1061637145
 30
0.0
 10
10.5836088086
 20
10.1055459471
 30
0.0
 10
10.5821298058
 20
10.1049073226
 30
0.0
 10
10.5809538516
 20
10.1042502326
 30
0.0
 10
10.5800833536
 20
10.1035760848
 30
0.0
 10
10.5795134643
 20
10.1028788143
 30
0.0
 10
10.5793498035
 20
10.1023562065
 30
0.0
 10
10.5793392542
 20
10.1021169657
 30
0.0
  0
SPLINE
  5
334
100
AcDbEntity
  8
0
100
AcDbSpline
 62
9
  6
CONTINUOUS
 70
0
 71
3
 72
19
 73
15
 74
0
 42
0.0000001
 43
0.0000001
 44
0.0000000001
 40
0.0
 40
0.0
 40
0.0
 40
0.0
 40
0.1967217634
 40
0.3803778539
 40
0.5455969391
 40
0.6885518364
 40
0.7506765746
 40
0.80616199
 40
0.8547885612
 40
0.8964066687
 40
0.9310384109
 40
0.9590729115
 40
0.981418786
 40
1.0
 40
1.0
 40
1.0
 40
1.0
 10
10.6161101052
 20
9.6054113737
 30
0.0
 10
10.6135780753
 20
9.6055336921
 30
0.0
 10
10.6086852808
 20
9.6058416203
 30
0.0
 10
10.6016849776
 20
9.6065101229
 30
0.0
 10
10.5954027478
 20
9.6073600225
 30
0.0
 10
10.5907075841
 20
9.6082291966
 30
0.0
 10
10.5874431464
 20
9.6090184252
 30
0.0
 10
10.5853838848
 20
9.6096115205
 30
0.0
 10
10.5836092229
 20
9.6102292576
 30
0.0
 10
10.5821301582
 20
9.6108678848
 30
0.0
 10
10.5809541331
 20
9.611525018
 30
0.0
 10
10.580083555
 20
9.6121991948
 30
0.0
 10
10.5795135719
 20
9.6128963903
 30
0.0
 10
10.5793497534
 20
9.6134189261
 30
0.0
 10
10.5793391457
 20
9.613658131
 30
0.0
  0
SPLINE
  5
335
100
AcDbEntity
  8
0
100
AcDbSpline
 62
9
  6
CONTINUOUS
 70
0
 71
3
 72
9
 73
5
 74
0
 42
0.0000001
 43
0.0000001
 44
0.0000000001
 40
0.0
 40
0.0
 40
0.0
 40
0.0
 40
0.2490517985
 40
1.0
 40
1.0
 40
1.0
 40
1.0
 10
10.6161101732
 20
9.6054113365
 30
0.0
 10
10.616149106
 20
9.6473311302
 30
0.0
 10
10.6162651511
 20
9.8156487357
 30
0.0
 10
10.6162275626
 20
9.9839664492
 30
0.0
 10
10.6161101726
 20
10.1103642263
 30
0.0
  0
SPLINE
  5
336
100
AcDbEntity
  8
0
100
AcDbSpline
 62
9
  6
CONTINUOUS
 70
0
 71
3
 72
19
 73
15
 74
0
 42
0.0000001
 43
0.0000001
 44
0.0000000001
 40
0.0
 40
0.0
 40
0.0
 40
0.0
 40
0.0174394508
 40
0.0384677788
 40
0.0651692854
 40
0.0988324392
 40
0.1402038746
 40
0.1893617051
 40
0.2461351065
 40
0.31028269
 40
0.4587519075
 40
0.6283089332
 40
0.8113680542
 40
1.0
 40
1.0
 40
1.0
 40
1.0
 10
10.6455278532
 20
9.5988141067
 30
0.0
 10
10.6455241658
 20
9.5989939754
 30
0.0
 10
10.6454161789
 20
9.5993906097
 30
0.0
 10
10.6450052339
 20
9.599934905
 30
0.0
 10
10.6443514121
 20
9.6004695173
 30
0.0
 10
10.643441206
 20
9.6009979877
 30
0.0
 10
10.6422681559
 20
9.6015173017
 30
0.0
 10
10.6408350632
 20
9.6020257814
 30
0.0
 10
10.6391500358
 20
9.6025174421
 30
0.0
 10
10.6364487456
 20
9.6031734754
 30
0.0
 10
10.6325676506
 20
9.6038828988
 30
0.0
 10
10.6274424095
 20
9.6045657407
 30
0.0
 10
10.6218816467
 20
9.605083059
 30
0.0
 10
10.6180539145
 20
9.6053188384
 30
0.0
 10
10.6161101734
 20
9.6054112847
 30
0.0
  0
SPLINE
  5
337
100
AcDbEntity
  8
0
100
AcDbSpline
 62
9
  6
CONTINUOUS
 70
0
 71
3
 72
33
 73
29
 74
0
 42
0.0000001
 43
0.0000001
 44
0.0000000001
 40
0.0
 40
0.0
 40
0.0
 40
0.0
 40
0.2038118865
 40
0.3014152436
 40
0.3951424579
 40
0.484238009
 40
0.5680012888
 40
0.645851229
 40
0.7172224908
 40
0.7815497477
 40
0.8382711568
 40
0.8636332864
 40
0.8869466179
 40
0.9081761989
 40
0.9272870847
 40
0.9442443418
 40
0.9590130554
 40
0.9715583434
 40
0.9818453862
 40
0.9861312253
 40
0.9898396331
 40
0.9929689923
 40
0.9955202636
 40
0.9974946525
 40
0.9988937282
 40
0.9997204321
 40
0.9999227006
 40
1.0
 40
1.0
 40
1.0
 40
1.0
 10
10.6161100866
 20
9.6054114529
 30
0.0
 10
10.6161058699
 20
9.5999945929
 30
0.0
 10
10.6160964655
 20
9.5919836579
 30
0.0
 10
10.6160771841
 20
9.5814816774
 30
0.0
 10
10.6160599894
 20
9.5740286012
 30
0.0
 10
10.6160399618
 20
9.5669433716
 30
0.0
 10
10.6160172144
 20
9.5602801346
 30
0.0
 10
10.6159919895
 20
9.5540879819
 30
0.0
 10
10.6159645148
 20
9.5484124099
 30
0.0
 10
10.6159350261
 20
9.5432984052
 30
0.0
 10
10.6159080602
 20
9.5394072275
 30
0.0
 10
10.6158852618
 20
9.5366061082
 30
0.0
 10
10.6158684407
 20
9.5347482652
 30
0.0
 10
10.6158512923
 20
9.5330565769
 30
0.0
 10
10.6158338574
 20
9.5315338317
 30
0.0
 10
10.6158161786
 20
9.5301828168
 30
0.0
 10
10.6157983168
 20
9.5290063222
 30
0.0
 10
10.6157803118
 20
9.5280071271
 30
0.0
 10
10.6157644975
 20
9.5272865686
 30
0.0
 10
10.6157513931
 20
9.5268008495
 30
0.0
 10
10.6157422091
 20
9.5265053954
 30
0.0
 10
10.6157329092
 20
9.5262558963
 30
0.0
 10
10.6157240205
 20
9.5260529969
 30
0.0
 10
10.6157143069
 20
9.5258948908
 30
0.0
 10
10.6157070613
 20
9.5257855872
 30
0.0
 10
10.6156967417
 20
9.5257181381
 30
0.0
 10
10.6156926145
 20
9.5256925988
 30
0.0
 10
10.6156869336
 20
9.5256837978
 30
0.0
 10
10.6156850078
 20
9.5256845133
 30
0.0
  0
SPLINE
  5
338
100
AcDbEntity
  8
0
100
AcDbSpline
 62
9
  6
CONTINUOUS
 70
0
 71
3
 72
33
 73
29
 74
0
 42
0.0000001
 43
0.0000001
 44
0.0000000001
 40
0.0
 40
0.0
 40
0.0
 40
0.0
 40
0.0000773853
 40
0.000279804
 40
0.0011068817
 40
0.0025064046
 40
0.0044812966
 40
0.0070331105
 40
0.0101630355
 40
0.013872016
 40
0.0181584211
 40
0.0284465496
 40
0.0409928216
 40
0.0557623696
 40
0.0727202638
 40
0.0918315417
 40
0.1130612219
 40
0.1363743119
 40
0.1617358117
 40
0.2184546504
 40
0.2827781355
 40
0.354145647
 40
0.431993105
 40
0.5157564178
 40
0.604855413
 40
0.6985877794
 40
0.796195126
 40
1.0
 40
1.0
 40
1.0
 40
1.0
 10
10.6156850204
 20
10.1900912089
 30
0.0
 10
10.6156869496
 20
10.1900919217
 30
0.0
 10
10.6156926214
 20
10.1900831072
 30
0.0
 10
10.6156967622
 20
10.1900575595
 30
0.0
 10
10.6157070672
 20
10.1899900765
 30
0.0
 10
10.6157143217
 20
10.1898807418
 30
0.0
 10
10.6157240311
 20
10.1897225939
 30
0.0
 10
10.6157329213
 20
10.189519652
 30
0.0
 10
10.6157422204
 20
10.1892701075
 30
0.0
 10
10.6157514045
 20
10.1889746077
 30
0.0
 10
10.6157645086
 20
10.1884888287
 30
0.0
 10
10.6157803229
 20
10.187768199
 30
0.0
 10
10.615798328
 20
10.1867689252
 30
0.0
 10
10.61581619
 20
10.1855923636
 30
0.0
 10
10.615833869
 20
10.1842412971
 30
0.0
 10
10.6158513038
 20
10.1827185195
 30
0.0
 10
10.615868452
 20
10.1810268219
 30
0.0
 10
10.6158852726
 20
10.1791689966
 30
0.0
 10
10.6159080696
 20
10.1763679645
 30
0.0
 10
10.6159350326
 20
10.1724769661
 30
0.0
 10
10.6159645165
 20
10.1673632218
 30
0.0
 10
10.6159919862
 20
10.1616879069
 30
0.0
 10
10.6160172069
 20
10.1554959095
 30
0.0
 10
10.6160399518
 20
10.1488326359
 30
0.0
 10
10.6160599798
 20
10.141747166
 30
0.0
 10
10.6160771781
 20
10.1342937439
 30
0.0
 10
10.6160964678
 20
10.1237916907
 30
0.0
 10
10.6161058832
 20
10.1157808237
 30
0.0
 10
10.6161101084
 20
10.1103641418
 30
0.0
  0
SPLINE
  5
339
100
AcDbEntity
  8
0
100
AcDbSpline
 62
9
  6
CONTINUOUS
 70
0
 71
3
 72
20
 73
16
 74
0
 42
0.0000001
 43
0.0000001
 44
0.0000000001
 40
0.0
 40
0.0
 40
0.0
 40
0.0
 40
0.1627035628
 40
0.2430468995
 40
0.3222678792
 40
0.3999123481
 40
0.4754561604
 40
0.5483715446
 40
0.6181126896
 40
0.7457416449
 40
0.8539175886
 40
0.8996030922
 40
0.9392121237
 40
0.9726768556
 40
1.0
 40
1.0
 40
1.0
 40
1.0
 10
9.7102932897
 20
7.7709549247
 30
0.0
 10
9.7054495934
 20
7.7712068981
 30
0.0
 10
9.6982204834
 20
7.7716989244
 30
0.0
 10
9.6886367756
 20
7.7723649167
 30
0.0
 10
9.6815787286
 20
7.772799198
 30
0.0
 10
9.6746600434
 20
7.7731633517
 30
0.0
 10
9.667926868
 20
7.7734723319
 30
0.0
 10
9.6614275928
 20
7.7737366797
 30
0.0
 10
9.6533756673
 20
7.7740309316
 30
0.0
 10
9.6442704456
 20
7.7742859275
 30
0.0
 10
9.6358781787
 20
7.7743386733
 30
0.0
 10
9.630111353
 20
7.7742412084
 30
0.0
 10
9.6265730337
 20
7.7741157791
 30
0.0
 10
9.6235851554
 20
7.7739384729
 30
0.0
 10
9.6217800014
 20
7.7737728689
 30
0.0
 10
9.6209712271
 20
7.7736763621
 30
0.0
  0
SPLINE
  5
33A
100
AcDbEntity
  8
0
100
AcDbSpline
 62
9
  6
CONTINUOUS
 70
0
 71
3
 72
12
 73
8
 74
0
 42
0.0000001
 43
0.0000001
 44
0.0000000001
 40
0.0
 40
0.0
 40
0.0
 40
0.0
 40
0.3689682791
 40
0.6533574197
 40
0.859899715
 40
0.9372365701
 40
1.0
 40
1.0
 40
1.0
 40
1.0
 10
9.6209712271
 20
7.7736763621
 30
0.0
 10
9.6204180073
 20
7.7736103493
 30
0.0
 10
9.6194397808
 20
7.7734754856
 30
0.0
 10
9.6181681476
 20
7.773212313
 30
0.0
 10
9.6173465739
 20
7.7729465972
 30
0.0
 10
9.6168854264
 20
7.772695989
 30
0.0
 10
9.616718845
 20
7.7725621157
 30
0.0
 10
9.6166543451
 20
7.7724926771
 30
0.0
  0
SPLINE
  5
33B
100
AcDbEntity
  8
0
100
AcDbSpline
 62
9
  6
CONTINUOUS
 70
0
 71
3
 72
21
 73
17
 74
0
 42
0.0000001
 43
0.0000001
 44
0.0000000001
 40
0.0
 40
0.0
 40
0.0
 40
0.0
 40
0.1648193621
 40
0.3267927976
 40
0.4048862246
 40
0.4801000124
 40
0.5517600783
 40
0.6192426437
 40
0.6820632255
 40
0.7400810857
 40
0.7932945749
 40
0.8418047207
 40
0.8859311872
 40
0.9264140375
 40
0.9641345043
 40
1.0
 40
1.0
 40
1.0
 40
1.0
 10
10.0229250724
 20
8.1547505872
 30
0.0
 10
10.0177478287
 20
8.1574018917
 30
0.0
 10
10.007300998
 20
8.1623117707
 30
0.0
 10
9.9939363403
 20
8.1674181017
 30
0.0
 10
9.9832865801
 20
8.1706542779
 30
0.0
 10
9.9755806044
 20
8.1725802439
 30
0.0
 10
9.9681470638
 20
8.1740065574
 30
0.0
 10
9.9610707423
 20
8.1749054054
 30
0.0
 10
9.954426343
 20
8.1752455822
 30
0.0
 10
9.9482789918
 20
8.1750398436
 30
0.0
 10
9.9426793782
 20
8.1743058175
 30
0.0
 10
9.9376713722
 20
8.1730599033
 30
0.0
 10
9.9332947318
 20
8.1713067639
 30
0.0
 10
9.9295670027
 20
8.1690909544
 30
0.0
 10
9.9264907328
 20
8.1664635501
 30
0.0
 10
9.9248439067
 20
8.1644329519
 30
0.0
 10
9.9241433803
 20
8.1633787548
 30
0.0
  0
SPLINE
  5
33C
100
AcDbEntity
  8
0
100
AcDbSpline
 62
9
  6
CONTINUOUS
 70
0
 71
3
 72
9
 73
5
 74
0
 42
0.0000001
 43
0.0000001
 44
0.0000000001
 40
0.0
 40
0.0
 40
0.0
 40
0.0
 40
0.5066760781
 40
1.0
 40
1.0
 40
1.0
 40
1.0
 10
10.0229313244
 20
8.1547477972
 30
0.0
 10
9.9860932653
 20
8.0871942786
 30
0.0
 10
9.9090314914
 20
7.9561871214
 30
0.0
 10
9.822815477
 20
7.8309741423
 30
0.0
 10
9.7779231609
 20
7.770996884
 30
0.0
  0
LINE
  5
33D
100
AcDbEntity
  8
0
100
AcDbLine
 62
9
  6
CONTINUOUS
 10
9.7102629717
 20
7.7388875484
 11
9.7102932877
 21
7.7709549214
  0
SPLINE
  5
33E
100
AcDbEntity
  8
0
100
AcDbSpline
 62
9
  6
CONTINUOUS
 70
0
 71
3
 72
17
 73
13
 74
0
 42
0.0000001
 43
0.0000001
 44
0.0000000001
 40
0.0
 40
0.0
 40
0.0
 40
0.0
 40
0.1244602837
 40
0.1869211261
 40
0.2493623084
 40
0.3740790894
 40
0.4989539019
 40
0.6239877455
 40
0.7491585226
 40
0.8119163093
 40
0.8747387366
 40
1.0
 40
1.0
 40
1.0
 40
1.0
 10
10.5697363431
 20
9.7598875484
 30
0.0
 10
10.5664928755
 20
9.7598875484
 30
0.0
 10
10.5616046905
 20
9.7603770581
 30
0.0
 10
10.5552950286
 20
9.7619630208
 30
0.0
 10
10.5491654195
 20
9.7641698437
 30
0.0
 10
10.5419535764
 20
9.7680491162
 30
0.0
 10
10.5343837799
 20
9.7743119291
 30
0.0
 10
10.5281642501
 20
9.7819323155
 30
0.0
 10
10.5243147464
 20
9.7891867211
 30
0.0
 10
10.522123775
 20
9.7953531354
 30
0.0
 10
10.520548197
 20
9.8017050091
 30
0.0
 10
10.5200623363
 20
9.8066232071
 30
0.0
 10
10.5200623363
 20
9.8098875484
 30
0.0
  0
SPLINE
  5
33F
100
AcDbEntity
  8
0
100
AcDbSpline
 62
9
  6
CONTINUOUS
 70
0
 71
3
 72
16
 73
12
 74
0
 42
0.0000001
 43
0.0000001
 44
0.0000000001
 40
0.0
 40
0.0
 40
0.0
 40
0.0
 40
0.1104166237
 40
0.1666036855
 40
0.2236200554
 40
0.3407927884
 40
0.4633628934
 40
0.5914882479
 40
0.7245478987
 40
0.861432483
 40
1.0
 40
1.0
 40
1.0
 40
1.0
 10
10.3594048277
 20
9.7598875484
 30
0.0
 10
10.3568081532
 20
9.759887548
 30
0.0
 10
10.3528701879
 20
9.7603871014
 30
0.0
 10
10.3478474723
 20
9.7619736208
 30
0.0
 10
10.3428998408
 20
9.7642102286
 30
0.0
 10
10.3370790467
 20
9.7681709291
 30
0.0
 10
10.3310615063
 20
9.7744637713
 30
0.0
 10
10.3261362498
 20
9.7820856816
 30
0.0
 10
10.3224887052
 20
9.7907566206
 30
0.0
 10
10.3202532153
 20
9.8001399339
 30
0.0
 10
10.3197466028
 20
9.8066288476
 30
0.0
 10
10.3197466028
 20
9.8098875484
 30
0.0
  0
SPLINE
  5
340
100
AcDbEntity
  8
0
100
AcDbSpline
 62
9
  6
CONTINUOUS
 70
0
 71
3
 72
16
 73
12
 74
0
 42
0.0000001
 43
0.0000001
 44
0.0000000001
 40
0.0
 40
0.0
 40
0.0
 40
0.0
 40
0.1104166239
 40
0.1666036857
 40
0.2236200555
 40
0.3407927883
 40
0.463362893
 40
0.5914882473
 40
0.7245478982
 40
0.8614324827
 40
1.0
 40
1.0
 40
1.0
 40
1.0
 10
11.0605621491
 20
9.7598875484
 30
0.0
 10
11.0631588237
 20
9.7598875479
 30
0.0
 10
11.0670967892
 20
9.7603871011
 30
0.0
 10
11.0721195049
 20
9.7619736204
 30
0.0
 10
11.0770671366
 20
9.7642102281
 30
0.0
 10
11.0828879309
 20
9.7681709285
 30
0.0
 10
11.0889054715
 20
9.7744637707
 30
0.0
 10
11.0938307282
 20
9.7820856811
 30
0.0
 10
11.097478273
 20
9.7907566202
 30
0.0
 10
11.099713763
 20
9.8001399337
 30
0.0
 10
11.1002203755
 20
9.8066288475
 30
0.0
 10
11.1002203755
 20
9.8098875484
 30
0.0
  0
SPLINE
  5
341
100
AcDbEntity
  8
0
100
AcDbSpline
 62
9
  6
CONTINUOUS
 70
0
 71
3
 72
17
 73
13
 74
0
 42
0.0000001
 43
0.0000001
 44
0.0000000001
 40
0.0
 40
0.0
 40
0.0
 40
0.0
 40
0.1244602842
 40
0.1869211269
 40
0.2493623094
 40
0.3740790903
 40
0.4989539025
 40
0.623987746
 40
0.7491585228
 40
0.8119163094
 40
0.8747387367
 40
1.0
 40
1.0
 40
1.0
 40
1.0
 10
10.8502306292
 20
9.7598875484
 30
0.0
 10
10.853474097
 20
9.759887548
 30
0.0
 10
10.8583622825
 20
9.7603770572
 30
0.0
 10
10.864671945
 20
9.7619630194
 30
0.0
 10
10.8708015548
 20
9.7641698419
 30
0.0
 10
10.8780133988
 20
9.7680491141
 30
0.0
 10
10.8855831963
 20
9.774311927
 30
0.0
 10
10.891802727
 20
9.7819323136
 30
0.0
 10
10.8956522312
 20
9.7891867196
 30
0.0
 10
10.897843203
 20
9.7953531343
 30
0.0
 10
10.8994187812
 20
9.8017050085
 30
0.0
 10
10.899904642
 20
9.8066232069
 30
0.0
 10
10.899904642
 20
9.8098875484
 30
0.0
  0
SPLINE
  5
342
100
AcDbEntity
  8
0
100
AcDbSpline
 62
9
  6
CONTINUOUS
 70
0
 71
3
 72
20
 73
16
 74
0
 42
0.0000001
 43
0.0000001
 44
0.0000000001
 40
0.0
 40
0.0
 40
0.0
 40
0.0
 40
0.1156072648
 40
0.2372596484
 40
0.3000652853
 40
0.3639524774
 40
0.4285949407
 40
0.4936730419
 40
0.5589086146
 40
0.6240893754
 40
0.6890091282
 40
0.7533990369
 40
0.8169485975
 40
0.8793409153
 40
1.0
 40
1.0
 40
1.0
 40
1.0
 10
10.8919162917
 20
9.8098875484
 30
0.0
 10
10.8919163638
 20
9.8071781694
 30
0.0
 10
10.8914578781
 20
9.8016093678
 30
0.0
 10
10.8897403003
 20
9.7947529923
 30
0.0
 10
10.8875909327
 20
9.7893366804
 30
0.0
 10
10.8855660809
 20
9.7853288802
 30
0.0
 10
10.8831691509
 20
9.7814694047
 30
0.0
 10
10.8804195575
 20
9.7778126456
 30
0.0
 10
10.8773377529
 20
9.7744131305
 30
0.0
 10
10.873946339
 20
9.7713279314
 30
0.0
 10
10.8703027067
 20
9.768578999
 30
0.0
 10
10.8664613999
 20
9.7661861681
 30
0.0
 10
10.8624762488
 20
9.7641679973
 30
0.0
 10
10.8571002862
 20
9.7620312314
 30
0.0
 10
10.85291144
 20
9.7609831491
 30
0.0
 10
10.8501201677
 20
9.7605302657
 30
0.0
  0
SPLINE
  5
343
100
AcDbEntity
  8
0
100
AcDbSpline
 62
9
  6
CONTINUOUS
 70
0
 71
3
 72
19
 73
15
 74
0
 42
0.0000001
 43
0.0000001
 44
0.0000000001
 40
0.0
 40
0.0
 40
0.0
 40
0.0
 40
0.0174511829
 40
0.038490885
 40
0.0652056004
 40
0.0988843132
 40
0.1402732114
 40
0.1894490769
 40
0.2462393817
 40
0.3104009105
 40
0.4588829784
 40
0.6284264941
 40
0.8114406785
 40
1.0
 40
1.0
 40
1.0
 40
1.0
 10
10.7744392386
 20
9.5988120898
 30
0.0
 10
10.7744428306
 20
9.598992084
 30
0.0
 10
10.7745506953
 20
9.5993890265
 30
0.0
 10
10.7749617369
 20
9.5999337529
 30
0.0
 10
10.7756158119
 20
9.6004687383
 30
0.0
 10
10.7765263991
 20
9.6009975402
 30
0.0
 10
10.7776999213
 20
9.6015171386
 30
0.0
 10
10.7791335258
 20
9.6020258605
 30
0.0
 10
10.7808190477
 20
9.6025177191
 30
0.0
 10
10.7835207992
 20
9.6031739352
 30
0.0
 10
10.7874020716
 20
9.6038834725
 30
0.0
 10
10.7925269091
 20
9.6045663501
 30
0.0
 10
10.7980863967
 20
9.6050836493
 30
0.0
 10
10.8019129697
 20
9.6053194238
 30
0.0
 10
10.8038559889
 20
9.605411872
 30
0.0
  0
SPLINE
  5
344
100
AcDbEntity
  8
0
100
AcDbSpline
 62
9
  6
CONTINUOUS
 70
0
 71
3
 72
19
 73
15
 74
0
 42
0.0000001
 43
0.0000001
 44
0.0000000001
 40
0.0
 40
0.0
 40
0.0
 40
0.0
 40
0.1967256975
 40
0.3803848505
 40
0.5456058001
 40
0.6885611888
 40
0.7506856298
 40
0.806170316
 40
0.8547956211
 40
0.8964117594
 40
0.9310407283
 40
0.9590722813
 40
0.9814165235
 40
1.0
 40
1.0
 40
1.0
 40
1.0
 10
10.8038565995
 20
9.605410858
 30
0.0
 10
10.80638871
 20
9.605533247
 30
0.0
 10
10.8112816523
 20
9.6058412674
 30
0.0
 10
10.8182821569
 20
9.6065098248
 30
0.0
 10
10.8245645369
 20
9.6073597511
 30
0.0
 10
10.8292597857
 20
9.6082289617
 30
0.0
 10
10.8325242464
 20
9.6090182544
 30
0.0
 10
10.8345834941
 20
9.6096113924
 30
0.0
 10
10.8363581186
 20
9.6102291561
 30
0.0
 10
10.8378371232
 20
9.6108677778
 30
0.0
 10
10.8390130791
 20
9.611524868
 30
0.0
 10
10.8398835791
 20
9.6121990168
 30
0.0
 10
10.8404534708
 20
9.6128962853
 30
0.0
 10
10.8406171364
 20
9.6134188908
 30
0.0
 10
10.8406276873
 20
9.6136581305
 30
0.0
  0
SPLINE
  5
345
100
AcDbEntity
  8
0
100
AcDbSpline
 62
9
  6
CONTINUOUS
 70
0
 71
3
 72
19
 73
15
 74
0
 42
0.0000001
 43
0.0000001
 44
0.0000000001
 40
0.0
 40
0.0
 40
0.0
 40
0.0
 40
0.1967214101
 40
0.3803772141
 40
0.5455963081
 40
0.6885514371
 40
0.750676268
 40
0.8061617394
 40
0.8547883402
 40
0.8964064707
 40
0.9310382537
 40
0.9590728132
 40
0.9814187506
 40
1.0
 40
1.0
 40
1.0
 40
1.0
 10
10.8038568385
 20
10.110363309
 30
0.0
 10
10.8063888675
 20
10.1102410908
 30
0.0
 10
10.8112816629
 20
10.1099333357
 30
0.0
 10
10.8182819711
 20
10.1092649905
 30
0.0
 10
10.8245642011
 20
10.1084151063
 30
0.0
 10
10.8292593606
 20
10.107545898
 30
0.0
 10
10.8325237997
 20
10.1067566616
 30
0.0
 10
10.8345830628
 20
10.1061635672
 30
0.0
 10
10.8363577266
 20
10.1055458342
 30
0.0
 10
10.8378367936
 20
10.1049072112
 30
0.0
 10
10.8390128208
 20
10.1042500797
 30
0.0
 10
10.839883401
 20
10.1035759028
 30
0.0
 10
10.8404533861
 20
10.1028787071
 30
0.0
 10
10.8406172068
 20
10.102356171
 30
0.0
 10
10.8406278155
 20
10.1021169658
 30
0.0
  0
SPLINE
  5
346
100
AcDbEntity
  8
0
100
AcDbSpline
 62
9
  6
CONTINUOUS
 70
0
 71
3
 72
9
 73
5
 74
0
 42
0.0000001
 43
0.0000001
 44
0.0000000001
 40
0.0
 40
0.0
 40
0.0
 40
0.0
 40
0.2490519446
 40
1.0
 40
1.0
 40
1.0
 40
1.0
 10
10.8038568063
 20
10.1103633456
 30
0.0
 10
10.8038178741
 20
10.0684435862
 30
0.0
 10
10.8037018294
 20
9.9001262172
 30
0.0
 10
10.8037394156
 20
9.7318087401
 30
0.0
 10
10.8038568066
 20
9.6054111652
 30
0.0
  0
SPLINE
  5
347
100
AcDbEntity
  8
0
100
AcDbSpline
 62
9
  6
CONTINUOUS
 70
0
 71
3
 72
19
 73
15
 74
0
 42
0.0000001
 43
0.0000001
 44
0.0000000001
 40
0.0
 40
0.0
 40
0.0
 40
0.0
 40
0.0174392726
 40
0.0384673671
 40
0.0651686387
 40
0.0988315845
 40
0.1402028533
 40
0.1893605643
 40
0.2461338957
 40
0.3102814607
 40
0.4587507929
 40
0.6283080975
 40
0.8113676104
 40
1.0
 40
1.0
 40
1.0
 40
1.0
 10
10.7744391248
 20
10.1169609415
 30
0.0
 10
10.7744428091
 20
10.1167810747
 30
0.0
 10
10.7745507897
 20
10.1163844427
 30
0.0
 10
10.7749617279
 20
10.1158401503
 30
0.0
 10
10.7756155434
 20
10.1153055413
 30
0.0
 10
10.7765257443
 20
10.1147770742
 30
0.0
 10
10.7776987901
 20
10.1142577634
 30
0.0
 10
10.7791318798
 20
10.1137492866
 30
0.0
 10
10.7808169057
 20
10.1132576285
 30
0.0
 10
10.7835181968
 20
10.1126015984
 30
0.0
 10
10.7873992962
 20
10.1118921787
 30
0.0
 10
10.7925245457
 20
10.1112093402
 30
0.0
 10
10.79808532
 20
10.1106920248
 30
0.0
 10
10.8019130607
 20
10.1104562468
 30
0.0
 10
10.8038568063
 20
10.110363801
 30
0.0
  0
SPLINE
  5
348
100
AcDbEntity
  8
0
100
AcDbSpline
 62
9
  6
CONTINUOUS
 70
0
 71
3
 72
33
 73
29
 74
0
 42
0.0000001
 43
0.0000001
 44
0.0000000001
 40
0.0
 40
0.0
 40
0.0
 40
0.0
 40
0.2038038494
 40
0.3014110229
 40
0.39514333
 40
0.4842422962
 40
0.5680055742
 40
0.6458530029
 40
0.7172204998
 40
0.7815439945
 40
0.8382628794
 40
0.8636244262
 40
0.8869375795
 40
0.9081673378
 40
0.9272787067
 40
0.9442367034
 40
0.9590063638
 40
0.9715527565
 40
0.9818410124
 40
0.9861274831
 40
0.9898365307
 40
0.9929665255
 40
0.9955184118
 40
0.9974933784
 40
0.9988929777
 40
0.9997201328
 40
0.9999225893
 40
1.0
 40
1.0
 40
1.0
 40
1.0
 10
10.8038568745
 20
10.1103632612
 30
0.0
 10
10.8038610995
 20
10.1157799758
 30
0.0
 10
10.8038705147
 20
10.1237908996
 30
0.0
 10
10.803889804
 20
10.1342930356
 30
0.0
 10
10.8039070022
 20
10.1417465333
 30
0.0
 10
10.8039270301
 20
10.1488320782
 30
0.0
 10
10.8039497749
 20
10.1554954231
 30
0.0
 10
10.8039749955
 20
10.161687487
 30
0.0
 10
10.8040024652
 20
10.1673628637
 30
0.0
 10
10.8040319492
 20
10.1724766657
 30
0.0
 10
10.8040589122
 20
10.1763677099
 30
0.0
 10
10.8040817093
 20
10.1791687772
 30
0.0
 10
10.8040985299
 20
10.181026628
 30
0.0
 10
10.8041156781
 20
10.1827183505
 30
0.0
 10
10.804133113
 20
10.1842411521
 30
0.0
 10
10.804150792
 20
10.1855922417
 30
0.0
 10
10.8041686541
 20
10.1867688253
 30
0.0
 10
10.8041866593
 20
10.1877681198
 30
0.0
 10
10.8042024736
 20
10.1884887657
 30
0.0
 10
10.8042155777
 20
10.1889745571
 30
0.0
 10
10.8042247619
 20
10.1892700655
 30
0.0
 10
10.8042340609
 20
10.1895196184
 30
0.0
 10
10.8042429516
 20
10.1897225681
 30
0.0
 10
10.8042526597
 20
10.1898807241
 30
0.0
 10
10.8042599173
 20
10.1899900651
 30
0.0
 10
10.8042702175
 20
10.1900575558
 30
0.0
 10
10.8042743629
 20
10.1900831056
 30
0.0
 10
10.8042800317
 20
10.1900919239
 30
0.0
 10
10.804281962
 20
10.190091212
 30
0.0
  0
SPLINE
  5
349
100
AcDbEntity
  8
0
100
AcDbSpline
 62
9
  6
CONTINUOUS
 70
0
 71
3
 72
11
 73
7
 74
0
 42
0.0000001
 43
0.0000001
 44
0.0000000001
 40
0.0
 40
0.0
 40
0.0
 40
0.0
 40
0.1404131971
 40
0.346813299
 40
0.6308804543
 40
1.0
 40
1.0
 40
1.0
 40
1.0
 10
11.803312458
 20
7.7724928663
 30
0.0
 10
11.8031668072
 20
7.7726496758
 30
0.0
 10
11.8026979716
 20
7.7729250642
 30
0.0
 10
11.8017835518
 20
7.7732193398
 30
0.0
 10
11.8004965423
 20
7.773481311
 30
0.0
 10
11.7995100463
 20
7.7736151438
 30
0.0
 10
11.7989513162
 20
7.7736811076
 30
0.0
  0
SPLINE
  5
34A
100
AcDbEntity
  8
0
100
AcDbSpline
 62
9
  6
CONTINUOUS
 70
0
 71
3
 72
15
 73
11
 74
0
 42
0.0000001
 43
0.0000001
 44
0.0000000001
 40
0.0
 40
0.0
 40
0.0
 40
0.0
 40
0.0274344698
 40
0.0610165615
 40
0.1464416355
 40
0.2546349309
 40
0.3823235332
 40
0.5249212354
 40
0.6778946011
 40
1.0
 40
1.0
 40
1.0
 40
1.0
 10
11.7989513162
 20
7.7736811076
 30
0.0
 10
11.79813954
 20
7.7737769461
 30
0.0
 10
11.7963285724
 20
7.7739431893
 30
0.0
 10
11.7919726273
 20
7.7742030923
 30
0.0
 10
11.785202485
 20
7.7743439727
 30
0.0
 10
11.7756288958
 20
7.7742735911
 30
0.0
 10
11.7643553561
 20
7.7739769536
 30
0.0
 10
11.7517541725
 20
7.773469939
 30
0.0
 10
11.7333743118
 20
7.7725286454
 30
0.0
 10
11.7192464704
 20
7.7716387089
 30
0.0
 10
11.7096736821
 20
7.7709549527
 30
0.0
  0
LINE
  5
34B
100
AcDbEntity
  8
0
100
AcDbLine
 62
9
  6
CONTINUOUS
 10
10.775220463
 20
9.494071318
 11
10.7752135905
 21
9.4935346818
  0
LINE
  5
34C
100
AcDbEntity
  8
0
100
AcDbLine
 62
9
  6
CONTINUOUS
 10
10.7752085434
 20
9.4931401406
 11
10.775171171
 21
9.4902068219
  0
LINE
  5
34D
100
AcDbEntity
  8
0
100
AcDbLine
 62
9
  6
CONTINUOUS
 10
10.775171171
 20
9.4902068219
 11
10.7750499096
 21
9.4805455435
  0
SPLINE
  5
34E
100
AcDbEntity
  8
0
100
AcDbSpline
 62
9
  6
CONTINUOUS
 70
0
 71
3
 72
14
 73
10
 74
0
 42
0.0000001
 43
0.0000001
 44
0.0000000001
 40
0.0
 40
0.0
 40
0.0
 40
0.0
 40
0.2415873262
 40
0.3647471709
 40
0.4894224992
 40
0.6155283242
 40
0.7428694461
 40
0.8711988943
 40
1.0
 40
1.0
 40
1.0
 40
1.0
 10
11.3586270432
 20
8.1605206682
 30
0.0
 10
11.3175200455
 20
8.2356779213
 30
0.0
 10
11.2600149926
 20
8.3517135094
 30
0.0
 10
11.1916158292
 20
8.5112339069
 30
0.0
 10
11.1436649328
 20
8.6348868597
 30
0.0
 10
11.0993963108
 20
8.7614714132
 30
0.0
 10
11.0589589496
 20
8.8906912453
 30
0.0
 10
11.0225551617
 20
9.0220957326
 30
0.0
 10
11.0014012366
 20
9.1108127286
 30
0.0
 10
10.9917546547
 20
9.155453932
 30
0.0
  0
SPLINE
  5
34F
100
AcDbEntity
  8
0
100
AcDbSpline
 62
9
  6
CONTINUOUS
 70
0
 71
3
 72
31
 73
27
 74
0
 42
0.0000001
 43
0.0000001
 44
0.0000000001
 40
0.0
 40
0.0
 40
0.0
 40
0.0
 40
0.2316651036
 40
0.3247922287
 40
0.4026409315
 40
0.4358029494
 40
0.4651059584
 40
0.4905370406
 40
0.5120835186
 40
0.5297331698
 40
0.5434747476
 40
0.5532996579
 40
0.5592156506
 40
0.561320452
 40
0.5634879077
 40
0.5694593266
 40
0.5793166182
 40
0.5930672265
 40
0.6107096032
 40
0.6322397129
 40
0.6576525585
 40
0.6869426922
 40
0.7201044276
 40
0.798019271
 40
0.8913487841
 40
1.0
 40
1.0
 40
1.0
 40
1.0
 10
10.7750498935
 20
9.4805658159
 30
0.0
 10
10.7750401801
 20
9.4797828864
 30
0.0
 10
10.7750252368
 20
9.4786852425
 30
0.0
 10
10.7750013132
 20
9.4773245853
 30
0.0
 10
10.7749868024
 20
9.476634795
 30
0.0
 10
10.7749748827
 20
9.476160687
 30
0.0
 10
10.7749664515
 20
9.4758637801
 30
0.0
 10
10.7749579427
 20
9.4756059563
 30
0.0
 10
10.7749497108
 20
9.4753881112
 30
0.0
 10
10.7749408202
 20
9.4752082108
 30
0.0
 10
10.7749339033
 20
9.4750721575
 30
0.0
 10
10.7749228537
 20
9.4749660018
 30
0.0
 10
10.7749208672
 20
9.4749181911
 30
0.0
 10
10.7749056653
 20
9.4748680847
 30
0.0
 10
10.7748910867
 20
9.4749192598
 30
0.0
 10
10.7748886516
 20
9.4749669889
 30
0.0
 10
10.7748778643
 20
9.4750737506
 30
0.0
 10
10.7748708273
 20
9.4752098085
 30
0.0
 10
10.7748619913
 20
9.475389701
 30
0.0
 10
10.7748537498
 20
9.4756073901
 30
0.0
 10
10.7748452559
 20
9.4758650586
 30
0.0
 10
10.7748368316
 20
9.4761618579
 30
0.0
 10
10.7748249201
 20
9.4766361461
 30
0.0
 10
10.7748104173
 20
9.4773268428
 30
0.0
 10
10.774793812
 20
9.4782727039
 30
0.0
 10
10.7747835645
 20
9.4789552878
 30
0.0
 10
10.7747783785
 20
9.4793224743
 30
0.0
  0
LINE
  5
350
100
AcDbEntity
  8
0
100
AcDbLine
 62
9
  6
CONTINUOUS
 10
10.7746830258
 20
9.4889130683
 11
10.7746809871
 21
9.489184839
  0
LINE
  5
351
100
AcDbEntity
  8
0
100
AcDbLine
 62
9
  6
CONTINUOUS
 10
10.7746809871
 20
9.489184839
 11
10.7746628639
 21
9.4917371819
  0
LINE
  5
352
100
AcDbEntity
  8
0
100
AcDbLine
 62
9
  6
CONTINUOUS
 10
10.7746628639
 20
9.4917371819
 11
10.7746599504
 21
9.4921709091
  0
LINE
  5
353
100
AcDbEntity
  8
0
100
AcDbLine
 62
9
  6
CONTINUOUS
 10
10.7746599504
 20
9.4921709091
 11
10.7743909281
 21
9.596699832
  0
LINE
  5
354
100
AcDbEntity
  8
0
100
AcDbLine
 62
9
  6
CONTINUOUS
 10
10.7743909281
 20
9.596699832
 11
10.7743909281
 21
10.1190752355
  0
SPLINE
  5
355
100
AcDbEntity
  8
0
100
AcDbSpline
 62
9
  6
CONTINUOUS
 70
0
 71
3
 72
9
 73
5
 74
0
 42
0.0000001
 43
0.0000001
 44
0.0000000001
 40
0.0
 40
0.0
 40
0.0
 40
0.0
 40
0.2460705453
 40
1.0
 40
1.0
 40
1.0
 40
1.0
 10
11.3616598643
 20
8.154991074
 30
0.0
 10
11.3614273292
 20
8.155413622
 30
0.0
 10
11.360440112
 20
8.157107298
 30
0.0
 10
11.3592842456
 20
8.1587020939
 30
0.0
 10
11.3583344703
 20
8.1598341725
 30
0.0
  0
SPLINE
  5
356
100
AcDbEntity
  8
0
100
AcDbSpline
 62
9
  6
CONTINUOUS
 70
0
 71
3
 72
21
 73
17
 74
0
 42
0.0000001
 43
0.0000001
 44
0.0000000001
 40
0.0
 40
0.0
 40
0.0
 40
0.0
 40
0.0417489035
 40
0.0856606321
 40
0.1322692954
 40
0.1820464758
 40
0.2352012173
 40
0.2918142541
 40
0.3519039995
 40
0.4154320478
 40
0.4821525313
 40
0.5516605785
 40
0.6971255169
 40
0.772143559
 40
0.8479958343
 40
1.0
 40
1.0
 40
1.0
 40
1.0
 10
11.3583344703
 20
8.1598341725
 30
0.0
 10
11.3573842671
 20
8.1609667611
 30
0.0
 10
11.355267313
 20
8.1631548555
 30
0.0
 10
11.3515797968
 20
8.1660633725
 30
0.0
 10
11.3473081366
 20
8.1686254439
 30
0.0
 10
11.3424658027
 20
8.1707956796
 30
0.0
 10
11.3370894046
 20
8.172560862
 30
0.0
 10
11.3312171516
 20
8.1738988016
 30
0.0
 10
11.3248900333
 20
8.1747880008
 30
0.0
 10
11.3181564668
 20
8.1752018447
 30
0.0
 10
11.3110779307
 20
8.1751483451
 30
0.0
 10
11.3011214441
 20
8.1744647443
 30
0.0
 10
11.2909499763
 20
8.1728984271
 30
0.0
 10
11.2807177782
 20
8.1705596106
 30
0.0
 10
11.2703750348
 20
8.1677105503
 30
0.0
 10
11.2627314103
 20
8.1650925838
 30
0.0
 10
11.2577081681
 20
8.1631585529
 30
0.0
  0
SPLINE
  5
357
100
AcDbEntity
  8
0
100
AcDbSpline
 62
9
  6
CONTINUOUS
 70
0
 71
3
 72
22
 73
18
 74
0
 42
0.0000001
 43
0.0000001
 44
0.0000000001
 40
0.0
 40
0.0
 40
0.0
 40
0.0
 40
0.0081721456
 40
0.0170122845
 40
0.0269910979
 40
0.038428587
 40
0.0663877932
 40
0.1017960835
 40
0.1448221836
 40
0.1953354095
 40
0.2530783076
 40
0.3175973325
 40
0.3883266307
 40
0.4646763882
 40
0.6315440317
 40
0.8124164558
 40
1.0
 40
1.0
 40
1.0
 40
1.0
 10
10.77439088
 20
10.119072666
 30
0.0
 10
10.774387998
 20
10.1192133625
 30
0.0
 10
10.7743377087
 20
10.1195066564
 30
0.0
 10
10.7741391936
 20
10.1199315258
 30
0.0
 10
10.7738230684
 20
10.1203494201
 30
0.0
 10
10.7732058976
 20
10.1209381549
 30
0.0
 10
10.7721158202
 20
10.1216416986
 30
0.0
 10
10.7704505314
 20
10.1224115028
 30
0.0
 10
10.7683548216
 20
10.1231532259
 30
0.0
 10
10.765846102
 20
10.1238598152
 30
0.0
 10
10.762944718
 20
10.1245230262
 30
0.0
 10
10.7596779013
 20
10.1251369267
 30
0.0
 10
10.7560766845
 20
10.1256956216
 30
0.0
 10
10.7507131432
 20
10.1263778615
 30
0.0
 10
10.7434374774
 20
10.1270368592
 30
0.0
 10
10.7342298518
 20
10.1275162797
 30
0.0
 10
10.727884579
 20
10.1276312164
 30
0.0
 10
10.7246543567
 20
10.1276360663
 30
0.0
  0
SPLINE
  5
358
100
AcDbEntity
  8
0
100
AcDbSpline
 62
9
  6
CONTINUOUS
 70
0
 71
3
 72
23
 73
19
 74
0
 42
0.0000001
 43
0.0000001
 44
0.0000000001
 40
0.0
 40
0.0
 40
0.0
 40
0.0
 40
0.0041341236
 40
0.0100734718
 40
0.017826723
 40
0.0273586712
 40
0.0515746162
 40
0.082810469
 40
0.121722637
 40
0.1689100188
 40
0.224522017
 40
0.2882177715
 40
0.3595846607
 40
0.4379004214
 40
0.6118424393
 40
0.7054373161
 40
0.8020034252
 40
1.0
 40
1.0
 40
1.0
 40
1.0
 10
11.6103007956
 20
7.770968656
 30
0.0
 10
11.6102266123
 20
7.7710663929
 30
0.0
 10
11.6099952125
 20
7.7712630668
 30
0.0
 10
11.6095429126
 20
7.7715373248
 30
0.0
 10
11.6089171275
 20
7.7718300392
 30
0.0
 10
11.6077627062
 20
7.7722617864
 30
0.0
 10
11.6058890939
 20
7.7727414929
 30
0.0
 10
11.603121242
 20
7.7731808173
 30
0.0
 10
11.5996566737
 20
7.7735440586
 30
0.0
 10
11.5954611242
 20
7.7738466158
 30
0.0
 10
11.5905252385
 20
7.774091685
 30
0.0
 10
11.5848680512
 20
7.7742576161
 30
0.0
 10
11.5785350194
 20
7.7743262916
 30
0.0
 10
11.5689296114
 20
7.7742907117
 30
0.0
 10
11.5586661632
 20
7.7740746201
 30
0.0
 10
11.5478651326
 20
7.7737256398
 30
0.0
 10
11.5363533362
 20
7.7732743637
 30
0.0
 10
11.5276212142
 20
7.7728338302
 30
0.0
 10
11.5217552228
 20
7.7724813493
 30
0.0
  0
LINE
  5
359
100
AcDbEntity
  8
0
100
AcDbLine
 62
9
  6
CONTINUOUS
 10
10.6953144496
 20
10.1276360283
 11
10.6950633555
 21
10.2908965358
  0
LINE
  5
35A
100
AcDbEntity
  8
0
100
AcDbLine
 62
9
  6
CONTINUOUS
 10
10.6953126203
 20
9.5881390685
 11
10.6953126204
 21
10.1276360283
  0
LINE
  5
35B
100
AcDbEntity
  8
0
100
AcDbLine
 62
9
  6
CONTINUOUS
 10
10.7246543579
 20
10.1276360283
 11
10.7246543579
 21
9.5881390685
  0
SPLINE
  5
35C
100
AcDbEntity
  8
0
100
AcDbSpline
 62
9
  6
CONTINUOUS
 70
0
 71
3
 72
22
 73
18
 74
0
 42
0.0000001
 43
0.0000001
 44
0.0000000001
 40
0.0
 40
0.0
 40
0.0
 40
0.0
 40
0.008172262
 40
0.0170125177
 40
0.0269914237
 40
0.0384289699
 40
0.0663881768
 40
0.1017963108
 40
0.1448221122
 40
0.1953349871
 40
0.253077543
 40
0.317596219
 40
0.388325214
 40
0.4646747698
 40
0.6315423129
 40
0.8124149836
 40
1.0
 40
1.0
 40
1.0
 40
1.0
 10
10.645576054
 20
10.1190726111
 30
0.0
 10
10.6455789382
 20
10.1192133036
 30
0.0
 10
10.6456292295
 20
10.1195065883
 30
0.0
 10
10.6458277392
 20
10.1199314443
 30
0.0
 10
10.6461438519
 20
10.120349326
 30
0.0
 10
10.6467609941
 20
10.1209380423
 30
0.0
 10
10.6478510176
 20
10.1216415652
 30
0.0
 10
10.6495162223
 20
10.1224113483
 30
0.0
 10
10.6516118241
 20
10.123153054
 30
0.0
 10
10.6541204161
 20
10.1238596284
 30
0.0
 10
10.6570216555
 20
10.1245228281
 30
0.0
 10
10.6602883133
 20
10.1251367223
 30
0.0
 10
10.66388936
 20
10.1256954153
 30
0.0
 10
10.6692526606
 20
10.1263776587
 30
0.0
 10
10.6765280145
 20
10.1270366726
 30
0.0
 10
10.6857352765
 20
10.1275161339
 30
0.0
 10
10.6920803105
 20
10.1276311084
 30
0.0
 10
10.6953104219
 20
10.1276359821
 30
0.0
  0
SPLINE
  5
35D
100
AcDbEntity
  8
0
100
AcDbSpline
 62
9
  6
CONTINUOUS
 70
0
 71
3
 72
20
 73
16
 74
0
 42
0.0000001
 43
0.0000001
 44
0.0000000001
 40
0.0
 40
0.0
 40
0.0
 40
0.0
 40
0.1206633294
 40
0.1830569385
 40
0.246607483
 40
0.3109981155
 40
0.3759182327
 40
0.4410987781
 40
0.5063333904
 40
0.5714102776
 40
0.6360517344
 40
0.6999383821
 40
0.7627436989
 40
0.8843932067
 40
1.0
 40
1.0
 40
1.0
 40
1.0
 10
10.8501280124
 20
9.9552435496
 30
0.0
 10
10.852918995
 20
9.9547902564
 30
0.0
 10
10.8571073308
 20
9.9537416259
 30
0.0
 10
10.8624825216
 20
9.951604276
 30
0.0
 10
10.8664669995
 20
9.94958574
 30
0.0
 10
10.8703075982
 20
9.9471926511
 30
0.0
 10
10.8739505101
 20
9.9444435919
 30
0.0
 10
10.8773412435
 20
9.9413584481
 30
0.0
 10
10.8804223779
 20
9.9379591003
 30
0.0
 10
10.8831712755
 20
9.9343025586
 30
0.0
 10
10.885567577
 20
9.9304433758
 30
0.0
 10
10.8875919189
 20
9.9264359419
 30
0.0
 10
10.8897408938
 20
9.9210202806
 30
0.0
 10
10.8914580161
 20
9.914164696
 30
0.0
 10
10.8919163125
 20
9.90859661
 30
0.0
 10
10.8919162923
 20
9.9058875484
 30
0.0
  0
LINE
  5
35E
100
AcDbEntity
  8
0
100
AcDbLine
 62
9
  6
CONTINUOUS
 10
10.7746599383
 20
10.2236023559
 11
10.7746628804
 21
10.2240403457
  0
LINE
  5
35F
100
AcDbEntity
  8
0
100
AcDbLine
 62
9
  6
CONTINUOUS
 10
10.7746628804
 20
10.2240403457
 11
10.7746797681
 21
10.2264262882
  0
LINE
  5
360
100
AcDbEntity
  8
0
100
AcDbLine
 62
9
  6
CONTINUOUS
 10
10.7746797681
 20
10.2264262882
 11
10.7746830258
 21
10.2268620254
  0
SPLINE
  5
361
100
AcDbEntity
  8
0
100
AcDbSpline
 62
9
  6
CONTINUOUS
 70
0
 71
3
 72
37
 73
33
 74
0
 42
0.0000001
 43
0.0000001
 44
0.0000000001
 40
0.0
 40
0.0
 40
0.0
 40
0.0
 40
0.2631862015
 40
0.4711915469
 40
0.5540012083
 40
0.622418351
 40
0.676311734
 40
0.7156194433
 40
0.7297863655
 40
0.7354954194
 40
0.7402874331
 40
0.7441621869
 40
0.7471201449
 40
0.7491636816
 40
0.7498453562
 40
0.7503049357
 40
0.750558228
 40
0.7507120979
 40
0.7510119897
 40
0.7515249217
 40
0.753226307
 40
0.7558442998
 40
0.7593845834
 40
0.763847848
 40
0.7692329482
 40
0.7755383274
 40
0.7909027481
 40
0.8099260698
 40
0.8325924432
 40
0.8588857059
 40
0.9222874826
 40
1.0
 40
1.0
 40
1.0
 40
1.0
 10
10.7746830258
 20
10.2268620254
 30
0.0
 10
10.7746954039
 20
10.2285028845
 30
0.0
 10
10.77471977
 20
10.231440556
 30
0.0
 10
10.774756486
 20
10.2348944391
 30
0.0
 10
10.7747877174
 20
10.2371339538
 30
0.0
 10
10.7748093567
 20
10.2384126509
 30
0.0
 10
10.7748310077
 20
10.2394200762
 30
0.0
 10
10.7748500777
 20
10.2400892275
 30
0.0
 10
10.7748652137
 20
10.2404579325
 30
0.0
 10
10.7748732356
 20
10.2406115128
 30
0.0
 10
10.7748787918
 20
10.2407009974
 30
0.0
 10
10.7748842845
 20
10.2407732012
 30
0.0
 10
10.7748897309
 20
10.2408284532
 30
0.0
 10
10.7748944918
 20
10.2408632337
 30
0.0
 10
10.7748986352
 20
10.2408831307
 30
0.0
 10
10.7749012999
 20
10.2408907392
 30
0.0
 10
10.7749038587
 20
10.2408967789
 30
0.0
 10
10.7749090009
 20
10.2408956048
 30
0.0
 10
10.77491093
 20
10.2408892593
 30
0.0
 10
10.7749157056
 20
10.2408748245
 30
0.0
 10
10.7749198665
 20
10.2408443996
 30
0.0
 10
10.7749255605
 20
10.2407960334
 30
0.0
 10
10.7749309013
 20
10.2407298853
 30
0.0
 10
10.7749364946
 20
10.2406466478
 30
0.0
 10
10.774942049
 20
10.2405460661
 30
0.0
 10
10.7749500458
 20
10.2403775817
 30
0.0
 10
10.7749597137
 20
10.240124044
 30
0.0
 10
10.7749707776
 20
10.2397684975
 30
0.0
 10
10.7749818567
 20
10.239344782
 30
0.0
 10
10.7749976332
 20
10.2386444112
 30
0.0
 10
10.7750166802
 20
10.237600833
 30
0.0
 10
10.7750297867
 20
10.2367211144
 30
0.0
 10
10.7750364694
 20
10.2362366408
 30
0.0
  0
LINE
  5
362
100
AcDbEntity
  8
0
100
AcDbLine
 62
9
  6
CONTINUOUS
 10
10.7750364694
 20
10.2362366408
 11
10.7750498935
 21
10.2352092795
  0
LINE
  5
363
100
AcDbEntity
  8
0
100
AcDbLine
 62
9
  6
CONTINUOUS
 10
10.7750499096
 20
10.2352295515
 11
10.77517401
 21
10.2253447111
  0
LINE
  5
364
100
AcDbEntity
  8
0
100
AcDbLine
 62
9
  6
CONTINUOUS
 10
10.77517401
 20
10.2253447111
 11
10.7752073048
 21
10.2227318438
  0
SPLINE
  5
365
100
AcDbEntity
  8
0
100
AcDbSpline
 62
9
  6
CONTINUOUS
 70
0
 71
3
 72
15
 73
11
 74
0
 42
0.0000001
 43
0.0000001
 44
0.0000000001
 40
0.0
 40
0.0
 40
0.0
 40
0.0
 40
0.1383785105
 40
0.2751018452
 40
0.4080546517
 40
0.5361485552
 40
0.6587753574
 40
0.7760942102
 40
0.8893202529
 40
1.0
 40
1.0
 40
1.0
 40
1.0
 10
10.3966766868
 20
9.9958875484
 30
0.0
 10
10.3966766868
 20
9.9932805278
 30
0.0
 10
10.3962697493
 20
9.9880887312
 30
0.0
 10
10.3944742004
 20
9.9805814439
 30
0.0
 10
10.3915443451
 20
9.9736442142
 30
0.0
 10
10.3875888116
 20
9.9675465483
 30
0.0
 10
10.3827544715
 20
9.9625124508
 30
0.0
 10
10.3772027163
 20
9.9587470039
 30
0.0
 10
10.3711489083
 20
9.9564202417
 30
0.0
 10
10.3669136724
 20
9.9558875498
 30
0.0
 10
10.3648284905
 20
9.9558875484
 30
0.0
  0
LINE
  5
366
100
AcDbEntity
  8
0
100
AcDbLine
 62
9
  6
CONTINUOUS
 10
10.6950612855
 20
9.4248785609
 11
10.6953126228
 21
9.5881390685
  0
SPLINE
  5
367
100
AcDbEntity
  8
0
100
AcDbSpline
 62
9
  6
CONTINUOUS
 70
0
 71
3
 72
15
 73
11
 74
0
 42
0.0000001
 43
0.0000001
 44
0.0000000001
 40
0.0
 40
0.0
 40
0.0
 40
0.0
 40
0.1383785136
 40
0.2751018506
 40
0.4080546579
 40
0.5361485605
 40
0.6587753602
 40
0.77609421
 40
0.8893202516
 40
1.0
 40
1.0
 40
1.0
 40
1.0
 10
11.0232902914
 20
9.9958875484
 30
0.0
 10
11.0232902914
 20
9.9932805273
 30
0.0
 10
11.0236972292
 20
9.9880887296
 30
0.0
 10
11.0254927788
 20
9.9805814408
 30
0.0
 10
11.0284226352
 20
9.9736442101
 30
0.0
 10
11.0323781703
 20
9.9675465435
 30
0.0
 10
11.0372125122
 20
9.9625124461
 30
0.0
 10
11.0427642693
 20
9.9587469999
 30
0.0
 10
11.0488180792
 20
9.9564202393
 30
0.0
 10
11.0530533161
 20
9.9558875489
 30
0.0
 10
11.0551384985
 20
9.9558875484
 30
0.0
  0
LINE
  5
368
100
AcDbEntity
  8
0
100
AcDbLine
 62
9
  6
CONTINUOUS
 10
10.7744392778
 20
10.1169727333
 11
10.7744392767
 21
9.5988038248
  0
ENDSEC
  0
SECTION
  2
OBJECTS
  0
DICTIONARY
  5
C
100
AcDbDictionary
280
0
281
1
  3
ACAD_GROUP
350
D
  3
ACAD_MLINESTYLE
350
17
  3
ACAD_LAYOUT
350
1A
  3
ACAD_PLOTSETTINGS
350
19
  3
ACAD_PLOTSTYLENAME
350
E
  0
DICTIONARY
  5
D
102
{ACAD_REACTORS
330
C
102
}
100
AcDbDictionary
280
0
281
1
  0
ACDBDICTIONARYWDFLT
  5
E
102
{ACAD_REACTORS
330
C
102
}
100
AcDbDictionary
281
1
  3
Normal
350
F
100
AcDbDictionaryWithDefault
340
F
  0
DICTIONARY
  5
17
102
{ACAD_REACTORS
330
C
102
}
100
AcDbDictionary
280
0
281
1
  3
Standard
350
18
  0
DICTIONARY
  5
19
102
{ACAD_REACTORS
330
C
102
}
100
AcDbDictionary
281
1
  0
DICTIONARY
  5
1A
102
{ACAD_REACTORS
330
C
102
}
100
AcDbDictionary
281
1
  3
Model
350
369
  3
Layout1
350
36A
  0
ACDBPLACEHOLDER
  5
F
102
{ACAD_REACTORS
330
E
102
}
  0
MLINESTYLE
  5
18
102
{ACAD_REACTORS
330
17
102
}
100
AcDbMlineStyle
  2
STANDARD
 70
0
  3

 62
256
 51
90.0
 52
90.0
 71
2
 49
0.5
 62
256
  6
BYLAYER
 49
-0.5
 62
256
  6
BYLAYER
  0
LAYOUT
  5
369
102
{ACAD_REACTORS
330
1A
102
}
100
AcDbPlotSettings
  1

  2
none_device
  4
ANSI_C_(22.00_x_17.00_Inches)
  6

 40
0.0
 41
0.0
 42
0.0
 43
0.0
 44
558.8
 45
431.8
 46
0.0
 47
0.0
 48
0.0
 49
0.0
140
0.0
141
0.0
142
1.0
143
1.0
 70
1024
 72
0
 73
0
 74
0
  7

 75
0
147
1.0
148
0.0
149
0.0
100
AcDbLayout
  1
Model
 70
0
 71
0
 10
0.0
 20
0.0
 11
22.0
 21
17.0
 12
0.0
 22
0.0
 32
0.0
 14
0.0
 24
0.0
 34
0.0
 15
0.0
 25
0.0
 35
0.0
146
0.0
 13
0.0
 23
0.0
 33
0.0
 16
1.0
 26
0.0
 36
0.0
 17
0.0
 27
1.0
 37
0.0
 76
0
330
202
345
0
346
0
  0
LAYOUT
  5
36A
102
{ACAD_REACTORS
330
1A
102
}
100
AcDbPlotSettings
  1

  2
none_device
  4
ANSI_C_(22.00_x_17.00_Inches)
  6

 40
0.0
 41
0.0
 42
0.0
 43
0.0
 44
558.8
 45
431.8
 46
0.0
 47
0.0
 48
0.0
 49
0.0
140
0.0
141
0.0
142
1.0
143
1.0
 70
0
 72
0
 73
0
 74
0
  7

 75
0
147
1.0
148
0.0
149
0.0
100
AcDbLayout
  1
Layout1
 70
0
 71
1
 10
0.0
 20
0.0
 11
22.0
 21
17.0
 12
0.0
 22
0.0
 32
0.0
 14
0.0
 24
0.0
 34
0.0
 15
0.0
 25
0.0
 35
0.0
146
0.0
 13
0.0
 23
0.0
 33
0.0
 16
1.0
 26
0.0
 36
0.0
 17
0.0
 27
1.0
 37
0.0
 76
0
330
203
345
0
346
0
  0
ENDSEC
  0
EOF
