999
DXF file: E:\BT Custom\CADOUTPUT\_RIGHT.dxf
999
Pro/ENGINEER 2018400 by Parametric Technology Corporation
  0
SECTION
  2
HEADER
  9
$ACADVER
  1
AC1018
  9
$DWGCODEPAGE
  3
ANSI_1252
  9
$EXTMAX
 10
22.0
 20
17.0
 30
0.0
  9
$EXTMIN
 10
0.0
 20
0.0
 30
0.0
  9
$LIMMIN
 10
0.0
 20
0.0
  9
$LIMMAX
 10
22.0
 20
17.0
  9
$VIEWCTR
 10
11.0
 20
8.5
  9
$VIEWSIZE
 40
17.0
  9
$CLAYER
  8
0
  9
$LTSCALE
 40
1.21
  9
$CELTYPE
  6
BYLAYER
  9
$DIMSCALE
 40
1.0
  9
$DIMASZ
 40
0.1
  9
$DIMEXO
 40
0.0625
  9
$DIMDLI
 40
0.836
  9
$DIMEXE
 40
0.125
  9
$DIMCEN
 40
0.198
  9
$DIMLFAC
 40
1.0
  9
$DIMBLK
  1
_FILLED
  9
$DIMALT
 70
1
  9
$DIMALTD
 70
2
  9
$DIMALTTD
 70
2
  9
$DIMALTF
 40
25.4
  9
$DIMTXT
 40
0.08
  9
$DIMTOL
 70
1
  9
$DIMLIM
 70
0
  9
$DIMTFAC
 40
1.0
  9
$DIMTP
 40
0.001
  9
$DIMTM
 40
0.001
  9
$DIMGAP
 40
0.09
  9
$DIMDSEP
 70
46
  9
$AUNITS
 70
0
  9
$PDMODE
 70
3
  9
$PDSIZE
 40
0.06
  9
$HANDSEED
  5
378
  9
$TILEMODE
 70
1
  9
$MEASUREMENT
 70
0
  9
$INSUNITS
 70
1
  0
ENDSEC
  0
SECTION
  2
CLASSES
  0
CLASS
  1
ACDBDICTIONARYWDFLT
  2
AcDbDictionaryWithDefault
  3
AutoCAD 2000
 90
0
 91
1
280
0
281
0
  0
CLASS
  1
ACDBPLACEHOLDER
  2
AcDbPlaceHolder
  3
AutoCAD 2000
 90
0
 91
1
280
0
281
0
  0
CLASS
  1
LAYOUT
  2
AcDbLayout
  3
AutoCAD 2000
 90
0
 91
0
280
0
281
0
  0
ENDSEC
  0
SECTION
  2
TABLES
  0
TABLE
  2
VPORT
  5
8
100
AcDbSymbolTable
 70
2
  0
VPORT
  5
1F4
100
AcDbSymbolTableRecord
100
AcDbViewportTableRecord
  2
*ACTIVE
 70
0
 10
0.0
 20
0.0
 11
1.0
 21
1.0
 12
11.0
 22
8.5
 13
0.0
 23
0.0
 14
1.0
 24
1.0
 15
0.0
 25
0.0
 16
0.0
 26
0.0
 36
1.0
 17
0.0
 27
0.0
 37
0.0
 40
17.0
 41
1.2941176471
 42
50.0
 43
0.0
 44
0.0
 50
0.0
 51
0.0
 71
0
 72
100
 73
1
 74
1
 75
0
 76
0
 77
0
 78
0
  0
ENDTAB
  0
TABLE
  2
LTYPE
  5
5
100
AcDbSymbolTable
 70
6
  0
LTYPE
  5
14
100
AcDbSymbolTableRecord
100
AcDbLinetypeTableRecord
  2
BYBLOCK
 70
0
  3

 72
65
 73
0
 40
0.0
  0
LTYPE
  5
15
100
AcDbSymbolTableRecord
100
AcDbLinetypeTableRecord
  2
BYLAYER
 70
0
  3

 72
65
 73
0
 40
0.0
  0
LTYPE
  5
16
100
AcDbSymbolTableRecord
100
AcDbLinetypeTableRecord
  2
CONTINUOUS
 70
64
  3
Solid line
 72
65
 73
0
 40
0.0
  0
LTYPE
  5
1F5
100
AcDbSymbolTableRecord
100
AcDbLinetypeTableRecord
  2
CENTER
 70
64
  3
____ _ ____ _ ____ _ ____ _ ____ _ ____ _ ____
 72
65
 73
4
 40
0.6
 49
0.375
 74
0
 49
-0.075
 74
0
 49
0.075
 74
0
 49
-0.075
 74
0
  0
LTYPE
  5
1F6
100
AcDbSymbolTableRecord
100
AcDbLinetypeTableRecord
  2
HIDDEN
 70
64
  3
- - - - - - - - - - - - - - - - - - - -
 72
65
 73
2
 40
0.2
 49
0.1
 74
0
 49
-0.1
 74
0
  0
LTYPE
  5
1F7
100
AcDbSymbolTableRecord
100
AcDbLinetypeTableRecord
  2
PHANTOM
 70
64
  3
_____ _ _ _____ _ _ _____ _ _ _____
 72
65
 73
6
 40
0.8
 49
0.45
 74
0
 49
-0.05
 74
0
 49
0.1
 74
0
 49
-0.05
 74
0
 49
0.1
 74
0
 49
-0.05
 74
0
  0
LTYPE
  5
1F8
100
AcDbSymbolTableRecord
100
AcDbLinetypeTableRecord
  2
DOT
 70
64
  3
. . . . . . . . . . . . . . . . . . . .
 72
65
 73
2
 40
0.2
 49
0.1
 74
0
 49
-0.1
 74
0
  0
LTYPE
  5
1F9
100
AcDbSymbolTableRecord
100
AcDbLinetypeTableRecord
  2
DASHED
 70
64
  3
- - - - - - - - - - - - - - - - - - - -
 72
65
 73
2
 40
0.2
 49
0.1
 74
0
 49
-0.1
 74
0
  0
ENDTAB
  0
TABLE
  2
LAYER
  5
2
100
AcDbSymbolTable
 70
36
  0
LAYER
  5
10
100
AcDbSymbolTableRecord
100
AcDbLayerTableRecord
  2
0
 70
0
 62
7
  6
CONTINUOUS
370
-3
390
F
  0
LAYER
  5
1FA
100
AcDbSymbolTableRecord
100
AcDbLayerTableRecord
  2
DEFAULT_1
 70
0
 62
7
  6
CENTER
370
-3
390
F
  0
LAYER
  5
1FB
100
AcDbSymbolTableRecord
100
AcDbLayerTableRecord
  2
DEFAULT_2
 70
0
 62
8
  6
HIDDEN
370
-3
390
F
  0
LAYER
  5
1FC
100
AcDbSymbolTableRecord
100
AcDbLayerTableRecord
  2
DEFAULT_3
 70
0
 62
7
  6
PHANTOM
370
-3
390
F
  0
LAYER
  5
1FD
100
AcDbSymbolTableRecord
100
AcDbLayerTableRecord
  2
ALL_FEATURES
 70
0
 62
7
  6
CONTINUOUS
370
-3
390
F
  0
LAYER
  5
1FE
100
AcDbSymbolTableRecord
100
AcDbLayerTableRecord
  2
AXES_FEATURES
 70
0
 62
7
  6
CONTINUOUS
370
-3
390
F
  0
LAYER
  5
1FF
100
AcDbSymbolTableRecord
100
AcDbLayerTableRecord
  2
DIMENSIONS
 70
0
 62
7
  6
CONTINUOUS
370
-3
390
F
  0
ENDTAB
  0
TABLE
  2
STYLE
  5
3
100
AcDbSymbolTable
 70
1
  0
STYLE
  5
11
100
AcDbSymbolTableRecord
100
AcDbTextStyleTableRecord
  2
STANDARD
 70
0
 40
0.0
 41
0.8
 50
0.0
 71
0
 42
0.2
  3
txt
  4

  0
STYLE
  5
200
100
AcDbSymbolTableRecord
100
AcDbTextStyleTableRecord
  2
TEXTSTYLE_1
 70
0
 40
0.0
 41
0.8
 50
0.0
 71
0
 42
0.2
  3
gdt
  4

  0
ENDTAB
  0
TABLE
  2
VIEW
  5
6
100
AcDbSymbolTable
 70
0
  0
ENDTAB
  0
TABLE
  2
UCS
  5
7
100
AcDbSymbolTable
 70
0
  0
ENDTAB
  0
TABLE
  2
APPID
  5
9
100
AcDbSymbolTable
 70
1
  0
APPID
  5
201
100
AcDbSymbolTableRecord
100
AcDbRegAppTableRecord
  2
ACAD
 70
0
  0
ENDTAB
  0
TABLE
  2
BLOCK_RECORD
  5
1
100
AcDbSymbolTable
 70
0
  0
BLOCK_RECORD
  5
202
100
AcDbSymbolTableRecord
100
AcDbBlockTableRecord
  2
*Model_Space
  0
BLOCK_RECORD
  5
203
100
AcDbSymbolTableRecord
100
AcDbBlockTableRecord
  2
*Paper_Space
  0
BLOCK_RECORD
  5
204
100
AcDbSymbolTableRecord
100
AcDbBlockTableRecord
  2
_FILLED
  0
ENDTAB
  0
TABLE
  2
DIMSTYLE
  5
A
100
AcDbSymbolTable
 70
1
100
AcDbDimStyleTable
 71
0
  0
DIMSTYLE
105
205
100
AcDbSymbolTableRecord
100
AcDbDimStyleTableRecord
  2
STANDARD
 70
0
  3

  4

 40
1.0
 41
0.1
 42
0.0625
 43
0.38
 44
0.125
 45
0.0
 46
0.0
 47
0.001
 48
0.001
140
0.08
141
0.09
142
0.0
143
25.4
144
1.0
145
0.0
146
1.0
147
0.09
 71
1.0
 72
0.0
 73
1
 74
1
 75
0
 76
0
 77
0
 78
4
 79
1
170
1
171
2
172
0
173
0
174
0
175
0
176
0
177
0
178
0
270
2
179
3
271
3
272
3
273
2
274
2
275
0
280
0
281
0
282
0
283
1
284
4
285
0
286
0
287
3
288
0
340
11
278
46
341
204
342
204
343
204
344
204
  0
ENDTAB
  0
ENDSEC
  0
SECTION
  2
BLOCKS
  0
BLOCK
  5
20
100
AcDbEntity
  8
0
100
AcDbBlockBegin
  2
*Model_Space
 70
0
 10
0.0
 20
0.0
 30
0.0
  3
*Model_Space
  1

  0
ENDBLK
  5
21
100
AcDbEntity
  8
0
100
AcDbBlockEnd
  0
BLOCK
  5
1C
100
AcDbEntity
  8
0
100
AcDbBlockBegin
  2
*Paper_Space
 70
0
 10
0.0
 20
0.0
 30
0.0
  3
*Paper_Space
  1

  0
ENDBLK
  5
1D
100
AcDbEntity
  8
0
100
AcDbBlockEnd
  0
BLOCK
  5
206
100
AcDbEntity
  8
0
100
AcDbBlockBegin
  2
_FILLED
 70
64
 10
0.0
 20
0.0
  3
_FILLED
  1

  0
SOLID
  5
207
100
AcDbEntity
  8
0
  6
BYBLOCK
 62
0
100
AcDbTrace
 10
0.0
 20
0.0
 11
-1.0
 21
0.2
 12
-1.0
 22
-0.2
 13
-1.0
 23
-0.2
  0
ENDBLK
  5
208
100
AcDbEntity
  8
0
  6
BYBLOCK
 62
0
100
AcDbBlockEnd
  0
ENDSEC
  0
SECTION
  2
ENTITIES
  0
LINE
  5
209
100
AcDbEntity
  8
0
100
AcDbLine
 62
7
  6
CONTINUOUS
 10
11.788047533
 20
7.6978923255
 11
11.7879464526
 21
7.6978918018
  0
LINE
  5
20A
100
AcDbEntity
  8
0
100
AcDbLine
 62
7
  6
CONTINUOUS
 10
9.6849846242
 20
7.687891804
 11
11.7349823541
 21
7.687891804
  0
LINE
  5
20B
100
AcDbEntity
  8
0
100
AcDbLine
 62
7
  6
CONTINUOUS
 10
9.8452687141
 20
9.842869145
 11
9.8532158872
 21
9.8508118742
  0
LINE
  5
20C
100
AcDbEntity
  8
0
100
AcDbLine
 62
7
  6
CONTINUOUS
 10
9.8531219844
 20
9.8507397453
 11
9.8532165575
 21
9.8508109813
  0
LINE
  5
20D
100
AcDbEntity
  8
0
100
AcDbLine
 62
9
  6
CONTINUOUS
 10
9.7779118547
 20
7.7300061607
 11
9.7102932738
 21
7.7299500674
  0
LINE
  5
20E
100
AcDbEntity
  8
0
100
AcDbLine
 62
9
  6
CONTINUOUS
 10
10.7099834891
 20
7.7316645441
 11
9.8982118765
 21
7.7314856531
  0
LINE
  5
20F
100
AcDbEntity
  8
0
100
AcDbLine
 62
7
  6
CONTINUOUS
 10
9.6313107596
 20
7.697891804
 11
11.7886527326
 21
7.697891804
  0
LINE
  5
210
100
AcDbEntity
  8
0
100
AcDbLine
 62
9
  6
CONTINUOUS
 10
11.5217552634
 20
7.731485609
 11
10.7099834891
 21
7.7316645441
  0
LINE
  5
211
100
AcDbEntity
  8
0
100
AcDbLine
 62
9
  6
CONTINUOUS
 10
11.7096736981
 20
7.7299500931
 11
11.6420551154
 21
7.7300061818
  0
LINE
  5
212
100
AcDbEntity
  8
0
100
AcDbLine
 62
7
  6
CONTINUOUS
 10
9.8391307582
 20
9.8309702543
 11
9.8452687141
 21
9.842869145
  0
LINE
  5
213
100
AcDbEntity
  8
0
100
AcDbLine
 62
7
  6
CONTINUOUS
 10
9.8531219844
 20
9.8507397453
 11
9.8618701434
 21
9.8557538817
  0
LINE
  5
214
100
AcDbEntity
  8
0
100
AcDbLine
 62
7
  6
CONTINUOUS
 10
9.6849834891
 20
7.697891804
 11
9.6849834891
 21
7.687891804
  0
LINE
  5
215
100
AcDbEntity
  8
0
100
AcDbLine
 62
9
  6
CONTINUOUS
 10
9.703053412
 20
9.9729987589
 11
9.7030532429
 21
9.8645565762
  0
LINE
  5
216
100
AcDbEntity
  8
0
100
AcDbLine
 62
9
  6
CONTINUOUS
 10
9.7703089184
 20
9.8930762784
 11
9.7703089184
 21
9.8645551991
  0
LINE
  5
217
100
AcDbEntity
  8
0
100
AcDbLine
 62
7
  6
CONTINUOUS
 10
9.8351307193
 20
9.8082197626
 11
9.8375857609
 21
9.8240101289
  0
LINE
  5
218
100
AcDbEntity
  8
0
100
AcDbLine
 62
7
  6
CONTINUOUS
 10
9.8375853528
 20
9.8240071039
 11
9.8391307582
 21
9.8309702543
  0
LINE
  5
219
100
AcDbEntity
  8
0
100
AcDbLine
 62
9
  6
CONTINUOUS
 10
10.1921630837
 20
9.8342638029
 11
10.2339835649
 21
9.8869359125
  0
LINE
  5
21A
100
AcDbEntity
  8
0
100
AcDbLine
 62
9
  6
CONTINUOUS
 10
9.4874069153
 20
10.0292982524
 11
9.4506058615
 21
10.1706732105
  0
LWPOLYLINE
  5
21B
100
AcDbEntity
  8
0
100
AcDbPolyline
 62
7
  6
CONTINUOUS
 90
7
 70
0
 10
9.6113166195
 20
9.5614944257
 10
9.6386136959
 20
9.5706248302
 10
9.6961338782
 20
9.5999227481
 10
9.7464544725
 20
9.6403040386
 10
9.7874668762
 20
9.6900451107
 10
9.817466826
 20
9.7470207781
 10
9.8352432262
 20
9.8088409397
  0
LWPOLYLINE
  5
21C
100
AcDbEntity
  8
0
100
AcDbPolyline
 62
7
  6
CONTINUOUS
 90
6
 70
0
 10
10.8173927699
 20
9.6269833515
 10
10.8293268711
 20
9.631648011
 10
10.8452273026
 20
9.6425857844
 10
10.8575338472
 20
9.6574452767
 10
10.8653178016
 20
9.6751051964
 10
10.8679834891
 20
9.6942386843
  0
LINE
  5
21D
100
AcDbEntity
  8
0
100
AcDbLine
 62
9
  6
CONTINUOUS
 10
10.2339834891
 20
9.8869359835
 11
10.2339834891
 21
10.1623932136
  0
LWPOLYLINE
  5
21E
100
AcDbEntity
  8
0
100
AcDbPolyline
 62
7
  6
CONTINUOUS
 90
5
 70
0
 10
10.3559834891
 20
9.312891804
 10
10.3176193729
 20
9.072778171
 10
10.256031544
 20
8.82973163
 10
10.1725866729
 20
8.593128481
 10
10.0678235856
 20
8.3649918969
  0
LINE
  5
21F
100
AcDbEntity
  8
0
100
AcDbLine
 62
9
  6
CONTINUOUS
 10
10.2273880552
 20
10.2293245305
 11
10.2339834899
 21
10.1623933128
  0
LINE
  5
220
100
AcDbEntity
  8
0
100
AcDbLine
 62
9
  6
CONTINUOUS
 10
10.2381695881
 20
10.230359613
 11
10.2306117192
 21
10.3088427013
  0
LINE
  5
221
100
AcDbEntity
  8
0
100
AcDbLine
 62
7
  6
CONTINUOUS
 10
10.3549834891
 20
9.3868545715
 11
10.3549834891
 21
9.343891804
  0
LINE
  5
222
100
AcDbEntity
  8
0
100
AcDbLine
 62
9
  6
CONTINUOUS
 10
10.3713343808
 20
9.3868545715
 11
10.3713343808
 21
9.4689312794
  0
LINE
  5
223
100
AcDbEntity
  8
0
100
AcDbLine
 62
7
  6
CONTINUOUS
 10
10.4569834891
 20
9.343891804
 11
10.4569834891
 21
9.312891804
  0
LWPOLYLINE
  5
224
100
AcDbEntity
  8
0
100
AcDbPolyline
 62
7
  6
CONTINUOUS
 90
9
 70
0
 10
10.0678235856
 20
8.3649918969
 10
10.0616779214
 20
8.3531565926
 10
10.0546909513
 20
8.339881451
 10
10.0471496106
 20
8.3257725047
 10
10.039175755
 20
8.3111027449
 10
10.0307391145
 20
8.2958559264
 10
10.021771834
 20
8.2799514773
 10
10.0131704755
 20
8.2649819397
 10
10.004950876
 20
8.2509382409
  0
LINE
  5
225
100
AcDbEntity
  8
0
100
AcDbLine
 62
7
  6
CONTINUOUS
 10
10.5519834891
 20
10.1623932669
 11
10.5519834891
 21
9.6942525917
  0
LWPOLYLINE
  5
226
100
AcDbEntity
  8
0
100
AcDbPolyline
 62
7
  6
CONTINUOUS
 90
5
 70
0
 10
10.790104091
 20
9.5998221266
 10
10.7931176736
 20
9.6072401921
 10
10.8016747876
 20
9.6182382779
 10
10.8134837931
 20
9.6256327831
 10
10.8173929892
 20
9.6269834311
  0
LINE
  5
227
100
AcDbEntity
  8
0
100
AcDbLine
 62
7
  6
CONTINUOUS
 10
10.0614424043
 20
8.1197121937
 11
10.0583064579
 21
8.1139942427
  0
LINE
  5
228
100
AcDbEntity
  8
0
100
AcDbLine
 62
7
  6
CONTINUOUS
 10
10.004950876
 20
8.2509382409
 11
9.9954358297
 21
8.2349973906
  0
LINE
  5
229
100
AcDbEntity
  8
0
100
AcDbLine
 62
7
  6
CONTINUOUS
 10
9.9968156339
 20
8.2372882367
 11
9.9954358297
 21
8.2349973906
  0
LINE
  5
22A
100
AcDbEntity
  8
0
100
AcDbLine
 62
7
  6
CONTINUOUS
 10
10.0025213634
 20
8.2468029095
 11
9.9241432635
 21
8.1223828957
  0
LINE
  5
22B
100
AcDbEntity
  8
0
100
AcDbLine
 62
7
  6
CONTINUOUS
 10
9.9241432635
 20
8.1223828957
 11
9.9241391811
 21
8.1223767464
  0
LWPOLYLINE
  5
22C
100
AcDbEntity
  8
0
100
AcDbPolyline
 62
7
  6
CONTINUOUS
 90
3
 70
0
 10
9.9241391243
 20
8.1223768678
 10
9.8278939067
 20
7.9855283468
 10
9.719798025
 20
7.8485752484
  0
LINE
  5
22D
100
AcDbEntity
  8
0
100
AcDbLine
 62
9
  6
CONTINUOUS
 10
10.602521371
 20
10.2303596315
 11
10.6025744
 21
10.2293245288
  0
LINE
  5
22E
100
AcDbEntity
  8
0
100
AcDbLine
 62
9
  6
CONTINUOUS
 10
10.6025751895
 20
9.6269830847
 11
10.6025744
 21
10.2293245286
  0
LINE
  5
22F
100
AcDbEntity
  8
0
100
AcDbLine
 62
9
  6
CONTINUOUS
 10
10.6034856889
 20
9.4689312794
 11
10.6034856889
 21
9.3868545715
  0
LINE
  5
230
100
AcDbEntity
  8
0
100
AcDbLine
 62
9
  6
CONTINUOUS
 10
10.6300078833
 20
10.1211592314
 11
10.6300080421
 21
10.2579151681
  0
LINE
  5
231
100
AcDbEntity
  8
0
100
AcDbLine
 62
9
  6
CONTINUOUS
 10
10.6972477097
 20
10.1706717836
 11
10.6972476649
 21
10.3088425837
  0
LINE
  5
232
100
AcDbEntity
  8
0
100
AcDbLine
 62
9
  6
CONTINUOUS
 10
10.7099834891
 20
9.3128911072
 11
10.7099834891
 21
7.7316645441
  0
LINE
  5
233
100
AcDbEntity
  8
0
100
AcDbLine
 62
9
  6
CONTINUOUS
 10
10.722719305
 20
10.3088425692
 11
10.7227192739
 21
10.1706732387
  0
LWPOLYLINE
  5
234
100
AcDbEntity
  8
0
100
AcDbPolyline
 62
7
  6
CONTINUOUS
 90
4
 70
0
 10
10.0583072069
 20
8.113995242
 10
9.9783996257
 20
7.9767710581
 10
9.8890574399
 20
7.8397306036
 10
9.8096699136
 20
7.7299776228
  0
LINE
  5
235
100
AcDbEntity
  8
0
100
AcDbLine
 62
7
  6
CONTINUOUS
 10
11.8033229989
 20
7.7314855892
 11
11.8033124562
 21
7.7314971248
  0
LWPOLYLINE
  5
236
100
AcDbEntity
  8
0
100
AcDbPolyline
 62
7
  6
CONTINUOUS
 90
4
 70
0
 10
11.8033124562
 20
7.7314971248
 10
11.7001757314
 20
7.8485671469
 10
11.5920824208
 20
7.9855158197
 10
11.4958279054
 20
8.1223768859
  0
LINE
  5
237
100
AcDbEntity
  8
0
100
AcDbLine
 62
7
  6
CONTINUOUS
 10
11.6103109518
 20
7.7299591804
 11
11.6103007991
 21
7.729972917
  0
LWPOLYLINE
  5
238
100
AcDbEntity
  8
0
100
AcDbPolyline
 62
7
  6
CONTINUOUS
 90
4
 70
0
 10
11.6103007991
 20
7.729972917
 10
11.5309232387
 20
7.8397109024
 10
11.4415767774
 20
7.9767557372
 10
11.3616598397
 20
8.1139952839
  0
LWPOLYLINE
  5
239
100
AcDbEntity
  8
0
100
AcDbPolyline
 62
7
  6
CONTINUOUS
 90
6
 70
0
 10
10.5519834891
 20
9.6942385595
 10
10.554649172
 20
9.6751051311
 10
10.56243312
 20
9.6574452529
 10
10.5747396634
 20
9.6425857874
 10
10.5906401021
 20
9.6316480301
 10
10.6025742213
 20
9.6269833748
  0
LINE
  5
23A
100
AcDbEntity
  8
0
100
AcDbLine
 62
9
  6
CONTINUOUS
 10
10.7899589321
 20
10.2579151923
 11
10.7899589797
 21
10.1211595896
  0
LINE
  5
23B
100
AcDbEntity
  8
0
100
AcDbLine
 62
9
  6
CONTINUOUS
 10
10.8164812892
 20
9.3868545715
 11
10.8164812892
 21
9.4689312794
  0
LINE
  5
23C
100
AcDbEntity
  8
0
100
AcDbLine
 62
9
  6
CONTINUOUS
 10
10.8173929892
 20
9.6269834311
 11
10.8173925785
 21
10.2293245305
  0
LINE
  5
23D
100
AcDbEntity
  8
0
100
AcDbLine
 62
9
  6
CONTINUOUS
 10
10.8173925785
 20
10.2293245313
 11
10.8174456076
 21
10.2303596338
  0
LINE
  5
23E
100
AcDbEntity
  8
0
100
AcDbLine
 62
7
  6
CONTINUOUS
 10
9.8096699136
 20
7.7299776228
 11
9.8096561953
 21
7.7299591844
  0
LINE
  5
23F
100
AcDbEntity
  8
0
100
AcDbLine
 62
7
  6
CONTINUOUS
 10
9.719798025
 20
7.8485752484
 11
9.6166543502
 21
7.7314969393
  0
LINE
  5
240
100
AcDbEntity
  8
0
100
AcDbLine
 62
7
  6
CONTINUOUS
 10
9.6166543502
 20
7.7314969393
 11
9.6166440107
 21
7.7314856231
  0
LINE
  5
241
100
AcDbEntity
  8
0
100
AcDbLine
 62
7
  6
CONTINUOUS
 10
11.3616605204
 20
8.1139942427
 11
11.3586271859
 21
8.1195245607
  0
LWPOLYLINE
  5
242
100
AcDbEntity
  8
0
100
AcDbPolyline
 62
7
  6
CONTINUOUS
 90
9
 70
0
 10
10.6298631191
 20
9.5998217113
 10
10.6308608996
 20
9.5966943303
 10
10.6355058961
 20
9.5861338795
 10
10.6423366882
 20
9.5758219216
 10
10.6514286262
 20
9.5663909163
 10
10.6627448858
 20
9.5584613844
 10
10.6760477814
 20
9.5527005973
 10
10.6909396646
 20
9.5497390612
 10
10.6969188233
 20
9.5494704009
  0
LINE
  5
243
100
AcDbEntity
  8
0
100
AcDbLine
 62
7
  6
CONTINUOUS
 10
10.8679834891
 20
9.6942482023
 11
10.8679834891
 21
10.1623932132
  0
LINE
  5
244
100
AcDbEntity
  8
0
100
AcDbLine
 62
7
  6
CONTINUOUS
 10
10.9629834891
 20
9.343891804
 11
10.9629834891
 21
9.312891804
  0
LINE
  5
245
100
AcDbEntity
  8
0
100
AcDbLine
 62
7
  6
CONTINUOUS
 10
11.4958276929
 20
8.1223770333
 11
11.4958238642
 21
8.1223828007
  0
LINE
  5
246
100
AcDbEntity
  8
0
100
AcDbLine
 62
7
  6
CONTINUOUS
 10
11.4958238642
 20
8.1223828007
 11
11.4174264325
 21
8.2468350388
  0
LINE
  5
247
100
AcDbEntity
  8
0
100
AcDbLine
 62
7
  6
CONTINUOUS
 10
11.4245449372
 20
8.2349745304
 11
11.415096839
 21
8.2508015602
  0
LWPOLYLINE
  5
248
100
AcDbEntity
  8
0
100
AcDbPolyline
 62
7
  6
CONTINUOUS
 90
8
 70
0
 10
11.415096839
 20
8.2508015602
 10
11.406870382
 20
8.2648545755
 10
11.3982643713
 20
8.2798298802
 10
11.3892858356
 20
8.2957521199
 10
11.3808359665
 20
8.3110211451
 10
11.3728486095
 20
8.3257145308
 10
11.3652956714
 20
8.3398444016
 10
11.3582985756
 20
8.3531383755
  0
LINE
  5
249
100
AcDbEntity
  8
0
100
AcDbLine
 62
7
  6
CONTINUOUS
 10
11.3582934792
 20
8.3531481899
 11
11.3521433927
 21
8.3649918969
  0
LINE
  5
24A
100
AcDbEntity
  8
0
100
AcDbLine
 62
9
  6
CONTINUOUS
 10
11.0486325967
 20
9.4689312794
 11
11.0486325967
 21
9.3868545715
  0
LINE
  5
24B
100
AcDbEntity
  8
0
100
AcDbLine
 62
7
  6
CONTINUOUS
 10
11.0649834891
 20
9.3868545715
 11
11.0649834891
 21
9.343891804
  0
LINE
  5
24C
100
AcDbEntity
  8
0
100
AcDbLine
 62
9
  6
CONTINUOUS
 10
11.1817973917
 20
10.2303596315
 11
11.1893567646
 21
10.3088425557
  0
LINE
  5
24D
100
AcDbEntity
  8
0
100
AcDbLine
 62
9
  6
CONTINUOUS
 10
11.1925789235
 20
10.2293245286
 11
11.1859834867
 21
10.1623932965
  0
LINE
  5
24E
100
AcDbEntity
  8
0
100
AcDbLine
 62
7
  6
CONTINUOUS
 10
11.0639750362
 20
9.312891804
 11
10.3559919421
 21
9.312891804
  0
LINE
  5
24F
100
AcDbEntity
  8
0
100
AcDbLine
 62
7
  6
CONTINUOUS
 10
10.3549841576
 20
9.343891804
 11
11.0649828207
 21
9.343891804
  0
LINE
  5
250
100
AcDbEntity
  8
0
100
AcDbLine
 62
9
  6
CONTINUOUS
 10
11.0649834891
 20
9.3868545715
 11
11.0486325967
 21
9.3868545715
  0
LINE
  5
251
100
AcDbEntity
  8
0
100
AcDbLine
 62
9
  6
CONTINUOUS
 10
10.8164812892
 20
9.3868545715
 11
10.6034856889
 21
9.3868545715
  0
LINE
  5
252
100
AcDbEntity
  8
0
100
AcDbLine
 62
9
  6
CONTINUOUS
 10
10.3713343808
 20
9.3868545715
 11
10.3549834891
 21
9.3868545715
  0
LWPOLYLINE
  5
253
100
AcDbEntity
  8
0
100
AcDbPolyline
 62
7
  6
CONTINUOUS
 90
5
 70
0
 10
11.3521433927
 20
8.3649918969
 10
11.2473803054
 20
8.593128481
 10
11.1639354342
 20
8.82973163
 10
11.1023476053
 20
9.072778171
 10
11.0639834891
 20
9.312891804
  0
LINE
  5
254
100
AcDbEntity
  8
0
100
AcDbLine
 62
9
  6
CONTINUOUS
 10
11.1859834891
 20
10.1623932573
 11
11.1859834893
 21
9.8869359834
  0
LWPOLYLINE
  5
255
100
AcDbEntity
  8
0
100
AcDbPolyline
 62
7
  6
CONTINUOUS
 90
9
 70
0
 10
10.7230755459
 20
9.5494695588
 10
10.728879677
 20
9.5497253339
 10
10.7438008274
 20
9.5526625423
 10
10.75713372
 20
9.5584108589
 10
10.7684779598
 20
9.5663381783
 10
10.7775935718
 20
9.5757750786
 10
10.7844425569
 20
9.5860988922
 10
10.7890997989
 20
9.5966753587
 10
10.7901037915
 20
9.5998207396
  0
LINE
  5
256
100
AcDbEntity
  8
0
100
AcDbLine
 62
9
  6
CONTINUOUS
 10
11.0536330011
 20
9.4689312735
 11
10.8061091339
 21
9.4689312736
  0
LINE
  5
257
100
AcDbEntity
  8
0
100
AcDbLine
 62
9
  6
CONTINUOUS
 10
10.6138587225
 20
9.4689312735
 11
10.3663345285
 21
9.4689312736
  0
LINE
  5
258
100
AcDbEntity
  8
0
100
AcDbLine
 62
7
  6
CONTINUOUS
 10
10.7230755897
 20
9.5494693225
 11
10.6969187252
 21
9.5494693225
  0
LWPOLYLINE
  5
259
100
AcDbEntity
  8
0
100
AcDbPolyline
 62
7
  6
CONTINUOUS
 90
5
 70
0
 10
10.6025751895
 20
9.6269830847
 10
10.6064815752
 20
9.6256334342
 10
10.6182913475
 20
9.6182390392
 10
10.6268490559
 20
9.6072406628
 10
10.6298638443
 20
9.5998188672
  0
LINE
  5
25A
100
AcDbEntity
  8
0
100
AcDbLine
 62
9
  6
CONTINUOUS
 10
11.6133065701
 20
9.9039238722
 11
11.6184623549
 21
9.9308216176
  0
LINE
  5
25B
100
AcDbEntity
  8
0
100
AcDbLine
 62
9
  6
CONTINUOUS
 10
11.6496580502
 20
9.8645471992
 11
11.6496580502
 21
9.8930769924
  0
LINE
  5
25C
100
AcDbEntity
  8
0
100
AcDbLine
 62
9
  6
CONTINUOUS
 10
11.9325600607
 20
10.029298236
 11
11.9693611254
 21
10.1706732377
  0
LINE
  5
25D
100
AcDbEntity
  8
0
100
AcDbLine
 62
7
  6
CONTINUOUS
 10
9.8830718846
 20
9.8588545715
 11
9.8766679561
 21
9.8588111302
  0
LINE
  5
25E
100
AcDbEntity
  8
0
100
AcDbLine
 62
9
  6
CONTINUOUS
 10
11.5432979372
 20
9.8588111394
 11
11.5433176062
 21
9.8588111394
  0
LINE
  5
25F
100
AcDbEntity
  8
0
100
AcDbLine
 62
9
  6
CONTINUOUS
 10
9.8123129983
 20
9.8645540434
 11
9.7030535594
 21
9.8645551991
  0
LINE
  5
260
100
AcDbEntity
  8
0
100
AcDbLine
 62
9
  6
CONTINUOUS
 10
9.794123121
 20
9.8930762718
 11
9.7703089184
 21
9.8930762718
  0
LINE
  5
261
100
AcDbEntity
  8
0
100
AcDbLine
 62
9
  6
CONTINUOUS
 10
11.6496580502
 20
9.8930773019
 11
11.6258433137
 21
9.8930773019
  0
LINE
  5
262
100
AcDbEntity
  8
0
100
AcDbLine
 62
9
  6
CONTINUOUS
 10
11.7169134189
 20
9.8645579355
 11
11.6076544778
 21
9.8645540458
  0
LINE
  5
263
100
AcDbEntity
  8
0
100
AcDbLine
 62
7
  6
CONTINUOUS
 10
11.5432979384
 20
9.8588111394
 11
11.5368947606
 21
9.8588545715
  0
LINE
  5
264
100
AcDbEntity
  8
0
100
AcDbLine
 62
7
  6
CONTINUOUS
 10
11.5432978658
 20
9.8588112726
 11
11.5473932187
 21
9.8585450912
  0
LINE
  5
265
100
AcDbEntity
  8
0
100
AcDbLine
 62
9
  6
CONTINUOUS
 10
11.2278033736
 20
9.8342631579
 11
11.1859835468
 21
9.8869360291
  0
LINE
  5
266
100
AcDbEntity
  8
0
100
AcDbLine
 62
9
  6
CONTINUOUS
 10
11.7169137355
 20
9.8645565774
 11
11.7169134755
 21
9.9729988088
  0
LINE
  5
267
100
AcDbEntity
  8
0
100
AcDbLine
 62
7
  6
CONTINUOUS
 10
11.7349834891
 20
7.697891804
 11
11.7349834891
 21
7.687891804
  0
LWPOLYLINE
  5
268
100
AcDbEntity
  8
0
100
AcDbPolyline
 62
7
  6
CONTINUOUS
 90
3
 70
0
 10
9.8618701434
 20
9.8557538817
 10
9.8724697067
 20
9.8585325953
 10
9.8766688044
 20
9.858811047
  0
LINE
  5
269
100
AcDbEntity
  8
0
100
AcDbLine
 62
7
  6
CONTINUOUS
 10
11.5473932187
 20
9.8585450912
 11
11.5579075056
 21
9.8558321656
  0
LINE
  5
26A
100
AcDbEntity
  8
0
100
AcDbLine
 62
7
  6
CONTINUOUS
 10
11.5847238042
 20
9.8088406528
 11
11.5847584766
 21
9.8087200752
  0
LWPOLYLINE
  5
26B
100
AcDbEntity
  8
0
100
AcDbPolyline
 62
7
  6
CONTINUOUS
 90
8
 70
0
 10
11.5823843418
 20
9.8239909998
 10
11.5848362589
 20
9.8082197629
 10
11.6027224772
 20
9.7464687185
 10
11.6328168538
 20
9.6895700495
 10
11.6739072127
 20
9.639914979
 10
11.7242802345
 20
9.5996341813
 10
11.7818124476
 20
9.5704476787
 10
11.8333728424
 20
9.5555285663
  0
LINE
  5
26C
100
AcDbEntity
  8
0
100
AcDbLine
 62
9
  6
CONTINUOUS
 10
11.9746212051
 20
10.1693179221
 11
11.9745572275
 21
10.1693179221
  0
LINE
  5
26D
100
AcDbEntity
  8
0
100
AcDbLine
 62
9
  6
CONTINUOUS
 10
9.4453457732
 20
10.1693179221
 11
9.4454108431
 21
10.1693179221
  0
LINE
  5
26E
100
AcDbEntity
  8
0
100
AcDbLine
 62
9
  6
CONTINUOUS
 10
10.6972629831
 20
10.1693179221
 11
10.7227040526
 21
10.1693179221
  0
LINE
  5
26F
100
AcDbEntity
  8
0
100
AcDbLine
 62
7
  6
CONTINUOUS
 10
11.5579075056
 20
9.8558321656
 11
11.5668940319
 21
9.8507027568
  0
LINE
  5
270
100
AcDbEntity
  8
0
100
AcDbLine
 62
7
  6
CONTINUOUS
 10
11.5668949675
 20
9.8507039906
 11
11.5667506518
 21
9.8508128543
  0
LINE
  5
271
100
AcDbEntity
  8
0
100
AcDbLine
 62
7
  6
CONTINUOUS
 10
11.5738907962
 20
9.8436762956
 11
11.5746982132
 21
9.8428693464
  0
LINE
  5
272
100
AcDbEntity
  8
0
100
AcDbLine
 62
7
  6
CONTINUOUS
 10
11.5667506518
 20
9.8508128543
 11
11.5750388548
 21
9.8424103161
  0
LINE
  5
273
100
AcDbEntity
  8
0
100
AcDbLine
 62
7
  6
CONTINUOUS
 10
11.6025003959
 20
9.7470201691
 11
11.6026389893
 21
9.7467569553
  0
LINE
  5
274
100
AcDbEntity
  8
0
100
AcDbLine
 62
7
  6
CONTINUOUS
 10
11.5746982132
 20
9.8428693464
 11
11.5799727966
 21
9.8326441887
  0
LWPOLYLINE
  5
275
100
AcDbEntity
  8
0
100
AcDbPolyline
 62
7
  6
CONTINUOUS
 90
3
 70
0
 10
11.5750388548
 20
9.8424103161
 10
11.5809225167
 20
9.8306976968
 10
11.5823822607
 20
9.8240073967
  0
ARC
  5
276
100
AcDbEntity
  8
0
100
AcDbCircle
 62
7
  6
CONTINUOUS
 10
9.6313137408
 20
7.7178902459
 40
0.0199980578
100
AcDbArc
 50
137.1767072961
 51
270.0006330043
  0
ARC
  5
277
100
AcDbEntity
  8
0
100
AcDbCircle
 62
9
  6
CONTINUOUS
 10
1.0034087791
 20
9.4648468845
 40
9.6000799783
100
AcDbArc
 50
0.0243767344
 51
0.9502902771
  0
ARC
  5
278
100
AcDbEntity
  8
0
100
AcDbCircle
 62
9
  6
CONTINUOUS
 10
4.2347921181
 20
10.2336704099
 40
6.4247433868
100
AcDbArc
 50
352.4262195323
 51
353.1638573073
  0
ARC
  5
279
100
AcDbEntity
  8
0
100
AcDbCircle
 62
9
  6
CONTINUOUS
 10
8.7893278342
 20
9.1357509902
 40
1.239299174
100
AcDbArc
 50
37.6685225233
 51
42.4990592831
  0
ARC
  5
27A
100
AcDbEntity
  8
0
100
AcDbCircle
 62
9
  6
CONTINUOUS
 10
10.0856925019
 20
8.0986527854
 40
0.031406088
100
AcDbArc
 50
139.4490411777
 51
140.2971381944
  0
ARC
  5
27B
100
AcDbEntity
  8
0
100
AcDbCircle
 62
9
  6
CONTINUOUS
 10
10.08553035
 20
8.0987875194
 40
0.0311952646
100
AcDbArc
 50
140.2972783961
 51
141.0458074373
  0
ARC
  5
27C
100
AcDbEntity
  8
0
100
AcDbCircle
 62
9
  6
CONTINUOUS
 10
10.0847512226
 20
8.0993982448
 40
0.0302054184
100
AcDbArc
 50
141.0175314237
 51
151.1018040264
  0
ARC
  5
27D
100
AcDbEntity
  8
0
100
AcDbCircle
 62
7
  6
CONTINUOUS
 10
7.5496854527
 20
9.4515132456
 40
2.8410896655
100
AcDbArc
 50
322.703833117
 51
324.3090020158
  0
ARC
  5
27E
100
AcDbEntity
  8
0
100
AcDbCircle
 62
9
  6
CONTINUOUS
 10
8.2426451327
 20
9.2983462808
 40
2.1305294858
100
AcDbArc
 50
2.3815630526
 51
4.5924138972
  0
ARC
  5
27F
100
AcDbEntity
  8
0
100
AcDbCircle
 62
9
  6
CONTINUOUS
 10
6.6409207382
 20
9.7756363898
 40
3.9864378733
100
AcDbArc
 50
357.4836140374
 51
357.6384813514
  0
ARC
  5
280
100
AcDbEntity
  8
0
100
AcDbCircle
 62
9
  6
CONTINUOUS
 10
7.3599857492
 20
9.8248923077
 40
3.0778824812
100
AcDbArc
 50
329.1552333944
 51
331.6675756204
  0
ARC
  5
281
100
AcDbEntity
  8
0
100
AcDbCircle
 62
9
  6
CONTINUOUS
 10
7.5645011259
 20
9.5933401524
 40
2.9854161225
100
AcDbArc
 50
321.4168334633
 51
330.4760046639
  0
ARC
  5
282
100
AcDbEntity
  8
0
100
AcDbCircle
 62
9
  6
CONTINUOUS
 10
7.6224038093
 20
9.7501491283
 40
2.9052406942
100
AcDbArc
 50
315.9441264381
 51
325.7184119734
  0
ARC
  5
283
100
AcDbEntity
  8
0
100
AcDbCircle
 62
9
  6
CONTINUOUS
 10
7.8772918504
 20
9.6205630366
 40
2.6006407359
100
AcDbArc
 50
348.7784690649
 51
353.2056538153
  0
ARC
  5
284
100
AcDbEntity
  8
0
100
AcDbCircle
 62
9
  6
CONTINUOUS
 10
10.3328159118
 20
9.2098129885
 40
1.0249304273
100
AcDbArc
 50
95.2984907427
 51
95.903923279
  0
ARC
  5
285
100
AcDbEntity
  8
0
100
AcDbCircle
 62
9
  6
CONTINUOUS
 10
9.5153557194
 20
9.2465068081
 40
0.8674088908
100
AcDbArc
 50
9.3114593564
 51
14.1348432433
  0
ARC
  5
286
100
AcDbEntity
  8
0
100
AcDbCircle
 62
9
  6
CONTINUOUS
 10
10.3198161101
 20
9.4484489514
 40
0.7190853962
100
AcDbArc
 50
96.1562282982
 51
96.8553755524
  0
ARC
  5
287
100
AcDbEntity
  8
0
100
AcDbCircle
 62
7
  6
CONTINUOUS
 10
9.8826495972
 20
9.3854867756
 40
0.4734427729
100
AcDbArc
 50
60.458100024
 51
70.5238499698
  0
ARC
  5
288
100
AcDbEntity
  8
0
100
AcDbCircle
 62
7
  6
CONTINUOUS
 10
9.8830216443
 20
9.3860849564
 40
0.4727694381
100
AcDbArc
 50
80.6753858537
 51
89.993870105
  0
ARC
  5
289
100
AcDbEntity
  8
0
100
AcDbCircle
 62
7
  6
CONTINUOUS
 10
9.883004575
 20
9.3863585022
 40
0.4725025736
100
AcDbArc
 50
70.5291878287
 51
76.7806732658
  0
ARC
  5
28A
100
AcDbEntity
  8
0
100
AcDbCircle
 62
7
  6
CONTINUOUS
 10
9.8829834891
 20
9.3868545715
 40
0.472
100
AcDbArc
 50
0.0
 51
90.0
  0
ARC
  5
28B
100
AcDbEntity
  8
0
100
AcDbCircle
 62
7
  6
CONTINUOUS
 10
9.8831794695
 20
9.3872000427
 40
0.4716433381
100
AcDbArc
 50
76.7779784901
 51
80.6716877662
  0
ARC
  5
28C
100
AcDbEntity
  8
0
100
AcDbCircle
 62
7
  6
CONTINUOUS
 10
9.8830431047
 20
9.3876343111
 40
0.4712200655
100
AcDbArc
 50
88.8292568509
 51
89.996500558
  0
ARC
  5
28D
100
AcDbEntity
  8
0
100
AcDbCircle
 62
9
  6
CONTINUOUS
 10
9.1205417481
 20
9.8645575574
 40
0.6741850713
100
AcDbArc
 50
359.9994484756
 51
2.4243941958
  0
ARC
  5
28E
100
AcDbEntity
  8
0
100
AcDbCircle
 62
9
  6
CONTINUOUS
 10
10.1407181464
 20
9.8911359748
 40
0.4113631908
100
AcDbArc
 50
355.9215913861
 51
356.3084096589
  0
ARC
  5
28F
100
AcDbEntity
  8
0
100
AcDbCircle
 62
9
  6
CONTINUOUS
 10
9.5651870565
 20
9.7309757426
 40
0.4032181673
100
AcDbArc
 50
104.6081343818
 51
105.4174494309
  0
ARC
  5
290
100
AcDbEntity
  8
0
100
AcDbCircle
 62
9
  6
CONTINUOUS
 10
9.5249703756
 20
9.8649550126
 40
0.3155067813
100
AcDbArc
 50
285.8719419472
 51
293.102776148
  0
ARC
  5
291
100
AcDbEntity
  8
0
100
AcDbCircle
 62
7
  6
CONTINUOUS
 10
9.5250641944
 20
9.8648701454
 40
0.3154019543
100
AcDbArc
 50
272.0126326394
 51
281.2496982148
  0
ARC
  5
292
100
AcDbEntity
  8
0
100
AcDbCircle
 62
9
  6
CONTINUOUS
 10
9.5250888763
 20
9.8645317358
 40
0.3150607065
100
AcDbArc
 50
180.0029605828
 51
270.0023765511
  0
ARC
  5
293
100
AcDbEntity
  8
0
100
AcDbCircle
 62
7
  6
CONTINUOUS
 10
9.5250296161
 20
9.8645154495
 40
0.315046127
100
AcDbArc
 50
104.6508169847
 51
285.8763225822
  0
ARC
  5
294
100
AcDbEntity
  8
0
100
AcDbCircle
 62
9
  6
CONTINUOUS
 10
9.5252391453
 20
9.8642861309
 40
0.3147860824
100
AcDbArc
 50
293.1055503924
 51
299.141304864
  0
ARC
  5
295
100
AcDbEntity
  8
0
100
AcDbCircle
 62
9
  6
CONTINUOUS
 10
9.5252063497
 20
9.8641734615
 40
0.3146909239
100
AcDbArc
 50
281.2490589027
 51
283.4431505097
  0
ARC
  5
296
100
AcDbEntity
  8
0
100
AcDbCircle
 62
9
  6
CONTINUOUS
 10
9.5252141879
 20
9.8641016408
 40
0.3146192643
100
AcDbArc
 50
283.6311479803
 51
285.8717361667
  0
ARC
  5
297
100
AcDbEntity
  8
0
100
AcDbCircle
 62
7
  6
CONTINUOUS
 10
9.5251240213
 20
9.8640757008
 40
0.3146059003
100
AcDbArc
 50
269.9959244655
 51
272.0068249958
  0
ARC
  5
298
100
AcDbEntity
  8
0
100
AcDbCircle
 62
7
  6
CONTINUOUS
 10
9.5243492131
 20
9.8645055641
 40
0.3143186155
100
AcDbArc
 50
177.6388646701
 51
179.9981968268
  0
ARC
  5
299
100
AcDbEntity
  8
0
100
AcDbCircle
 62
9
  6
CONTINUOUS
 10
9.5253393853
 20
9.8636017178
 40
0.3141039172
100
AcDbArc
 50
283.4437941767
 51
283.6304449944
  0
ARC
  5
29A
100
AcDbEntity
  8
0
100
AcDbCircle
 62
7
  6
CONTINUOUS
 10
9.5246861897
 20
9.8660515194
 40
0.3134566821
100
AcDbArc
 50
104.6495923609
 51
105.1055675915
  0
ARC
  5
29B
100
AcDbEntity
  8
0
100
AcDbCircle
 62
9
  6
CONTINUOUS
 10
9.5281407802
 20
9.864275076
 40
0.2648427762
100
AcDbArc
 50
105.3578413058
 51
173.6219225784
  0
ARC
  5
29C
100
AcDbEntity
  8
0
100
AcDbCircle
 62
9
  6
CONTINUOUS
 10
9.9056537697
 20
9.7768401269
 40
0.1610901963
100
AcDbArc
 50
127.917412867
 51
133.8163593223
  0
ARC
  5
29D
100
AcDbEntity
  8
0
100
AcDbCircle
 62
7
  6
CONTINUOUS
 10
9.8778029601
 20
9.8184021266
 40
0.0406995256
100
AcDbArc
 50
141.4741172541
 51
147.4707936535
  0
ARC
  5
29E
100
AcDbEntity
  8
0
100
AcDbCircle
 62
7
  6
CONTINUOUS
 10
9.8774958938
 20
9.8183665072
 40
0.0405198324
100
AcDbArc
 50
119.1950701738
 51
126.8087940668
  0
ARC
  5
29F
100
AcDbEntity
  8
0
100
AcDbCircle
 62
7
  6
CONTINUOUS
 10
9.8772644483
 20
9.8185659255
 40
0.0402559306
100
AcDbArc
 50
90.8156286086
 51
102.2022914124
  0
ARC
  5
2A0
100
AcDbEntity
  8
0
100
AcDbCircle
 62
7
  6
CONTINUOUS
 10
9.8773622789
 20
9.818650419
 40
0.0402068182
100
AcDbArc
 50
109.9020486229
 51
119.2262023453
  0
ARC
  5
2A1
100
AcDbEntity
  8
0
100
AcDbCircle
 62
7
  6
CONTINUOUS
 10
9.8773613472
 20
9.8187994178
 40
0.0401228937
100
AcDbArc
 50
159.698452094
 51
172.5953258109
  0
ARC
  5
2A2
100
AcDbEntity
  8
0
100
AcDbCircle
 62
7
  6
CONTINUOUS
 10
9.8771073042
 20
9.8191911093
 40
0.0396116625
100
AcDbArc
 50
102.1712616879
 51
109.8214988145
  0
ARC
  5
2A3
100
AcDbEntity
  8
0
100
AcDbCircle
 62
7
  6
CONTINUOUS
 10
9.8766746458
 20
9.8190915543
 40
0.0393775067
100
AcDbArc
 50
147.4337493438
 51
159.7504409508
  0
ARC
  5
2A4
100
AcDbEntity
  8
0
100
AcDbCircle
 62
7
  6
CONTINUOUS
 10
10.7099834891
 20
5.331891804
 40
5.0
100
AcDbArc
 50
75.3491830153
 51
104.6508169847
  0
ARC
  5
2A5
100
AcDbEntity
  8
0
100
AcDbCircle
 62
9
  6
CONTINUOUS
 10
10.7099835463
 20
5.3318921713
 40
4.9488203084
100
AcDbArc
 50
75.4114259706
 51
84.4983186762
  0
ARC
  5
2A6
100
AcDbEntity
  8
0
100
AcDbCircle
 62
9
  6
CONTINUOUS
 10
10.7099834478
 20
5.3318921228
 40
4.9488203079
100
AcDbArc
 50
95.5016948582
 51
104.5885738375
  0
ARC
  5
2A7
100
AcDbEntity
  8
0
100
AcDbCircle
 62
9
  6
CONTINUOUS
 10
10.7099835164
 20
5.3318919789
 40
4.9211526966
100
AcDbArc
 50
75.4114426294
 51
84.372214531
  0
ARC
  5
2A8
100
AcDbEntity
  8
0
100
AcDbCircle
 62
9
  6
CONTINUOUS
 10
10.7099834253
 20
5.3318921835
 40
4.9211524954
100
AcDbArc
 50
95.6277852714
 51
104.5886168691
  0
ARC
  5
2A9
100
AcDbEntity
  8
0
100
AcDbCircle
 62
9
  6
CONTINUOUS
 10
10.7099835161
 20
5.3318919771
 40
4.8538972936
100
AcDbArc
 50
75.4115122743
 51
84.3722144591
  0
ARC
  5
2AA
100
AcDbEntity
  8
0
100
AcDbCircle
 62
9
  6
CONTINUOUS
 10
10.7099834256
 20
5.3318921814
 40
4.8538971021
100
AcDbArc
 50
95.627785398
 51
104.5884944301
  0
ARC
  5
2AB
100
AcDbEntity
  8
0
100
AcDbCircle
 62
7
  6
CONTINUOUS
 10
11.7886540215
 20
7.7178915125
 40
0.0199980164
100
AcDbArc
 50
269.9962911618
 51
42.8295209443
  0
ARC
  5
2AC
100
AcDbEntity
  8
0
100
AcDbCircle
 62
9
  6
CONTINUOUS
 10
13.8554093343
 20
9.593301984
 40
2.9853478435
100
AcDbArc
 50
209.5238926738
 51
218.5832727788
  0
ARC
  5
2AD
100
AcDbEntity
  8
0
100
AcDbCircle
 62
7
  6
CONTINUOUS
 10
13.8823121566
 20
9.4603692271
 40
2.8560263409
100
AcDbArc
 50
215.6969628896
 51
217.2911549107
  0
ARC
  5
2AE
100
AcDbEntity
  8
0
100
AcDbCircle
 62
9
  6
CONTINUOUS
 10
13.5558122102
 20
9.6226439959
 40
2.6139326833
100
AcDbArc
 50
186.8055637582
 51
191.2102330764
  0
ARC
  5
2AF
100
AcDbEntity
  8
0
100
AcDbCircle
 62
9
  6
CONTINUOUS
 10
13.1773833265
 20
9.29833622
 40
2.1305910252
100
AcDbArc
 50
175.4074476088
 51
177.6184339029
  0
ARC
  5
2B0
100
AcDbEntity
  8
0
100
AcDbCircle
 62
9
  6
CONTINUOUS
 10
11.9076265956
 20
9.2458811099
 40
0.8704857437
100
AcDbArc
 50
165.8736877614
 51
170.6800125274
  0
ARC
  5
2B1
100
AcDbEntity
  8
0
100
AcDbCircle
 62
9
  6
CONTINUOUS
 10
11.1001573504
 20
9.448505261
 40
0.7190287124
100
AcDbArc
 50
83.1446017032
 51
83.8437830388
  0
ARC
  5
2B2
100
AcDbEntity
  8
0
100
AcDbCircle
 62
7
  6
CONTINUOUS
 10
11.5373192123
 20
9.3854631973
 40
0.4734652212
100
AcDbArc
 50
113.3493239171
 51
119.2049620972
  0
ARC
  5
2B3
100
AcDbEntity
  8
0
100
AcDbCircle
 62
7
  6
CONTINUOUS
 10
11.5372177379
 20
9.3857236568
 40
0.473185874
100
AcDbArc
 50
109.1165024405
 51
113.3505426688
  0
ARC
  5
2B4
100
AcDbEntity
  8
0
100
AcDbCircle
 62
7
  6
CONTINUOUS
 10
11.5369420753
 20
9.3861159831
 40
0.4727384204
100
AcDbArc
 50
90.0057346424
 51
99.2589973813
  0
ARC
  5
2B5
100
AcDbEntity
  8
0
100
AcDbCircle
 62
7
  6
CONTINUOUS
 10
11.5369795229
 20
9.3862981475
 40
0.4725650522
100
AcDbArc
 50
103.0541393897
 51
109.1120238601
  0
ARC
  5
2B6
100
AcDbEntity
  8
0
100
AcDbCircle
 62
7
  6
CONTINUOUS
 10
11.5369834891
 20
9.3868545715
 40
0.472
100
AcDbArc
 50
90.0
 51
180.0
  0
ARC
  5
2B7
100
AcDbEntity
  8
0
100
AcDbCircle
 62
9
  6
CONTINUOUS
 10
11.8547881617
 20
9.731006339
 40
0.4031864821
100
AcDbArc
 50
74.5825217762
 51
75.3918857002
  0
ARC
  5
2B8
100
AcDbEntity
  8
0
100
AcDbCircle
 62
7
  6
CONTINUOUS
 10
11.5423609694
 20
9.8181998375
 40
0.0407190444
100
AcDbArc
 50
55.9819127455
 51
61.1138820428
  0
ARC
  5
2B9
100
AcDbEntity
  8
0
100
AcDbCircle
 62
7
  6
CONTINUOUS
 10
11.5422158328
 20
9.818436668
 40
0.0406394778
100
AcDbArc
 50
31.9164743316
 51
39.8564783492
  0
ARC
  5
2BA
100
AcDbEntity
  8
0
100
AcDbCircle
 62
7
  6
CONTINUOUS
 10
11.5424822212
 20
9.8183787105
 40
0.0405050257
100
AcDbArc
 50
53.1948011082
 51
60.4691309347
  0
ARC
  5
2BB
100
AcDbEntity
  8
0
100
AcDbCircle
 62
9
  6
CONTINUOUS
 10
11.5427067022
 20
9.8185164567
 40
0.0403013389
100
AcDbArc
 50
77.7631773905
 51
88.0597319824
  0
ARC
  5
2BC
100
AcDbEntity
  8
0
100
AcDbCircle
 62
7
  6
CONTINUOUS
 10
11.5424964188
 20
9.8186234429
 40
0.0402975102
100
AcDbArc
 50
31.4641412368
 51
32.4681239187
  0
ARC
  5
2BD
100
AcDbEntity
  8
0
100
AcDbCircle
 62
7
  6
CONTINUOUS
 10
11.5426151134
 20
9.8185756038
 40
0.0402654044
100
AcDbArc
 50
53.178254447
 51
55.9825188579
  0
ARC
  5
2BE
100
AcDbEntity
  8
0
100
AcDbCircle
 62
7
  6
CONTINUOUS
 10
11.5427044442
 20
9.8185595525
 40
0.0402624066
100
AcDbArc
 50
77.2942150156
 51
89.186909672
  0
ARC
  5
2BF
100
AcDbEntity
  8
0
100
AcDbCircle
 62
7
  6
CONTINUOUS
 10
11.542590059
 20
9.8186129225
 40
0.0402480935
100
AcDbArc
 50
60.4383639572
 51
70.0253714384
  0
ARC
  5
2C0
100
AcDbEntity
  8
0
100
AcDbCircle
 62
7
  6
CONTINUOUS
 10
11.5426142227
 20
9.8188008338
 40
0.0401167152
100
AcDbArc
 50
7.404561106
 51
20.0661227407
  0
ARC
  5
2C1
100
AcDbEntity
  8
0
100
AcDbCircle
 62
7
  6
CONTINUOUS
 10
11.5427166046
 20
9.8188874896
 40
0.039962329
100
AcDbArc
 50
39.8429857579
 51
48.0075319111
  0
ARC
  5
2C2
100
AcDbEntity
  8
0
100
AcDbCircle
 62
7
  6
CONTINUOUS
 10
11.5428754147
 20
9.8192321979
 40
0.0395686332
100
AcDbArc
 50
70.1073908471
 51
77.321494107
  0
ARC
  5
2C3
100
AcDbEntity
  8
0
100
AcDbCircle
 62
7
  6
CONTINUOUS
 10
11.5433068974
 20
9.8191019171
 40
0.0393564548
100
AcDbArc
 50
20.0813726308
 51
31.9412522299
  0
ARC
  5
2C4
100
AcDbEntity
  8
0
100
AcDbCircle
 62
9
  6
CONTINUOUS
 10
11.542763445
 20
9.8195493486
 40
0.0392671241
100
AcDbArc
 50
88.091451996
 51
89.2200486874
  0
ARC
  5
2C5
100
AcDbEntity
  8
0
100
AcDbCircle
 62
7
  6
CONTINUOUS
 10
11.5432223403
 20
9.8193729459
 40
0.0392632014
100
AcDbArc
 50
48.0820907221
 51
53.1870782722
  0
ARC
  5
2C6
100
AcDbEntity
  8
0
100
AcDbCircle
 62
9
  6
CONTINUOUS
 10
11.2816984741
 20
9.8913053696
 40
0.413818693
100
AcDbArc
 50
183.6933458791
 51
184.0703498539
  0
ARC
  5
2C7
100
AcDbEntity
  8
0
100
AcDbCircle
 62
9
  6
CONTINUOUS
 10
12.3013931982
 20
9.8645181356
 40
0.676152963
100
AcDbArc
 50
177.5792375281
 51
179.9972093992
  0
ARC
  5
2C8
100
AcDbEntity
  8
0
100
AcDbCircle
 62
9
  6
CONTINUOUS
 10
11.8951041471
 20
9.8649859282
 40
0.3155812389
100
AcDbArc
 50
235.4089584831
 51
240.9936992334
  0
ARC
  5
2C9
100
AcDbEntity
  8
0
100
AcDbCircle
 62
9
  6
CONTINUOUS
 10
11.8949867159
 20
9.8649283271
 40
0.3154786201
100
AcDbArc
 50
247.4122252146
 51
254.1169101401
  0
ARC
  5
2CA
100
AcDbEntity
  8
0
100
AcDbCircle
 62
7
  6
CONTINUOUS
 10
11.8949035716
 20
9.8648869397
 40
0.3154187806
100
AcDbArc
 50
258.7397102992
 51
267.987321388
  0
ARC
  5
2CB
100
AcDbEntity
  8
0
100
AcDbCircle
 62
9
  6
CONTINUOUS
 10
11.8948798605
 20
9.8645281245
 40
0.3150565333
100
AcDbArc
 50
269.9973584918
 51
359.9976498005
  0
ARC
  5
2CC
100
AcDbEntity
  8
0
100
AcDbCircle
 62
7
  6
CONTINUOUS
 10
11.8949373622
 20
9.8645154495
 40
0.315046127
100
AcDbArc
 50
258.7482438716
 51
75.3491830153
  0
ARC
  5
2CD
100
AcDbEntity
  8
0
100
AcDbCircle
 62
7
  6
CONTINUOUS
 10
11.8947882167
 20
9.8643085053
 40
0.314828956
100
AcDbArc
 50
257.5230025341
 51
258.7397440627
  0
ARC
  5
2CE
100
AcDbEntity
  8
0
100
AcDbCircle
 62
7
  6
CONTINUOUS
 10
11.8947640029
 20
9.8641467204
 40
0.3146659024
100
AcDbArc
 50
254.1169654503
 51
256.5192299505
  0
ARC
  5
2CF
100
AcDbEntity
  8
0
100
AcDbCircle
 62
9
  6
CONTINUOUS
 10
11.8945413216
 20
9.8641572329
 40
0.3145795116
100
AcDbArc
 50
229.3416994257
 51
235.4076597423
  0
ARC
  5
2D0
100
AcDbEntity
  8
0
100
AcDbCircle
 62
9
  6
CONTINUOUS
 10
11.8946337756
 20
9.8640955509
 40
0.3145744596
100
AcDbArc
 50
240.9899876253
 51
247.4118979897
  0
ARC
  5
2D1
100
AcDbEntity
  8
0
100
AcDbCircle
 62
7
  6
CONTINUOUS
 10
11.89484287
 20
9.8640257257
 40
0.3145559674
100
AcDbArc
 50
267.9928619209
 51
270.0040370381
  0
ARC
  5
2D2
100
AcDbEntity
  8
0
100
AcDbCircle
 62
7
  6
CONTINUOUS
 10
11.8946806099
 20
9.8638209448
 40
0.3143296621
100
AcDbArc
 50
256.5201688643
 51
257.5229531641
  0
ARC
  5
2D3
100
AcDbEntity
  8
0
100
AcDbCircle
 62
7
  6
CONTINUOUS
 10
11.895617767
 20
9.8645055643
 40
0.3143186138
100
AcDbArc
 50
0.0018031291
 51
2.3611313715
  0
ARC
  5
2D4
100
AcDbEntity
  8
0
100
AcDbCircle
 62
7
  6
CONTINUOUS
 10
11.8959171425
 20
9.864513045
 40
0.3140177841
100
AcDbArc
 50
0.0003934485
 51
2.3598588017
  0
ARC
  5
2D5
100
AcDbEntity
  8
0
100
AcDbCircle
 62
7
  6
CONTINUOUS
 10
11.895283298
 20
9.8660594648
 40
0.3134486368
100
AcDbArc
 50
74.902016998
 51
75.3502908388
  0
ARC
  5
2D6
100
AcDbEntity
  8
0
100
AcDbCircle
 62
9
  6
CONTINUOUS
 10
10.8276453095
 20
10.1211148751
 40
0.1976373425
100
AcDbArc
 50
179.9871506089
 51
180.41485029
  0
ARC
  5
2D7
100
AcDbEntity
  8
0
100
AcDbCircle
 62
9
  6
CONTINUOUS
 10
10.5969562895
 20
10.1210985395
 40
0.1930027267
100
AcDbArc
 50
359.5800379775
 51
0.0180159954
  0
ARC
  5
2D8
100
AcDbEntity
  8
0
100
AcDbCircle
 62
9
  6
CONTINUOUS
 10
10.6619853407
 20
10.1706775846
 40
0.0607339334
100
AcDbArc
 50
358.7172009809
 51
359.9959001482
  0
ARC
  5
2D9
100
AcDbEntity
  8
0
100
AcDbCircle
 62
9
  6
CONTINUOUS
 10
10.757891551
 20
10.1706763153
 40
0.0606438415
100
AcDbArc
 50
180.0042814795
 51
181.283505546
  0
ARC
  5
2DA
100
AcDbEntity
  8
0
100
AcDbCircle
 62
9
  6
CONTINUOUS
 10
14.7346651658
 20
9.7737040539
 40
3.9420148924
100
AcDbArc
 50
182.362542904
 51
182.5229163022
  0
ARC
  5
2DB
100
AcDbEntity
  8
0
100
AcDbCircle
 62
9
  6
CONTINUOUS
 10
14.164745322
 20
9.9530194537
 40
3.2677729522
100
AcDbArc
 50
191.2968388921
 51
194.8690497976
  0
ARC
  5
2DC
100
AcDbEntity
  8
0
100
AcDbCircle
 62
9
  6
CONTINUOUS
 10
14.0588833581
 20
9.8242785761
 40
3.0766251702
100
AcDbArc
 50
208.3234044584
 51
210.8451015172
  0
ARC
  5
2DD
100
AcDbEntity
  8
0
100
AcDbCircle
 62
9
  6
CONTINUOUS
 10
13.795003905
 20
9.7480422534
 40
2.9019306818
100
AcDbArc
 50
214.275678095
 51
224.0611146529
  0
ARC
  5
2DE
100
AcDbEntity
  8
0
100
AcDbCircle
 62
9
  6
CONTINUOUS
 10
20.0971450332
 20
9.467563904
 40
9.2806660446
100
AcDbArc
 50
179.0337515642
 51
179.9915582737
  0
ARC
  5
2DF
100
AcDbEntity
  8
0
100
AcDbCircle
 62
9
  6
CONTINUOUS
 10
17.1032559727
 20
10.2233210382
 40
6.3421732097
100
AcDbArc
 50
186.8314010729
 51
187.5785765389
  0
SPLINE
  5
2E0
100
AcDbEntity
  8
0
100
AcDbSpline
 62
7
  6
CONTINUOUS
 70
0
 71
3
 72
20
 73
16
 74
0
 42
0.0000001
 43
0.0000001
 44
0.0000000001
 40
0.0
 40
0.0
 40
0.0
 40
0.0
 40
0.0589011319
 40
0.1195294659
 40
0.1810752504
 40
0.2431901004
 40
0.305655339
 40
0.3683546382
 40
0.4312271144
 40
0.4942268547
 40
0.6204325034
 40
0.7468392509
 40
0.8101142093
 40
0.873410878
 40
1.0
 40
1.0
 40
1.0
 40
1.0
 10
10.3565027315
 20
9.458332588
 30
0.0
 10
10.3544735171
 20
9.4664916045
 30
0.0
 10
10.3502440828
 20
9.4830219092
 30
0.0
 10
10.3431479814
 20
9.5078811386
 30
0.0
 10
10.3348799131
 20
9.5328624601
 30
0.0
 10
10.3253995093
 20
9.5576917754
 30
0.0
 10
10.3146183451
 20
9.5821667595
 30
0.0
 10
10.3025267302
 20
9.6061429431
 30
0.0
 10
10.2891421228
 20
9.6295117704
 30
0.0
 10
10.269572663
 20
9.6597241608
 30
0.0
 10
10.2419837747
 20
9.6954647302
 30
0.0
 10
10.2105164491
 20
9.7279015099
 30
0.0
 10
10.1832502529
 20
9.7516037069
 30
0.0
 10
10.154659119
 20
9.7737256284
 30
0.0
 10
10.1318189583
 20
9.7884632201
 30
0.0
 10
10.1160989747
 20
9.7973730303
 30
0.0
  0
SPLINE
  5
2E1
100
AcDbEntity
  8
0
100
AcDbSpline
 62
7
  6
CONTINUOUS
 70
0
 71
3
 72
9
 73
5
 74
0
 42
0.0000001
 43
0.0000001
 44
0.0000000001
 40
0.0
 40
0.0
 40
0.0
 40
0.0
 40
0.4994429532
 40
1.0
 40
1.0
 40
1.0
 40
1.0
 10
9.8459626279
 20
9.8437525631
 30
0.0
 10
9.8470019388
 20
9.8450581513
 30
0.0
 10
9.8492445591
 20
9.847548163
 30
0.0
 10
9.8517880061
 20
9.8497309461
 30
0.0
 10
9.8531239076
 20
9.8507371927
 30
0.0
  0
SPLINE
  5
2E2
100
AcDbEntity
  8
0
100
AcDbSpline
 62
7
  6
CONTINUOUS
 70
0
 71
3
 72
21
 73
17
 74
0
 42
0.0000001
 43
0.0000001
 44
0.0000000001
 40
0.0
 40
0.0
 40
0.0
 40
0.0
 40
0.1265769776
 40
0.2530878366
 40
0.3794916761
 40
0.4426558535
 40
0.5057525749
 40
0.5687521288
 40
0.6316211169
 40
0.6943201783
 40
0.7255929234
 40
0.7568015033
 40
0.8189350801
 40
0.8805048641
 40
0.9411464809
 40
1.0
 40
1.0
 40
1.0
 40
1.0
 10
11.3062988381
 20
9.7987414358
 30
0.0
 10
11.2904258091
 20
9.7898672702
 30
0.0
 10
11.259682005
 20
9.7702734318
 30
0.0
 10
11.2172827556
 20
9.7358208622
 30
0.0
 10
11.185459052
 20
9.7032741448
 30
0.0
 10
11.1623735962
 20
9.6752402715
 30
0.0
 10
11.1462809117
 20
9.653304502
 30
0.0
 10
11.1314535844
 20
9.6305461766
 30
0.0
 10
11.1179272477
 20
9.6070580313
 30
0.0
 10
11.1077383059
 20
9.5869471483
 30
0.0
 10
11.1002482474
 20
9.570594522
 30
0.0
 10
11.0932200997
 20
9.5541263472
 30
0.0
 10
11.0852560741
 20
9.533333977
 30
0.0
 10
11.076918938
 20
9.5081866158
 30
0.0
 10
11.0697744787
 20
9.4831676343
 30
0.0
 10
11.0655116896
 20
9.4665364108
 30
0.0
 10
11.0634642463
 20
9.4583325815
 30
0.0
  0
SPLINE
  5
2E3
100
AcDbEntity
  8
0
100
AcDbSpline
 62
7
  6
CONTINUOUS
 70
0
 71
3
 72
22
 73
18
 74
0
 42
0.0000001
 43
0.0000001
 44
0.0000000001
 40
0.0
 40
0.0
 40
0.0
 40
0.0
 40
0.1010742033
 40
0.1567146677
 40
0.2157757134
 40
0.2784697772
 40
0.3439682193
 40
0.4113004519
 40
0.4798506065
 40
0.5494125841
 40
0.6194137872
 40
0.6888235211
 40
0.756475772
 40
0.8215400204
 40
0.884033542
 40
0.9437295893
 40
1.0
 40
1.0
 40
1.0
 40
1.0
 10
11.594361741
 20
7.697891804
 30
0.0
 10
11.5958545664
 20
7.6978918045
 30
0.0
 10
11.5981802198
 20
7.6981461837
 30
0.0
 10
11.6012450238
 20
7.699042945
 30
0.0
 10
11.6036486044
 20
7.7001077786
 30
0.0
 10
11.6060032222
 20
7.7015749344
 30
0.0
 10
11.6082345578
 20
7.7034220705
 30
0.0
 10
11.6102463366
 20
7.7056267533
 30
0.0
 10
11.6119355522
 20
7.7081638886
 30
0.0
 10
11.613188866
 20
7.710985507
 30
0.0
 10
11.6140062429
 20
7.7139728872
 30
0.0
 10
11.6143866737
 20
7.7170176296
 30
0.0
 10
11.6143268387
 20
7.7200140931
 30
0.0
 10
11.6138130228
 20
7.7228628978
 30
0.0
 10
11.6129279264
 20
7.7254925868
 30
0.0
 10
11.6117590144
 20
7.7278627544
 30
0.0
 10
11.6108124091
 20
7.7292964113
 30
0.0
 10
11.6103109553
 20
7.7299591759
 30
0.0
  0
SPLINE
  5
2E4
100
AcDbEntity
  8
0
100
AcDbSpline
 62
7
  6
CONTINUOUS
 70
0
 71
3
 72
9
 73
5
 74
0
 42
0.0000001
 43
0.0000001
 44
0.0000000001
 40
0.0
 40
0.0
 40
0.0
 40
0.0
 40
0.4993116736
 40
1.0
 40
1.0
 40
1.0
 40
1.0
 10
11.5743372649
 20
9.8433320643
 30
0.0
 10
11.5732670774
 20
9.8447132438
 30
0.0
 10
11.5709448527
 20
9.847345981
 30
0.0
 10
11.5682910203
 20
9.8496452829
 30
0.0
 10
11.5668930954
 20
9.8507015129
 30
0.0
  0
SPLINE
  5
2E5
100
AcDbEntity
  8
0
100
AcDbSpline
 62
7
  6
CONTINUOUS
 70
0
 71
3
 72
22
 73
18
 74
0
 42
0.0000001
 43
0.0000001
 44
0.0000000001
 40
0.0
 40
0.0
 40
0.0
 40
0.0
 40
0.101085004
 40
0.1567306279
 40
0.2157963279
 40
0.2784944196
 40
0.3439961866
 40
0.411330816
 40
0.4798820765
 40
0.5494435812
 40
0.6194430117
 40
0.6888499508
 40
0.7564984581
 40
0.8215579392
 40
0.8840458599
 40
0.9437358167
 40
1.0
 40
1.0
 40
1.0
 40
1.0
 10
9.8256053175
 20
7.697891804
 30
0.0
 10
9.8241123306
 20
7.6978918045
 30
0.0
 10
9.8217864359
 20
7.6981462443
 30
0.0
 10
9.8187213603
 20
7.6990431806
 30
0.0
 10
9.8163176303
 20
7.7001081961
 30
0.0
 10
9.8139629381
 20
7.7015755783
 30
0.0
 10
9.8117316034
 20
7.7034229487
 30
0.0
 10
9.8097198973
 20
7.7056278399
 30
0.0
 10
9.8080308195
 20
7.7081651258
 30
0.0
 10
9.8067777004
 20
7.7109868169
 30
0.0
 10
9.8059605485
 20
7.7139741852
 30
0.0
 10
9.8055803351
 20
7.7170188338
 30
0.0
 10
9.8056403417
 20
7.720015128
 30
0.0
 10
9.8061542476
 20
7.7228637057
 30
0.0
 10
9.807039358
 20
7.7254931351
 30
0.0
 10
9.8082082132
 20
7.7278630373
 30
0.0
 10
9.8091547366
 20
7.7292965305
 30
0.0
 10
9.8096561375
 20
7.7299592212
 30
0.0
  0
SPLINE
  5
2E6
100
AcDbEntity
  8
0
100
AcDbSpline
 62
9
  6
CONTINUOUS
 70
0
 71
3
 72
25
 73
21
 74
0
 42
0.0000001
 43
0.0000001
 44
0.0000000001
 40
0.0
 40
0.0
 40
0.0
 40
0.0
 40
0.0013320239
 40
0.0032555229
 40
0.0089443277
 40
0.0170941993
 40
0.0276649467
 40
0.0406029239
 40
0.0558497076
 40
0.0733447632
 40
0.0930261976
 40
0.1386213393
 40
0.191873081
 40
0.2519906893
 40
0.3181830263
 40
0.3897271939
 40
0.4660907049
 40
0.6312775664
 40
0.8100770382
 40
1.0
 40
1.0
 40
1.0
 40
1.0
 10
11.5823826916
 20
9.8240058008
 30
0.0
 10
11.5823801126
 20
9.8240268828
 30
0.0
 10
11.5823844895
 20
9.8240793153
 30
0.0
 10
11.5824159751
 20
9.8242183075
 30
0.0
 10
11.5825018102
 20
9.8244554496
 30
0.0
 10
11.5826544677
 20
9.8248132505
 30
0.0
 10
11.5828697937
 20
9.8252700421
 30
0.0
 10
11.5831458533
 20
9.8258228946
 30
0.0
 10
11.5834819895
 20
9.8264691074
 30
0.0
 10
11.5838768136
 20
9.8272058881
 30
0.0
 10
11.5845115621
 20
9.8283630433
 30
0.0
 10
11.5854409357
 20
9.8300087618
 30
0.0
 10
11.5867131233
 20
9.8322011203
 30
0.0
 10
11.5881746731
 20
9.8346631459
 30
0.0
 10
11.5898092689
 20
9.8373614888
 30
0.0
 10
11.5916026524
 20
9.8402663653
 30
0.0
 10
11.5942586374
 20
9.8444935715
 30
0.0
 10
11.5978902174
 20
9.8501273002
 30
0.0
 10
11.6026077786
 20
9.8572141655
 30
0.0
 10
11.6059285469
 20
9.8620660357
 30
0.0
 10
11.6076533513
 20
9.8645551783
 30
0.0
  0
SPLINE
  5
2E7
100
AcDbEntity
  8
0
100
AcDbSpline
 62
9
  6
CONTINUOUS
 70
0
 71
3
 72
22
 73
18
 74
0
 42
0.0000001
 43
0.0000001
 44
0.0000000001
 40
0.0
 40
0.0
 40
0.0
 40
0.0
 40
0.0637781604
 40
0.1276529243
 40
0.1915616162
 40
0.255458097
 40
0.3828462259
 40
0.5096083742
 40
0.5727212272
 40
0.6355273698
 40
0.6979652737
 40
0.7599608688
 40
0.8213979832
 40
0.8821104367
 40
0.9419810203
 40
0.9713679174
 40
1.0
 40
1.0
 40
1.0
 40
1.0
 10
11.6133062133
 20
9.9039220424
 30
0.0
 10
11.5966156154
 20
9.906851203
 30
0.0
 10
11.5628659562
 20
9.9109178945
 30
0.0
 10
11.5118811551
 20
9.9115888382
 30
0.0
 10
11.4610767076
 20
9.906778572
 30
0.0
 10
11.3945305868
 20
9.8932308587
 30
0.0
 10
11.3148209581
 20
9.8631862497
 30
0.0
 10
11.2433877426
 20
9.8171902859
 30
0.0
 10
11.1932629698
 20
9.7723734322
 30
0.0
 10
11.1595627332
 20
9.7352460988
 30
0.0
 10
11.1301100989
 20
9.6950419354
 30
0.0
 10
11.1051514713
 20
9.6523249254
 30
0.0
 10
11.0849346997
 20
9.6076755386
 30
0.0
 10
11.069535506
 20
9.5617434602
 30
0.0
 10
11.0607511222
 20
9.5228052538
 30
0.0
 10
11.0560278588
 20
9.4918330676
 30
0.0
 10
11.0543305409
 20
9.4765064401
 30
0.0
 10
11.0536342676
 20
9.4689309059
 30
0.0
  0
SPLINE
  5
2E8
100
AcDbEntity
  8
0
100
AcDbSpline
 62
9
  6
CONTINUOUS
 70
0
 71
3
 72
9
 73
5
 74
0
 42
0.0000001
 43
0.0000001
 44
0.0000000001
 40
0.0
 40
0.0
 40
0.0
 40
0.0
 40
0.2479403104
 40
1.0
 40
1.0
 40
1.0
 40
1.0
 10
11.1534668631
 20
9.7621655495
 30
0.0
 10
11.1589673495
 20
9.7687344089
 30
0.0
 10
11.1818662255
 20
9.7946248877
 30
0.0
 10
11.2074571428
 20
9.8181094283
 30
0.0
 10
11.2278100994
 20
9.8342686546
 30
0.0
  0
SPLINE
  5
2E9
100
AcDbEntity
  8
0
100
AcDbSpline
 62
9
  6
CONTINUOUS
 70
0
 71
3
 72
9
 73
5
 74
0
 42
0.0000001
 43
0.0000001
 44
0.0000000001
 40
0.0
 40
0.0
 40
0.0
 40
0.0
 40
0.5012480737
 40
1.0
 40
1.0
 40
1.0
 40
1.0
 10
11.6258404741
 20
9.8930774514
 30
0.0
 10
11.6238438644
 20
9.894997902
 30
0.0
 10
11.6197498387
 20
9.898714927
 30
0.0
 10
11.6154803965
 20
9.9022284788
 30
0.0
 10
11.6133065617
 20
9.9039234057
 30
0.0
  0
SPLINE
  5
2EA
100
AcDbEntity
  8
0
100
AcDbSpline
 62
9
  6
CONTINUOUS
 70
0
 71
3
 72
13
 73
9
 74
0
 42
0.0000001
 43
0.0000001
 44
0.0000000001
 40
0.0
 40
0.0
 40
0.0
 40
0.0
 40
0.2411432299
 40
0.3694476955
 40
0.4999978591
 40
0.630548375
 40
0.758853761
 40
1.0
 40
1.0
 40
1.0
 40
1.0
 10
11.649659088
 20
9.8930771481
 30
0.0
 10
11.6493934344
 20
9.8972593095
 30
0.0
 10
11.647956581
 20
9.903654983
 30
0.0
 10
11.6441335116
 20
9.9114845448
 30
0.0
 10
11.6402457665
 20
9.9170609621
 30
0.0
 10
11.6355007565
 20
9.921928824
 30
0.0
 10
11.6285306655
 20
9.9271573053
 30
0.0
 10
11.6225197211
 20
9.9297723572
 30
0.0
 10
11.6184622786
 20
9.9308205196
 30
0.0
  0
SPLINE
  5
2EB
100
AcDbEntity
  8
0
100
AcDbSpline
 62
9
  6
CONTINUOUS
 70
0
 71
3
 72
16
 73
12
 74
0
 42
0.0000001
 43
0.0000001
 44
0.0000000001
 40
0.0
 40
0.0
 40
0.0
 40
0.0
 40
0.0370543661
 40
0.0815860035
 40
0.187092813
 40
0.3075778383
 40
0.4372252789
 40
0.5731048933
 40
0.7131568714
 40
0.855947888
 40
1.0
 40
1.0
 40
1.0
 40
1.0
 10
11.6184625558
 20
9.930820275
 30
0.0
 10
11.6196753046
 20
9.9313490135
 30
0.0
 10
11.622331729
 20
9.9325446258
 30
0.0
 10
11.6284090011
 20
9.9353174472
 30
0.0
 10
11.6372244681
 20
9.9392651073
 30
0.0
 10
11.6488507255
 20
9.94437063
 30
0.0
 10
11.661497558
 20
9.9498487897
 30
0.0
 10
11.674813893
 20
9.9555385177
 30
0.0
 10
11.6885913252
 20
9.9613430757
 30
0.0
 10
11.7026763255
 20
9.9671682659
 30
0.0
 10
11.7121547393
 20
9.9710474826
 30
0.0
 10
11.7169134755
 20
9.9729988088
 30
0.0
  0
SPLINE
  5
2EC
100
AcDbEntity
  8
0
100
AcDbSpline
 62
9
  6
CONTINUOUS
 70
0
 71
3
 72
10
 73
6
 74
0
 42
0.0000001
 43
0.0000001
 44
0.0000000001
 40
0.0
 40
0.0
 40
0.0
 40
0.0
 40
0.4227787208
 40
0.7041977697
 40
1.0
 40
1.0
 40
1.0
 40
1.0
 10
11.6496591821
 20
9.8930781048
 30
0.0
 10
11.6586416273
 20
9.9047447387
 30
0.0
 10
11.6739856809
 20
9.9238861392
 30
0.0
 10
11.696576686
 20
9.9503943763
 30
0.0
 10
11.7099626742
 20
9.9653952577
 30
0.0
 10
11.7169130925
 20
9.9729991072
 30
0.0
  0
SPLINE
  5
2ED
100
AcDbEntity
  8
0
100
AcDbSpline
 62
9
  6
CONTINUOUS
 70
0
 71
3
 72
15
 73
11
 74
0
 42
0.0000001
 43
0.0000001
 44
0.0000000001
 40
0.0
 40
0.0
 40
0.0
 40
0.0
 40
0.1250494592
 40
0.2500845525
 40
0.3751035289
 40
0.500104885
 40
0.6250813949
 40
0.7500601203
 40
0.8750516638
 40
1.0
 40
1.0
 40
1.0
 40
1.0
 10
11.7169131745
 20
9.9729979934
 30
0.0
 10
11.6949473497
 20
9.9811053131
 30
0.0
 10
11.6499084913
 20
9.9944709537
 30
0.0
 10
11.5803837038
 20
10.0056665462
 30
0.0
 10
11.509994357
 20
10.007798209
 30
0.0
 10
11.4399231761
 20
10.0009387365
 30
0.0
 10
11.3713156365
 20
9.9851644435
 30
0.0
 10
11.3052616642
 20
9.9608197316
 30
0.0
 10
11.2428606173
 20
9.9282707343
 30
0.0
 10
11.2043074239
 20
9.9014815399
 30
0.0
 10
11.1859842349
 20
9.8869350442
 30
0.0
  0
SPLINE
  5
2EE
100
AcDbEntity
  8
0
100
AcDbSpline
 62
9
  6
CONTINUOUS
 70
0
 71
3
 72
39
 73
35
 74
0
 42
0.0000001
 43
0.0000001
 44
0.0000000001
 40
0.0
 40
0.0
 40
0.0
 40
0.0
 40
0.03125895
 40
0.0625248974
 40
0.0937852369
 40
0.1250370389
 40
0.1562812167
 40
0.1875187092
 40
0.2187524632
 40
0.2499803613
 40
0.2812025496
 40
0.3124215563
 40
0.3436359839
 40
0.3748479697
 40
0.406059567
 40
0.4372698452
 40
0.4684821422
 40
0.499697331
 40
0.5309147445
 40
0.5621378293
 40
0.5933662786
 40
0.6246002872
 40
0.6558428907
 40
0.6870926649
 40
0.7183504752
 40
0.7496180135
 40
0.7808930882
 40
0.8121769338
 40
0.8434691294
 40
0.8747672671
 40
0.9060720988
 40
0.9373805408
 40
0.9686899843
 40
1.0
 40
1.0
 40
1.0
 40
1.0
 10
11.9325578874
 20
10.0292963673
 30
0.0
 10
11.9381438125
 20
10.0278414035
 30
0.0
 10
11.949178036
 20
10.024365232
 30
0.0
 10
11.9651188251
 20
10.0175259326
 30
0.0
 10
11.9802921021
 20
10.0091176489
 30
0.0
 10
11.9945293328
 20
9.9992147289
 30
0.0
 10
12.007694831
 20
9.9879324856
 30
0.0
 10
12.0196458781
 20
9.9753748511
 30
0.0
 10
12.030257853
 20
9.9616712402
 30
0.0
 10
12.0394307571
 20
9.946968441
 30
0.0
 10
12.0470527151
 20
9.9314076407
 30
0.0
 10
12.0530522594
 20
9.9151554523
 30
0.0
 10
12.0573717343
 20
9.8983798075
 30
0.0
 10
12.0599486115
 20
9.8812510825
 30
0.0
 10
12.0607728776
 20
9.8639504415
 30
0.0
 10
12.059830726
 20
9.8466551761
 30
0.0
 10
12.0571218736
 20
9.8295470532
 30
0.0
 10
12.0526930015
 20
9.8128004302
 30
0.0
 10
12.0465774405
 20
9.7965908792
 30
0.0
 10
12.0388401217
 20
9.7810876845
 30
0.0
 10
12.029573406
 20
9.7664434595
 30
0.0
 10
12.0188586431
 20
9.7528180394
 30
0.0
 10
12.0068164963
 20
9.740345712
 30
0.0
 10
11.9935741943
 20
9.7291484543
 30
0.0
 10
11.9792583526
 20
9.7193530282
 30
0.0
 10
11.9640267469
 20
9.7110442848
 30
0.0
 10
11.9480316093
 20
9.7043081848
 30
0.0
 10
11.9314338915
 20
9.6992208902
 30
0.0
 10
11.9144071743
 20
9.6958157466
 30
0.0
 10
11.8971202405
 20
9.6941377746
 30
0.0
 10
11.8797498313
 20
9.6942024989
 30
0.0
 10
11.8624694414
 20
9.6959958541
 30
0.0
 10
11.8454569558
 20
9.6995148303
 30
0.0
 10
11.8344022189
 20
9.7029832237
 30
0.0
 10
11.8289787654
 20
9.7049868662
 30
0.0
  0
SPLINE
  5
2EF
100
AcDbEntity
  8
0
100
AcDbSpline
 62
9
  6
CONTINUOUS
 70
0
 71
3
 72
15
 73
11
 74
0
 42
0.0000001
 43
0.0000001
 44
0.0000000001
 40
0.0
 40
0.0
 40
0.0
 40
0.0
 40
0.1248819723
 40
0.2498067521
 40
0.3747718974
 40
0.4997629639
 40
0.6247981998
 40
0.7498828254
 40
0.8749683969
 40
1.0
 40
1.0
 40
1.0
 40
1.0
 10
11.6184623372
 20
9.9308202621
 30
0.0
 10
11.6015013602
 20
9.9340719112
 30
0.0
 10
11.5671861231
 20
9.9387077496
 30
0.0
 10
11.5152821702
 20
9.9400647994
 30
0.0
 10
11.4635100093
 20
9.9358643856
 30
0.0
 10
11.4124704559
 20
9.9261328377
 30
0.0
 10
11.362777157
 20
9.9109019542
 30
0.0
 10
11.3149822053
 20
9.8904533475
 30
0.0
 10
11.2696243408
 20
9.8650669088
 30
0.0
 10
11.2413453429
 20
9.8450138865
 30
0.0
 10
11.2278033736
 20
9.8342631579
 30
0.0
  0
SPLINE
  5
2F0
100
AcDbEntity
  8
0
100
AcDbSpline
 62
9
  6
CONTINUOUS
 70
0
 71
3
 72
18
 73
14
 74
0
 42
0.0000001
 43
0.0000001
 44
0.0000000001
 40
0.0
 40
0.0
 40
0.0
 40
0.0
 40
0.0230096906
 40
0.0517102515
 40
0.0864532027
 40
0.1274959475
 40
0.1749694222
 40
0.2286591371
 40
0.353400414
 40
0.4985566038
 40
0.6587424086
 40
0.8279482896
 40
1.0
 40
1.0
 40
1.0
 40
1.0
 10
11.1534674333
 20
9.7621662305
 30
0.0
 10
11.1533730642
 20
9.7626007927
 30
0.0
 10
11.1530657817
 20
9.763556288
 30
0.0
 10
11.1523777381
 20
9.7650807673
 30
0.0
 10
11.151401392
 20
9.7668504328
 30
0.0
 10
11.1501267486
 20
9.7688640639
 30
0.0
 10
11.1485489371
 20
9.7711153172
 30
0.0
 10
11.1459138474
 20
9.7745972083
 30
0.0
 10
11.1419119024
 20
9.7794069356
 30
0.0
 10
11.1363245653
 20
9.7855629392
 30
0.0
 10
11.1299419174
 20
9.7921507821
 30
0.0
 10
11.1230055226
 20
9.7989199609
 30
0.0
 10
11.118178093
 20
9.8034145643
 30
0.0
 10
11.1157197321
 20
9.8056535001
 30
0.0
  0
SPLINE
  5
2F1
100
AcDbEntity
  8
0
100
AcDbSpline
 62
9
  6
CONTINUOUS
 70
0
 71
3
 72
9
 73
5
 74
0
 42
0.0000001
 43
0.0000001
 44
0.0000000001
 40
0.0
 40
0.0
 40
0.0
 40
0.0
 40
0.5134631067
 40
1.0
 40
1.0
 40
1.0
 40
1.0
 10
10.875843143
 20
9.8056539356
 30
0.0
 10
10.8743020134
 20
9.8152379315
 30
0.0
 10
10.8715316291
 20
9.8339421778
 30
0.0
 10
10.8695763744
 20
9.85275712
 30
0.0
 10
10.8689235772
 20
9.8619319947
 30
0.0
  0
LINE
  5
2F2
100
AcDbEntity
  8
0
100
AcDbLine
 62
9
  6
CONTINUOUS
 10
10.8679834891
 20
10.162393322
 11
10.8681030075
 21
10.1633874813
  0
SPLINE
  5
2F3
100
AcDbEntity
  8
0
100
AcDbSpline
 62
9
  6
CONTINUOUS
 70
0
 71
3
 72
29
 73
25
 74
0
 42
0.0000001
 43
0.0000001
 44
0.0000000001
 40
0.0
 40
0.0
 40
0.0
 40
0.0
 40
0.0027301641
 40
0.0056518198
 40
0.0088557099
 40
0.0124097952
 40
0.0207416786
 40
0.0309019265
 40
0.0430107402
 40
0.0571290806
 40
0.0732869167
 40
0.0914969071
 40
0.1117550928
 40
0.1340253633
 40
0.184407515
 40
0.2422353811
 40
0.3070708653
 40
0.3784207326
 40
0.45561693
 40
0.5379434278
 40
0.6246802874
 40
0.7150856333
 40
0.8083371007
 40
1.0
 40
1.0
 40
1.0
 40
1.0
 10
10.8681030426
 20
10.1633868318
 30
0.0
 10
10.8681731868
 20
10.163662627
 30
0.0
 10
10.8683821453
 20
10.1642187682
 30
0.0
 10
10.8688706926
 20
10.165007374
 30
0.0
 10
10.86953663
 20
10.1657702831
 30
0.0
 10
10.8707219838
 20
10.1668096469
 30
0.0
 10
10.8726872318
 20
10.1680265974
 30
0.0
 10
10.8756060023
 20
10.1693254804
 30
0.0
 10
10.8792054387
 20
10.1705350819
 30
0.0
 10
10.883482265
 20
10.1716522811
 30
0.0
 10
10.8884337187
 20
10.1726736913
 30
0.0
 10
10.8940537838
 20
10.1735952372
 30
0.0
 10
10.9003326787
 20
10.1744131272
 30
0.0
 10
10.9099671192
 20
10.1754048497
 30
0.0
 10
10.9235399253
 20
10.1763302169
 30
0.0
 10
10.9415676846
 20
10.1769756111
 30
0.0
 10
10.9617913072
 20
10.1771797384
 30
0.0
 10
10.984032848
 20
10.1769328296
 30
0.0
 10
11.0080887456
 20
10.1762429464
 30
0.0
 10
11.0337335158
 20
10.1751176678
 30
0.0
 10
11.0607351046
 20
10.1735654601
 30
0.0
 10
11.0888511189
 20
10.1715964032
 30
0.0
 10
11.1278433678
 20
10.168418086
 30
0.0
 10
11.1574031241
 20
10.1655293763
 30
0.0
 10
11.1772656584
 20
10.1633868332
 30
0.0
  0
SPLINE
  5
2F4
100
AcDbEntity
  8
0
100
AcDbSpline
 62
9
  6
CONTINUOUS
 70
0
 71
3
 72
9
 73
5
 74
0
 42
0.0000001
 43
0.0000001
 44
0.0000000001
 40
0.0
 40
0.0
 40
0.0
 40
0.0
 40
0.5011832149
 40
1.0
 40
1.0
 40
1.0
 40
1.0
 10
11.1859834892
 20
9.8869359834
 30
0.0
 10
11.1730761995
 20
9.8744356971
 30
0.0
 10
11.1483487725
 20
9.8484094709
 30
0.0
 10
11.1260731792
 20
9.8202355737
 30
0.0
 10
11.1157199444
 20
9.8056539356
 30
0.0
  0
SPLINE
  5
2F5
100
AcDbEntity
  8
0
100
AcDbSpline
 62
9
  6
CONTINUOUS
 70
0
 71
3
 72
73
 73
69
 74
0
 42
0.0000001
 43
0.0000001
 44
0.0000000001
 40
0.0
 40
0.0
 40
0.0
 40
0.0
 40
0.065903147
 40
0.1314775049
 40
0.1641538089
 40
0.1967598611
 40
0.2292992706
 40
0.2617748237
 40
0.29418824
 40
0.3265399592
 40
0.3588288147
 40
0.3749488003
 40
0.3910515259
 40
0.4071359291
 40
0.4232004248
 40
0.4392425014
 40
0.4552578052
 40
0.4632530252
 40
0.4712376909
 40
0.4792087713
 40
0.4871608922
 40
0.4911268742
 40
0.4950833314
 40
0.4990265555
 40
0.502950091
 40
0.5049010513
 40
0.5068415027
 40
0.5087673126
 40
0.5106722745
 40
0.5125432491
 40
0.5134584186
 40
0.5143539737
 40
0.5152232579
 40
0.5160554706
 40
0.5168409076
 40
0.5175851664
 40
0.5183288401
 40
0.5191097537
 40
0.5199374747
 40
0.5208007446
 40
0.5216908074
 40
0.5226008996
 40
0.5244601846
 40
0.526352649
 40
0.5282663119
 40
0.5301941432
 40
0.5321319436
 40
0.5360278031
 40
0.5399411358
 40
0.54386537
 40
0.5477966881
 40
0.5556718075
 40
0.5635553632
 40
0.5714416614
 40
0.579327432
 40
0.5950897398
 40
0.6108320873
 40
0.6265485358
 40
0.6422348757
 40
0.6735036986
 40
0.7046137574
 40
0.7355405265
 40
0.7662576021
 40
0.7967356346
 40
0.8269415886
 40
0.8863824896
 40
0.9442199928
 40
1.0
 40
1.0
 40
1.0
 40
1.0
 10
11.1157199444
 20
9.8056539356
 30
0.0
 10
11.1068751059
 20
9.7931966628
 30
0.0
 10
11.0900360279
 20
9.7677637542
 30
0.0
 10
11.0708627113
 20
9.7348717023
 30
0.0
 10
11.0565647945
 20
9.7081142352
 30
0.0
 10
11.0463359277
 20
9.6878726136
 30
0.0
 10
11.0365566448
 20
9.6674620585
 30
0.0
 10
11.0271944759
 20
9.6469061262
 30
0.0
 10
11.018218046
 20
9.6262265044
 30
0.0
 10
11.0095968719
 20
9.6054433431
 30
0.0
 10
11.0026801245
 20
9.5880449276
 30
0.0
 10
10.9972939296
 20
9.5740931265
 30
0.0
 10
10.9933257176
 20
9.5636209404
 30
0.0
 10
10.9894223224
 20
9.5531381664
 30
0.0
 10
10.9855783426
 20
9.5426484438
 30
0.0
 10
10.9817866822
 20
9.5321567431
 30
0.0
 10
10.9786605028
 20
9.5234136815
 30
0.0
 10
10.9761705682
 20
9.5164268537
 30
0.0
 10
10.9743056709
 20
9.5111970001
 30
0.0
 10
10.9724361334
 20
9.5059794164
 30
0.0
 10
10.9708645403
 20
9.5016447026
 30
0.0
 10
10.9695888325
 20
9.4981927731
 30
0.0
 10
10.9686194744
 20
9.4956184604
 30
0.0
 10
10.9676301667
 20
9.49306228
 30
0.0
 10
10.9667787461
 20
9.4909513893
 30
0.0
 10
10.9660715261
 20
9.4892833768
 30
0.0
 10
10.9655251587
 20
9.4880503634
 30
0.0
 10
10.9649557108
 20
9.4868394978
 30
0.0
 10
10.9643565954
 20
9.4856610635
 30
0.0
 10
10.9638174463
 20
9.4847154795
 30
0.0
 10
10.9633455274
 20
9.4840038617
 30
0.0
 10
10.9629714359
 20
9.4835071996
 30
0.0
 10
10.9625701029
 20
9.483057159
 30
0.0
 10
10.9621349697
 20
9.482675594
 30
0.0
 10
10.961652774
 20
9.4824031851
 30
0.0
 10
10.961124134
 20
9.4822992724
 30
0.0
 10
10.9605955443
 20
9.482401112
 30
0.0
 10
10.960117363
 20
9.4826763521
 30
0.0
 10
10.959685461
 20
9.4830560516
 30
0.0
 10
10.959289623
 20
9.4835062382
 30
0.0
 10
10.9589226492
 20
9.4840034141
 30
0.0
 10
10.9584619992
 20
9.4847162613
 30
0.0
 10
10.95793645
 20
9.4856616673
 30
0.0
 10
10.957354358
 20
9.4868392669
 30
0.0
 10
10.9568060788
 20
9.4880504131
 30
0.0
 10
10.9562817683
 20
9.4892834188
 30
0.0
 10
10.9556061536
 20
9.4909511306
 30
0.0
 10
10.9547988392
 20
9.4930617749
 30
0.0
 10
10.9538684349
 20
9.4956178608
 30
0.0
 10
10.9529645425
 20
9.4981921363
 30
0.0
 10
10.9517851603
 20
9.5016429349
 30
0.0
 10
10.9503499564
 20
9.5059761441
 30
0.0
 10
10.9486692036
 20
9.5111936096
 30
0.0
 10
10.9470189057
 20
9.5164233685
 30
0.0
 10
10.9448514533
 20
9.5234051061
 30
0.0
 10
10.9421936678
 20
9.5321414885
 30
0.0
 10
10.9390674608
 20
9.5426326318
 30
0.0
 10
10.9359966469
 20
9.5531217681
 30
0.0
 10
10.9319738983
 20
9.5670825598
 30
0.0
 10
10.9270645905
 20
9.5845015251
 30
0.0
 10
10.9213432043
 20
9.6053617745
 30
0.0
 10
10.9157953188
 20
9.6261364768
 30
0.0
 10
10.9104237063
 20
9.6468060951
 30
0.0
 10
10.9052359518
 20
9.6673503654
 30
0.0
 10
10.8986170915
 20
9.6944003214
 30
0.0
 10
10.8908863119
 20
9.7277073466
 30
0.0
 10
10.8826114672
 20
9.7669667694
 30
0.0
 10
10.8778967359
 20
9.7928869082
 30
0.0
 10
10.875843143
 20
9.8056539356
 30
0.0
  0
SPLINE
  5
2F6
100
AcDbEntity
  8
0
100
AcDbSpline
 62
9
  6
CONTINUOUS
 70
0
 71
3
 72
9
 73
5
 74
0
 42
0.0000001
 43
0.0000001
 44
0.0000000001
 40
0.0
 40
0.0
 40
0.0
 40
0.0
 40
0.5271378339
 40
1.0
 40
1.0
 40
1.0
 40
1.0
 10
10.8682175452
 20
9.7903350944
 30
0.0
 10
10.8700504247
 20
9.7927382072
 30
0.0
 10
10.8731397377
 20
9.7976140185
 30
0.0
 10
10.8751886504
 20
9.8030229355
 30
0.0
 10
10.8758430957
 20
9.8056538911
 30
0.0
  0
SPLINE
  5
2F7
100
AcDbEntity
  8
0
100
AcDbSpline
 62
9
  6
CONTINUOUS
 70
0
 71
3
 72
70
 73
66
 74
0
 42
0.0000001
 43
0.0000001
 44
0.0000000001
 40
0.0
 40
0.0
 40
0.0
 40
0.0
 40
0.0296018769
 40
0.0594490214
 40
0.0895063867
 40
0.1197429704
 40
0.1501311078
 40
0.1806461227
 40
0.1959441531
 40
0.2112655463
 40
0.2266076172
 40
0.2419675961
 40
0.2573424424
 40
0.2727284939
 40
0.2881210649
 40
0.3035132543
 40
0.318893623
 40
0.3265731497
 40
0.3342398173
 40
0.3418861468
 40
0.3494988723
 40
0.3532866434
 40
0.3570558822
 40
0.3607971456
 40
0.3645001255
 40
0.3681498223
 40
0.3717163254
 40
0.3751437264
 40
0.3767960762
 40
0.3783858856
 40
0.3799230336
 40
0.3814555815
 40
0.3830309104
 40
0.3846620132
 40
0.3880534901
 40
0.391610171
 40
0.3952583953
 40
0.398967343
 40
0.4027203742
 40
0.4065039728
 40
0.4141287205
 40
0.4218059919
 40
0.4295172025
 40
0.4372520451
 40
0.4450047007
 40
0.4527712248
 40
0.4683368687
 40
0.4839369884
 40
0.4995656176
 40
0.515219704
 40
0.5308977847
 40
0.5465992977
 40
0.5623242748
 40
0.5780731364
 40
0.6096454577
 40
0.6413240249
 40
0.6731183083
 40
0.7050400283
 40
0.7371003063
 40
0.7693120578
 40
0.801687299
 40
0.8669759449
 40
0.8999054873
 40
0.9330727168
 40
1.0
 40
1.0
 40
1.0
 40
1.0
 10
10.8601795903
 20
9.6634627317
 30
0.0
 10
10.8624618599
 20
9.6585144171
 30
0.0
 10
10.8671034707
 20
9.6486035271
 30
0.0
 10
10.8742467013
 20
9.6337553655
 30
0.0
 10
10.8815800551
 20
9.6188698445
 30
0.0
 10
10.8890826635
 20
9.6039573979
 30
0.0
 10
10.8967345404
 20
9.5890263003
 30
0.0
 10
10.9032173139
 20
9.5765865211
 30
0.0
 10
10.9084655514
 20
9.5666312287
 30
0.0
 10
10.9124343177
 20
9.5591589513
 30
0.0
 10
10.9164313995
 20
9.5516888471
 30
0.0
 10
10.9204562585
 20
9.5442224912
 30
0.0
 10
10.9245088748
 20
9.5367619479
 30
0.0
 10
10.9285904247
 20
9.5293103496
 30
0.0
 10
10.9327029956
 20
9.5218721674
 30
0.0
 10
10.9368513705
 20
9.5144550849
 30
0.0
 10
10.9403468727
 20
9.5082998059
 30
0.0
 10
10.9431775403
 20
9.5034027139
 30
0.0
 10
10.9453206384
 20
9.499752739
 30
0.0
 10
10.9474912042
 20
9.4961333332
 30
0.0
 10
10.9493367355
 20
9.4931518478
 30
0.0
 10
10.950844966
 20
9.4908015752
 30
0.0
 10
10.9519929858
 20
9.489067138
 30
0.0
 10
10.9531700571
 20
9.4873711232
 30
0.0
 10
10.9543840955
 20
9.4857283844
 30
0.0
 10
10.955645288
 20
9.4841623329
 30
0.0
 10
10.9569590049
 20
9.4827064613
 30
0.0
 10
10.9581818254
 20
9.4816716754
 30
0.0
 10
10.9592450015
 20
9.4810506172
 30
0.0
 10
10.9600676718
 20
9.4807264754
 30
0.0
 10
10.960921005
 20
9.4805792549
 30
0.0
 10
10.9617813378
 20
9.4806517604
 30
0.0
 10
10.9626211315
 20
9.4809050804
 30
0.0
 10
10.9637144919
 20
9.4814442295
 30
0.0
 10
10.9649722362
 20
9.4824217877
 30
0.0
 10
10.9663149787
 20
9.4838392274
 30
0.0
 10
10.9676040106
 20
9.4853814793
 30
0.0
 10
10.9688401607
 20
9.4870115167
 30
0.0
 10
10.9700392592
 20
9.4886992749
 30
0.0
 10
10.9716067456
 20
9.4910086821
 30
0.0
 10
10.9735179138
 20
9.493957175
 30
0.0
 10
10.9757622766
 20
9.4975503153
 30
0.0
 10
10.9779806496
 20
9.5011832819
 30
0.0
 10
10.9801824866
 20
9.5048424628
 30
0.0
 10
10.9823733228
 20
9.508520088
 30
0.0
 10
10.9852875369
 20
9.5134446886
 30
0.0
 10
10.988919097
 20
9.5196233517
 30
0.0
 10
10.9932723288
 20
9.5270565992
 30
0.0
 10
10.9976314503
 20
9.5345052657
 30
0.0
 10
11.0020017391
 20
9.5419640246
 30
0.0
 10
11.0063870641
 20
9.5494295197
 30
0.0
 10
11.0107906825
 20
9.5568993934
 30
0.0
 10
11.0152154383
 20
9.564371916
 30
0.0
 10
11.0211515645
 20
9.5743448266
 30
0.0
 10
11.0286386977
 20
9.5868122004
 30
0.0
 10
11.0377428216
 20
9.601753583
 30
0.0
 10
11.0469961942
 20
9.6166787955
 30
0.0
 10
11.0564211722
 20
9.6315795458
 30
0.0
 10
11.0660436112
 20
9.6464452579
 30
0.0
 10
11.075889093
 20
9.661264785
 30
0.0
 10
11.0893887498
 20
9.6809975682
 30
0.0
 10
11.1034130586
 20
9.7005301402
 30
0.0
 10
11.1180734765
 20
9.719768667
 30
0.0
 10
11.1332980457
 20
9.7389489968
 30
0.0
 10
11.1452173444
 20
9.753014819
 30
0.0
 10
11.1534668378
 20
9.7621655834
 30
0.0
  0
SPLINE
  5
2F8
100
AcDbEntity
  8
0
100
AcDbSpline
 62
9
  6
CONTINUOUS
 70
0
 71
3
 72
11
 73
7
 74
0
 42
0.0000001
 43
0.0000001
 44
0.0000000001
 40
0.0
 40
0.0
 40
0.0
 40
0.0
 40
0.2499797228
 40
0.499967765
 40
0.7499780814
 40
1.0
 40
1.0
 40
1.0
 40
1.0
 10
11.1534668378
 20
9.7621655834
 30
0.0
 10
11.1368296491
 20
9.7416344173
 30
0.0
 10
11.1069026838
 20
9.6977210551
 30
0.0
 10
11.073694906
 20
9.6253256198
 30
0.0
 10
11.0532370781
 20
9.5483341234
 30
0.0
 10
11.0486343059
 20
9.4953615764
 30
0.0
 10
11.0486332892
 20
9.4689312794
 30
0.0
  0
LINE
  5
2F9
100
AcDbEntity
  8
0
100
AcDbLine
 62
9
  6
CONTINUOUS
 10
10.8177986764
 20
9.6240676477
 11
10.8178483999
 21
9.6270633203
  0
SPLINE
  5
2FA
100
AcDbEntity
  8
0
100
AcDbSpline
 62
9
  6
CONTINUOUS
 70
0
 71
3
 72
13
 73
9
 74
0
 42
0.0000001
 43
0.0000001
 44
0.0000000001
 40
0.0
 40
0.0
 40
0.0
 40
0.0
 40
0.2479035613
 40
0.3738581066
 40
0.5000695408
 40
0.6261163119
 40
0.7516239006
 40
1.0
 40
1.0
 40
1.0
 40
1.0
 10
10.8061069372
 20
9.4689308573
 30
0.0
 10
10.8046351918
 20
9.4797087383
 30
0.0
 10
10.8029244686
 20
9.4960320909
 30
0.0
 10
10.8011553589
 20
9.5179029001
 30
0.0
 10
10.7999879563
 20
9.5344580635
 30
0.0
 10
10.7989631112
 20
9.5510026504
 30
0.0
 10
10.797743751
 20
9.5729055672
 30
0.0
 10
10.7969511062
 20
9.5892925566
 30
0.0
 10
10.7964712865
 20
9.600180626
 30
0.0
  0
SPLINE
  5
2FB
100
AcDbEntity
  8
0
100
AcDbSpline
 62
9
  6
CONTINUOUS
 70
0
 71
3
 72
13
 73
9
 74
0
 42
0.0000001
 43
0.0000001
 44
0.0000000001
 40
0.0
 40
0.0
 40
0.0
 40
0.0
 40
0.24834603
 40
0.3738550582
 40
0.4999121045
 40
0.6261325077
 40
0.7520878949
 40
1.0
 40
1.0
 40
1.0
 40
1.0
 10
10.6235145137
 20
9.6006114268
 30
0.0
 10
10.6230342805
 20
9.5896889653
 30
0.0
 10
10.6222406686
 20
9.5732494816
 30
0.0
 10
10.6210203556
 20
9.5512754591
 30
0.0
 10
10.6199949032
 20
9.5346755945
 30
0.0
 10
10.6188257475
 20
9.5180651662
 30
0.0
 10
10.6170514048
 20
9.4961218427
 30
0.0
 10
10.6153349947
 20
9.4797446531
 30
0.0
 10
10.6138597586
 20
9.4689309058
 30
0.0
  0
SPLINE
  5
2FC
100
AcDbEntity
  8
0
100
AcDbSpline
 62
9
  6
CONTINUOUS
 70
0
 71
3
 72
11
 73
7
 74
0
 42
0.0000001
 43
0.0000001
 44
0.0000000001
 40
0.0
 40
0.0
 40
0.0
 40
0.0
 40
0.204800566
 40
0.4405855877
 40
0.7067328253
 40
1.0
 40
1.0
 40
1.0
 40
1.0
 10
11.0634675763
 20
9.4583321034
 30
0.0
 10
11.0630983741
 20
9.4592593013
 30
0.0
 10
11.0620245087
 20
9.4611428686
 30
0.0
 10
11.0598102008
 20
9.4637935461
 30
0.0
 10
11.0569664312
 20
9.4664376832
 30
0.0
 10
11.0547985417
 20
9.468096463
 30
0.0
 10
11.0536321779
 20
9.468922253
 30
0.0
  0
SPLINE
  5
2FD
100
AcDbEntity
  8
0
100
AcDbSpline
 62
9
  6
CONTINUOUS
 70
0
 71
3
 72
11
 73
7
 74
0
 42
0.0000001
 43
0.0000001
 44
0.0000000001
 40
0.0
 40
0.0
 40
0.0
 40
0.0
 40
0.2465515621
 40
0.4981988614
 40
0.7503427783
 40
1.0
 40
1.0
 40
1.0
 40
1.0
 10
11.61331314
 20
9.9039157211
 30
0.0
 10
11.6112061324
 20
9.9023358373
 30
0.0
 10
11.6068014763
 20
9.8993398638
 30
0.0
 10
11.5999631933
 20
9.8951592478
 30
0.0
 10
11.593046473
 20
9.8910446102
 30
0.0
 10
11.5884280394
 20
9.8883244376
 30
0.0
 10
11.5861327602
 20
9.8869668541
 30
0.0
  0
SPLINE
  5
2FE
100
AcDbEntity
  8
0
100
AcDbSpline
 62
9
  6
CONTINUOUS
 70
0
 71
3
 72
11
 73
7
 74
0
 42
0.0000001
 43
0.0000001
 44
0.0000000001
 40
0.0
 40
0.0
 40
0.0
 40
0.0
 40
0.2415299657
 40
0.4969367058
 40
0.7539464752
 40
1.0
 40
1.0
 40
1.0
 40
1.0
 10
11.607653582
 20
9.8645535168
 30
0.0
 10
11.6063036607
 20
9.8666765892
 30
0.0
 10
11.6032774595
 20
9.8708889254
 30
0.0
 10
11.5981102152
 20
9.8768180346
 30
0.0
 10
11.5923607082
 20
9.8822531284
 30
0.0
 10
11.5882317545
 20
9.8854953909
 30
0.0
 10
11.5861339563
 20
9.8869678999
 30
0.0
  0
SPLINE
  5
2FF
100
AcDbEntity
  8
0
100
AcDbSpline
 62
9
  6
CONTINUOUS
 70
0
 71
3
 72
10
 73
6
 74
0
 42
0.0000001
 43
0.0000001
 44
0.0000000001
 40
0.0
 40
0.0
 40
0.0
 40
0.0
 40
0.4924565844
 40
0.7449017261
 40
1.0
 40
1.0
 40
1.0
 40
1.0
 10
11.6076544778
 20
9.8645540458
 30
0.0
 10
11.6107265909
 20
9.8691810268
 30
0.0
 10
11.6154341282
 20
9.8761400853
 30
0.0
 10
11.6214957843
 20
9.885652018
 30
0.0
 10
11.6244218534
 20
9.8905734755
 30
0.0
 10
11.625843232
 20
9.8930748754
 30
0.0
  0
SPLINE
  5
300
100
AcDbEntity
  8
0
100
AcDbSpline
 62
9
  6
CONTINUOUS
 70
0
 71
3
 72
39
 73
35
 74
0
 42
0.0000001
 43
0.0000001
 44
0.0000000001
 40
0.0
 40
0.0
 40
0.0
 40
0.0
 40
0.031297043
 40
0.0625915919
 40
0.0938779063
 40
0.1251563112
 40
0.156426087
 40
0.1876829008
 40
0.2189286826
 40
0.2501629968
 40
0.281384866
 40
0.3125978532
 40
0.343801873
 40
0.374999448
 40
0.4061942351
 40
0.4373882308
 40
0.4685858729
 40
0.4997875963
 40
0.530995065
 40
0.5622108986
 40
0.5934338831
 40
0.6246663403
 40
0.6559082872
 40
0.6871578717
 40
0.7184173854
 40
0.74968473
 40
0.7809584231
 40
0.8122399964
 40
0.843526209
 40
0.8748165604
 40
0.9061112404
 40
0.9374065806
 40
0.9687032143
 40
1.0
 40
1.0
 40
1.0
 40
1.0
 10
11.6496587913
 20
9.8645510678
 30
0.0
 10
11.6496599603
 20
9.8563970542
 30
0.0
 10
11.650515963
 20
9.8400773583
 30
0.0
 10
11.6543194648
 20
9.815874346
 30
0.0
 10
11.6606088531
 20
9.7921967503
 30
0.0
 10
11.6693250449
 20
9.7693094681
 30
0.0
 10
11.6803400122
 20
9.7474444885
 30
0.0
 10
11.6935470999
 20
9.7268391226
 30
0.0
 10
11.7087936543
 20
9.707706739
 30
0.0
 10
11.7259007937
 20
9.6902307693
 30
0.0
 10
11.7447014574
 20
9.6746044445
 30
0.0
 10
11.7649831673
 20
9.6609710627
 30
0.0
 10
11.7865355063
 20
9.6494632977
 30
0.0
 10
11.8091427327
 20
9.6402113291
 30
0.0
 10
11.8325645024
 20
9.6332860489
 30
0.0
 10
11.8565681385
 20
9.6287696208
 30
0.0
 10
11.880907506
 20
9.6267130451
 30
0.0
 10
11.9053339332
 20
9.6271203521
 30
0.0
 10
11.9295971302
 20
9.6300136763
 30
0.0
 10
11.9534462679
 20
9.6353552876
 30
0.0
 10
11.9766383907
 20
9.6430879272
 30
0.0
 10
11.9989227661
 20
9.653158422
 30
0.0
 10
12.0200737551
 20
9.6654450858
 30
0.0
 10
12.0398651915
 20
9.6798332104
 30
0.0
 10
12.0580761858
 20
9.6961851679
 30
0.0
 10
12.0745284412
 20
9.714314091
 30
0.0
 10
12.0890289886
 20
9.7340470493
 30
0.0
 10
12.1014222409
 20
9.7551721475
 30
0.0
 10
12.1115883316
 20
9.7774600346
 30
0.0
 10
12.1193910433
 20
9.8006850966
 30
0.0
 10
12.1247632955
 20
9.8245910972
 30
0.0
 10
12.1276463745
 20
9.8489262636
 30
0.0
 10
12.1279878357
 20
9.8734269633
 30
0.0
 10
12.1265347384
 20
9.8897041636
 30
0.0
 10
12.1253914604
 20
9.897777562
 30
0.0
  0
SPLINE
  5
301
100
AcDbEntity
  8
0
100
AcDbSpline
 62
9
  6
CONTINUOUS
 70
0
 71
3
 72
39
 73
35
 74
0
 42
0.0000001
 43
0.0000001
 44
0.0000000001
 40
0.0
 40
0.0
 40
0.0
 40
0.0
 40
0.0312807131
 40
0.0625403969
 40
0.0937793664
 40
0.1250020113
 40
0.1562110971
 40
0.1874077407
 40
0.2185961492
 40
0.2497770623
 40
0.2809519297
 40
0.3121242923
 40
0.3432933605
 40
0.3744605089
 40
0.4056278716
 40
0.4367942212
 40
0.4679621908
 40
0.4991341934
 40
0.5303105487
 40
0.5614952217
 40
0.592689351
 40
0.6238938033
 40
0.6551127084
 40
0.6863465599
 40
0.7175974374
 40
0.7488690776
 40
0.7801616326
 40
0.8114782263
 40
0.8428214227
 40
0.8741916505
 40
0.9055930396
 40
0.937026922
 40
0.9684945715
 40
1.0
 40
1.0
 40
1.0
 40
1.0
 10
11.961975279
 20
10.1196836087
 30
0.0
 10
11.9704605838
 20
10.1173428658
 30
0.0
 10
11.9872037803
 20
10.1118128922
 30
0.0
 10
12.0113587299
 20
10.1010852497
 30
0.0
 10
12.0343208651
 20
10.0880237494
 30
0.0
 10
12.0558530747
 20
10.0727456774
 30
0.0
 10
12.0757616522
 20
10.0554232393
 30
0.0
 10
12.0938432934
 20
10.0362138692
 30
0.0
 10
12.1099174092
 20
10.0153064997
 30
0.0
 10
12.1238432772
 20
9.9929178673
 30
0.0
 10
12.135463379
 20
9.9692547196
 30
0.0
 10
12.1446712553
 20
9.9445571736
 30
0.0
 10
12.1513882378
 20
9.919070936
 30
0.0
 10
12.1555226703
 20
9.8930419389
 30
0.0
 10
12.1570539738
 20
9.8667326613
 30
0.0
 10
12.1559665123
 20
9.8404002949
 30
0.0
 10
12.152249808
 20
9.8143077527
 30
0.0
 10
12.1459664262
 20
9.7887094084
 30
0.0
 10
12.1371658106
 20
9.763857968
 30
0.0
 10
12.1259260605
 20
9.7400039709
 30
0.0
 10
12.1123781046
 20
9.7173719069
 30
0.0
 10
12.0966352107
 20
9.696195009
 30
0.0
 10
12.0788555722
 20
9.6766825757
 30
0.0
 10
12.0592235228
 20
9.6590150803
 30
0.0
 10
12.037913377
 20
9.6433869509
 30
0.0
 10
12.0151443987
 20
9.6299420225
 30
0.0
 10
11.9911392717
 20
9.6188083326
 30
0.0
 10
11.966123519
 20
9.6101201704
 30
0.0
 10
11.9403502415
 20
9.6039446307
 30
0.0
 10
11.9140669243
 20
9.6003531089
 30
0.0
 10
11.8875313775
 20
9.5994015949
 30
0.0
 10
11.8610039522
 20
9.6010811873
 30
0.0
 10
11.8347487042
 20
9.605398985
 30
0.0
 10
11.8176041076
 20
9.6100145866
 30
0.0
 10
11.809168248
 20
9.6127409294
 30
0.0
  0
LINE
  5
302
100
AcDbEntity
  8
0
100
AcDbLine
 62
9
  6
CONTINUOUS
 10
11.1817973917
 20
10.2303596315
 11
11.1925789234
 21
10.2293245288
  0
SPLINE
  5
303
100
AcDbEntity
  8
0
100
AcDbSpline
 62
9
  6
CONTINUOUS
 70
0
 71
3
 72
30
 73
26
 74
0
 42
0.0000001
 43
0.0000001
 44
0.0000000001
 40
0.0
 40
0.0
 40
0.0
 40
0.0
 40
0.0022907659
 40
0.0047355734
 40
0.0074531529
 40
0.0105305096
 40
0.0140276243
 40
0.0179851973
 40
0.0273785567
 40
0.0388401
 40
0.0524199503
 40
0.068136485
 40
0.0859874993
 40
0.1059540778
 40
0.1280108669
 40
0.1521251391
 40
0.1782387088
 40
0.2361871918
 40
0.3013473052
 40
0.3732466332
 40
0.4511794115
 40
0.5343102734
 40
0.6218761124
 40
0.8071807493
 40
1.0
 40
1.0
 40
1.0
 40
1.0
 10
10.817445608
 20
10.2303596352
 30
0.0
 10
10.8174765188
 20
10.2306388734
 30
0.0
 10
10.8176182907
 20
10.2312098193
 30
0.0
 10
10.8180508985
 20
10.2320232434
 30
0.0
 10
10.8186979055
 20
10.2328065697
 30
0.0
 10
10.8195555259
 20
10.2335624078
 30
0.0
 10
10.8206231968
 20
10.2342937528
 30
0.0
 10
10.8224333652
 20
10.235295071
 30
0.0
 10
10.8252567793
 20
10.2364533491
 30
0.0
 10
10.8292993239
 20
10.2376859487
 30
0.0
 10
10.8341693056
 20
10.2388256505
 30
0.0
 10
10.8398582624
 20
10.239868897
 30
0.0
 10
10.8463570064
 20
10.2408115326
 30
0.0
 10
10.8536529538
 20
10.2416499182
 30
0.0
 10
10.8617319172
 20
10.2423802661
 30
0.0
 10
10.8705759501
 20
10.2429988211
 30
0.0
 10
10.8838249086
 20
10.243699142
 30
0.0
 10
10.9021192453
 20
10.2442641441
 30
0.0
 10
10.9260358542
 20
10.2444826727
 30
0.0
 10
10.9524029991
 20
10.2442238733
 30
0.0
 10
10.9809658539
 20
10.2435060289
 30
0.0
 10
11.0114374612
 20
10.2423611096
 30
0.0
 10
11.0550464207
 20
10.2402184169
 30
0.0
 10
11.1120396246
 20
10.23645589
 30
0.0
 10
11.1582519886
 20
10.2325570615
 30
0.0
 10
11.1817973912
 20
10.2303596373
 30
0.0
  0
SPLINE
  5
304
100
AcDbEntity
  8
0
100
AcDbSpline
 62
9
  6
CONTINUOUS
 70
0
 71
3
 72
15
 73
11
 74
0
 42
0.0000001
 43
0.0000001
 44
0.0000000001
 40
0.0
 40
0.0
 40
0.0
 40
0.0
 40
0.0248879979
 40
0.0561485037
 40
0.1379816047
 40
0.2451417481
 40
0.3743187299
 40
0.520973793
 40
0.6786105771
 40
1.0
 40
1.0
 40
1.0
 40
1.0
 10
11.1817973912
 20
10.2303596373
 30
0.0
 10
11.1818010759
 20
10.2298026826
 30
0.0
 10
11.1817911739
 20
10.2285460609
 30
0.0
 10
11.1817168431
 20
10.2254590101
 30
0.0
 10
11.1815084959
 20
10.22053403
 30
0.0
 10
11.1811152396
 20
10.2134245182
 30
0.0
 10
11.1805648928
 20
10.2048711395
 30
0.0
 10
11.179873545
 20
10.195195178
 30
0.0
 10
11.1787987745
 20
10.1812343588
 30
0.0
 10
11.1778986535
 20
10.1705519312
 30
0.0
 10
11.1772657296
 20
10.1633874813
 30
0.0
  0
SPLINE
  5
305
100
AcDbEntity
  8
0
100
AcDbSpline
 62
9
  6
CONTINUOUS
 70
0
 71
3
 72
15
 73
11
 74
0
 42
0.0000001
 43
0.0000001
 44
0.0000000001
 40
0.0
 40
0.0
 40
0.0
 40
0.0
 40
0.2433377079
 40
0.3069476015
 40
0.371215577
 40
0.5006216217
 40
0.6299333249
 40
0.6940884262
 40
0.7575466391
 40
1.0
 40
1.0
 40
1.0
 40
1.0
 10
10.8174456082
 20
10.230359636
 30
0.0
 10
10.8244475655
 20
10.2283388248
 30
0.0
 10
10.8329684442
 20
10.2243637331
 30
0.0
 10
10.8419173839
 20
10.2177625707
 30
0.0
 10
10.8477344827
 20
10.2126965881
 30
0.0
 10
10.8542359729
 20
10.2054700815
 30
0.0
 10
10.8594179974
 20
10.1972496686
 30
0.0
 10
10.862702003
 20
10.1902816279
 30
0.0
 10
10.8665988557
 20
10.1799034052
 30
0.0
 10
10.8680854152
 20
10.1706487098
 30
0.0
 10
10.8681030075
 20
10.1633874813
 30
0.0
  0
SPLINE
  5
306
100
AcDbEntity
  8
0
100
AcDbSpline
 62
9
  6
CONTINUOUS
 70
0
 71
3
 72
15
 73
11
 74
0
 42
0.0000001
 43
0.0000001
 44
0.0000000001
 40
0.0
 40
0.0
 40
0.0
 40
0.0
 40
0.2434123627
 40
0.3070215893
 40
0.3712822654
 40
0.5006585444
 40
0.6299342764
 40
0.6940746532
 40
0.7575224565
 40
1.0
 40
1.0
 40
1.0
 40
1.0
 10
10.8173925797
 20
10.2293245348
 30
0.0
 10
10.8243964345
 20
10.2273130495
 30
0.0
 10
10.8329213933
 20
10.2233487523
 30
0.0
 10
10.8418727245
 20
10.2167550456
 30
0.0
 10
10.8476888095
 20
10.2116943861
 30
0.0
 10
10.8541867226
 20
10.2044725307
 30
0.0
 10
10.8593606579
 20
10.1962541658
 30
0.0
 10
10.8626352752
 20
10.1892871653
 30
0.0
 10
10.8665166494
 20
10.1789079704
 30
0.0
 10
10.8679834899
 20
10.1696523058
 30
0.0
 10
10.8679834891
 20
10.1623933128
 30
0.0
  0
SPLINE
  5
307
100
AcDbEntity
  8
0
100
AcDbSpline
 62
9
  6
CONTINUOUS
 70
0
 71
3
 72
10
 73
6
 74
0
 42
0.0000001
 43
0.0000001
 44
0.0000000001
 40
0.0
 40
0.0
 40
0.0
 40
0.0
 40
0.5059961366
 40
0.7550169754
 40
1.0
 40
1.0
 40
1.0
 40
1.0
 10
10.7804882995
 20
9.4583325875
 30
0.0
 10
10.7731796777
 20
9.4739643232
 30
0.0
 10
10.7647367745
 20
9.4984451047
 30
0.0
 10
10.7563443418
 20
9.5314907693
 30
0.0
 10
10.7528800349
 20
9.5479849952
 30
0.0
 10
10.751276322
 20
9.5561842591
 30
0.0
  0
SPLINE
  5
308
100
AcDbEntity
  8
0
100
AcDbSpline
 62
9
  6
CONTINUOUS
 70
0
 71
3
 72
9
 73
5
 74
0
 42
0.0000001
 43
0.0000001
 44
0.0000000001
 40
0.0
 40
0.0
 40
0.0
 40
0.0
 40
0.5181658479
 40
1.0
 40
1.0
 40
1.0
 40
1.0
 10
10.7804876086
 20
9.4583320265
 30
0.0
 10
10.7849944754
 20
9.4599562371
 30
0.0
 10
10.793623094
 20
9.4632852933
 30
0.0
 10
10.8020902663
 20
9.467010437
 30
0.0
 10
10.806108964
 20
9.4689325438
 30
0.0
  0
SPLINE
  5
309
100
AcDbEntity
  8
0
100
AcDbSpline
 62
9
  6
CONTINUOUS
 70
0
 71
3
 72
9
 73
5
 74
0
 42
0.0000001
 43
0.0000001
 44
0.0000000001
 40
0.0
 40
0.0
 40
0.0
 40
0.0
 40
0.2481795374
 40
1.0
 40
1.0
 40
1.0
 40
1.0
 10
10.7804875255
 20
9.4583321999
 30
0.0
 10
10.7833508204
 20
9.4523625829
 30
0.0
 10
10.7950322172
 20
9.4283780233
 30
0.0
 10
10.8072005015
 20
9.4046336036
 30
0.0
 10
10.8164835404
 20
9.3868546009
 30
0.0
  0
SPLINE
  5
30A
100
AcDbEntity
  8
0
100
AcDbSpline
 62
9
  6
CONTINUOUS
 70
0
 71
3
 72
9
 73
5
 74
0
 42
0.0000001
 43
0.0000001
 44
0.0000000001
 40
0.0
 40
0.0
 40
0.0
 40
0.0
 40
0.4939501551
 40
1.0
 40
1.0
 40
1.0
 40
1.0
 10
10.668704532
 20
9.5562287874
 30
0.0
 10
10.6654725464
 20
9.5396906145
 30
0.0
 10
10.6579720522
 20
9.5063953069
 30
0.0
 10
10.646796598
 20
9.4739686574
 30
0.0
 10
10.6394786819
 20
9.4583325815
 30
0.0
  0
SPLINE
  5
30B
100
AcDbEntity
  8
0
100
AcDbSpline
 62
9
  6
CONTINUOUS
 70
0
 71
3
 72
9
 73
5
 74
0
 42
0.0000001
 43
0.0000001
 44
0.0000000001
 40
0.0
 40
0.0
 40
0.0
 40
0.0
 40
0.251613823
 40
1.0
 40
1.0
 40
1.0
 40
1.0
 10
10.6034833679
 20
9.3868546411
 30
0.0
 10
10.6065901304
 20
9.392804744
 30
0.0
 10
10.6188761241
 20
9.4164840978
 30
0.0
 10
10.630845202
 20
9.4403309487
 30
0.0
 10
10.6394793847
 20
9.4583322335
 30
0.0
  0
SPLINE
  5
30C
100
AcDbEntity
  8
0
100
AcDbSpline
 62
9
  6
CONTINUOUS
 70
0
 71
3
 72
9
 73
5
 74
0
 42
0.0000001
 43
0.0000001
 44
0.0000000001
 40
0.0
 40
0.0
 40
0.0
 40
0.0
 40
0.5299932397
 40
1.0
 40
1.0
 40
1.0
 40
1.0
 10
10.6394780362
 20
9.4583321034
 30
0.0
 10
10.6348684463
 20
9.4599917555
 30
0.0
 10
10.6262408396
 20
9.4633205719
 30
0.0
 10
10.6177768956
 20
9.4670491366
 30
0.0
 10
10.6138566591
 20
9.4689222529
 30
0.0
  0
SPLINE
  5
30D
100
AcDbEntity
  8
0
100
AcDbSpline
 62
9
  6
CONTINUOUS
 70
0
 71
3
 72
14
 73
10
 74
0
 42
0.0000001
 43
0.0000001
 44
0.0000000001
 40
0.0
 40
0.0
 40
0.0
 40
0.0
 40
0.3337464465
 40
0.4893265506
 40
0.6317238519
 40
0.7570841297
 40
0.8620298683
 40
0.9437403833
 40
1.0
 40
1.0
 40
1.0
 40
1.0
 10
10.6979134815
 20
9.8645152012
 30
0.0
 10
10.6979267103
 20
9.8984243082
 30
0.0
 10
10.6979202511
 20
9.9481405894
 30
0.0
 10
10.6978552942
 20
10.0123245931
 30
0.0
 10
10.6977825789
 20
10.0553362431
 30
0.0
 10
10.6976869109
 20
10.0932033051
 30
0.0
 10
10.6975726623
 20
10.124904442
 30
0.0
 10
10.6974414343
 20
10.1495846704
 30
0.0
 10
10.6973324883
 20
10.1636022883
 30
0.0
 10
10.6972629831
 20
10.1693179221
 30
0.0
  0
SPLINE
  5
30E
100
AcDbEntity
  8
0
100
AcDbSpline
 62
9
  6
CONTINUOUS
 70
0
 71
3
 72
15
 73
11
 74
0
 42
0.0000001
 43
0.0000001
 44
0.0000000001
 40
0.0
 40
0.0
 40
0.0
 40
0.0
 40
0.0248307204
 40
0.0562603843
 40
0.1379709651
 40
0.2429164382
 40
0.3682763406
 40
0.5106733193
 40
0.6662532619
 40
1.0
 40
1.0
 40
1.0
 40
1.0
 10
10.7228121456
 20
10.1693179221
 30
0.0
 10
10.7227745102
 20
10.1667953597
 30
0.0
 10
10.7227046778
 20
10.1610796189
 30
0.0
 10
10.7225712686
 20
10.1470621646
 30
0.0
 10
10.7224225651
 20
10.1249047502
 30
0.0
 10
10.7222685238
 20
10.0932037713
 30
0.0
 10
10.7221345706
 20
10.0553368086
 30
0.0
 10
10.7220241871
 20
10.0123252088
 30
0.0
 10
10.7219110434
 20
9.9481411123
 30
0.0
 10
10.7218752372
 20
9.8984246885
 30
0.0
 10
10.7218714208
 20
9.8645154561
 30
0.0
  0
SPLINE
  5
30F
100
AcDbEntity
  8
0
100
AcDbSpline
 62
9
  6
CONTINUOUS
 70
0
 71
3
 72
41
 73
37
 74
0
 42
0.0000001
 43
0.0000001
 44
0.0000000001
 40
0.0
 40
0.0
 40
0.0
 40
0.0
 40
0.0979619289
 40
0.1950856281
 40
0.2902937863
 40
0.3826789185
 40
0.471383374
 40
0.5555596697
 40
0.6343773175
 40
0.7070873503
 40
0.7729833766
 40
0.8031793024
 40
0.8314422604
 40
0.8576992456
 40
0.8818879402
 40
0.9039547687
 40
0.9238464167
 40
0.9415099773
 40
0.9569028541
 40
0.9637378694
 40
0.9699934221
 40
0.975665631
 40
0.9807506195
 40
0.9852445181
 40
0.9891436851
 40
0.9924463046
 40
0.9951514956
 40
0.9962798057
 40
0.997258473
 40
0.9980874317
 40
0.9987666521
 40
0.9992961822
 40
0.99967627
 40
0.9999078791
 40
0.9999695146
 40
1.0
 40
1.0
 40
1.0
 40
1.0
 10
10.7218714208
 20
9.8645154561
 30
0.0
 10
10.721871044
 20
9.8542274914
 30
0.0
 10
10.7218743658
 20
9.8337395925
 30
0.0
 10
10.7218910534
 20
9.8032529342
 30
0.0
 10
10.7219189857
 20
9.7733519596
 30
0.0
 10
10.7219579042
 20
9.7443351872
 30
0.0
 10
10.7220075779
 20
9.7164769995
 30
0.0
 10
10.7220674272
 20
9.6900436927
 30
0.0
 10
10.7221368877
 20
9.66529015
 30
0.0
 10
10.7222151925
 20
9.6424564384
 30
0.0
 10
10.7222891613
 20
9.6247290009
 30
0.0
 10
10.7223529722
 20
9.6116693999
 30
0.0
 10
10.722401146
 20
9.6027726667
 30
0.0
 10
10.7224509296
 20
9.5945068325
 30
0.0
 10
10.7225021945
 20
9.5868917385
 30
0.0
 10
10.7225547887
 20
9.5799451588
 30
0.0
 10
10.7226085546
 20
9.5736838801
 30
0.0
 10
10.7226633606
 20
9.568123539
 30
0.0
 10
10.7227114455
 20
9.5639344105
 30
0.0
 10
10.7227508892
 20
9.5609433376
 30
0.0
 10
10.7227794642
 20
9.5589730767
 30
0.0
 10
10.7228081895
 20
9.5571866272
 30
0.0
 10
10.7228370383
 20
9.5555852153
 30
0.0
 10
10.7228659785
 20
9.5541700437
 30
0.0
 10
10.7228949628
 20
9.5529421022
 30
0.0
 10
10.7229239568
 20
9.5519020699
 30
0.0
 10
10.7229492871
 20
9.5511530588
 30
0.0
 10
10.7229701368
 20
9.5506481042
 30
0.0
 10
10.7229847795
 20
9.5503401369
 30
0.0
 10
10.7229994021
 20
9.5500793164
 30
0.0
 10
10.7230138419
 20
9.5498659564
 30
0.0
 10
10.7230283273
 20
9.5496992986
 30
0.0
 10
10.7230418552
 20
9.549581137
 30
0.0
 10
10.7230549169
 20
9.5495098595
 30
0.0
 10
10.7230648289
 20
9.5494789699
 30
0.0
 10
10.7230719385
 20
9.5494698223
 30
0.0
 10
10.7230751394
 20
9.5494697593
 30
0.0
  0
SPLINE
  5
310
100
AcDbEntity
  8
0
100
AcDbSpline
 62
9
  6
CONTINUOUS
 70
0
 71
3
 72
14
 73
10
 74
0
 42
0.0000001
 43
0.0000001
 44
0.0000000001
 40
0.0
 40
0.0
 40
0.0
 40
0.0
 40
0.1170290576
 40
0.2392827629
 40
0.3657815678
 40
0.4948381841
 40
0.6247305426
 40
0.7535770954
 40
1.0
 40
1.0
 40
1.0
 40
1.0
 10
10.6300131571
 20
10.1196838925
 30
0.0
 10
10.6309789095
 20
10.1230370117
 30
0.0
 10
10.6335083184
 20
10.1297448869
 30
0.0
 10
10.6389426868
 20
10.1392551653
 30
0.0
 10
10.6461161102
 20
10.1480083722
 30
0.0
 10
10.6547814715
 20
10.1556374736
 30
0.0
 10
10.6646754696
 20
10.1617303687
 30
0.0
 10
10.6786318278
 20
10.1675151917
 30
0.0
 10
10.6899154493
 20
10.1692892836
 30
0.0
 10
10.6972629212
 20
10.1693178596
 30
0.0
  0
SPLINE
  5
311
100
AcDbEntity
  8
0
100
AcDbSpline
 62
9
  6
CONTINUOUS
 70
0
 71
3
 72
11
 73
7
 74
0
 42
0.0000001
 43
0.0000001
 44
0.0000000001
 40
0.0
 40
0.0
 40
0.0
 40
0.0
 40
0.1404129616
 40
0.3468129361
 40
0.6308801571
 40
1.0
 40
1.0
 40
1.0
 40
1.0
 10
11.8033124605
 20
7.7314971193
 30
0.0
 10
11.8031668105
 20
7.7316539292
 30
0.0
 10
11.8026979753
 20
7.7319293184
 30
0.0
 10
11.8017835554
 20
7.7322235946
 30
0.0
 10
11.8004965445
 20
7.7324855663
 30
0.0
 10
11.7995100472
 20
7.7326193993
 30
0.0
 10
11.7989513162
 20
7.7326853632
 30
0.0
  0
SPLINE
  5
312
100
AcDbEntity
  8
0
100
AcDbSpline
 62
9
  6
CONTINUOUS
 70
0
 71
3
 72
15
 73
11
 74
0
 42
0.0000001
 43
0.0000001
 44
0.0000000001
 40
0.0
 40
0.0
 40
0.0
 40
0.0
 40
0.02743447
 40
0.0610165618
 40
0.1464416359
 40
0.2546349314
 40
0.3823235336
 40
0.5249212357
 40
0.6778946013
 40
1.0
 40
1.0
 40
1.0
 40
1.0
 10
11.7989513162
 20
7.7326853632
 30
0.0
 10
11.79813954
 20
7.7327812017
 30
0.0
 10
11.7963285723
 20
7.732947445
 30
0.0
 10
11.7919726272
 20
7.733207348
 30
0.0
 10
11.785202485
 20
7.7333482284
 30
0.0
 10
11.7756288958
 20
7.7332778468
 30
0.0
 10
11.764355356
 20
7.7329812093
 30
0.0
 10
11.7517541725
 20
7.7324741946
 30
0.0
 10
11.7333743118
 20
7.7315329011
 30
0.0
 10
11.7192464705
 20
7.7306429645
 30
0.0
 10
11.7096736821
 20
7.7299592083
 30
0.0
  0
SPLINE
  5
313
100
AcDbEntity
  8
0
100
AcDbSpline
 62
9
  6
CONTINUOUS
 70
0
 71
3
 72
12
 73
8
 74
0
 42
0.0000001
 43
0.0000001
 44
0.0000000001
 40
0.0
 40
0.0
 40
0.0
 40
0.0
 40
0.1232209704
 40
0.2491992858
 40
0.5037075
 40
0.7562726545
 40
1.0
 40
1.0
 40
1.0
 40
1.0
 10
10.6025745257
 20
10.0943826988
 30
0.0
 10
10.604154502
 20
10.094823971
 30
0.0
 10
10.6072961493
 20
10.0959230555
 30
0.0
 10
10.6133231413
 20
10.0988865203
 30
0.0
 10
10.6201818812
 20
10.1039632837
 30
0.0
 10
10.6263999643
 20
10.111924942
 30
0.0
 10
10.6291081745
 20
10.1180421559
 30
0.0
 10
10.6300080857
 20
10.1211596088
 30
0.0
  0
SPLINE
  5
314
100
AcDbEntity
  8
0
100
AcDbSpline
 62
9
  6
CONTINUOUS
 70
0
 71
3
 72
45
 73
41
 74
0
 42
0.0000001
 43
0.0000001
 44
0.0000000001
 40
0.0
 40
0.0
 40
0.0
 40
0.0
 40
0.0322406837
 40
0.0792574568
 40
0.1395374633
 40
0.2111447944
 40
0.2917649728
 40
0.3788142343
 40
0.4694815943
 40
0.5608361175
 40
0.6499349654
 40
0.6927337273
 40
0.7339028336
 40
0.7731148506
 40
0.8100440791
 40
0.8443935703
 40
0.8758944835
 40
0.9042802636
 40
0.9293191443
 40
0.9508202137
 40
0.9601851409
 40
0.9685956601
 40
0.9760358602
 40
0.9824935177
 40
0.9879564481
 40
0.9903110853
 40
0.9924124758
 40
0.9942591002
 40
0.9958494419
 40
0.9971819909
 40
0.9982556728
 40
0.9990704062
 40
0.999626303
 40
0.999807289
 40
0.9998735903
 40
0.9999238136
 40
0.9999580636
 40
0.9999767163
 40
0.9999835665
 40
1.0
 40
1.0
 40
1.0
 40
1.0
 10
10.6300130734
 20
10.119683605
 30
0.0
 10
10.6300526766
 20
10.1140966172
 30
0.0
 10
10.6301118128
 20
10.1003618432
 30
0.0
 10
10.6301775561
 20
10.0761808861
 30
0.0
 10
10.6302299294
 20
10.0451778514
 30
0.0
 10
10.6302721782
 20
10.0083515255
 30
0.0
 10
10.6303028184
 20
9.9668862238
 30
0.0
 10
10.6303221278
 20
9.9221179209
 30
0.0
 10
10.6303305973
 20
9.8754894132
 30
0.0
 10
10.630328279
 20
9.8285057232
 30
0.0
 10
10.6303171805
 20
9.789817392
 30
0.0
 10
10.6303022976
 20
9.7598259122
 30
0.0
 10
10.6302883896
 20
9.738479539
 30
0.0
 10
10.6302715309
 20
9.7181503252
 30
0.0
 10
10.6302516578
 20
9.6990029155
 30
0.0
 10
10.6302287029
 20
9.6811918008
 30
0.0
 10
10.6302026083
 20
9.6648612234
 30
0.0
 10
10.6301733134
 20
9.6501441303
 30
0.0
 10
10.6301407485
 20
9.6371599651
 30
0.0
 10
10.6301097095
 20
9.6274720143
 30
0.0
 10
10.6300824189
 20
9.6206656705
 30
0.0
 10
10.6300620335
 20
9.6162959887
 30
0.0
 10
10.6300408036
 20
9.6124301308
 30
0.0
 10
10.6300187445
 20
9.6090750875
 30
0.0
 10
10.6299988747
 20
9.6066013501
 30
0.0
 10
10.6299821632
 20
9.6048825312
 30
0.0
 10
10.6299700526
 20
9.6037903849
 30
0.0
 10
10.6299577499
 20
9.6028306945
 30
0.0
 10
10.6299452633
 20
9.6020042661
 30
0.0
 10
10.6299326377
 20
9.6013117726
 30
0.0
 10
10.6299198738
 20
9.6007538044
 30
0.0
 10
10.6299072259
 20
9.6003302454
 30
0.0
 10
10.6298956076
 20
9.6000619045
 30
0.0
 10
10.6298865366
 20
9.5999226337
 30
0.0
 10
10.6298811557
 20
9.59987169
 30
0.0
 10
10.6298785292
 20
9.5998450801
 30
0.0
 10
10.6298738805
 20
9.5998289462
 30
0.0
 10
10.62987326
 20
9.5998166078
 30
0.0
 10
10.6298645786
 20
9.5998146463
 30
0.0
 10
10.6298642346
 20
9.5998207722
 30
0.0
 10
10.6298634316
 20
9.5998235044
 30
0.0
  0
SPLINE
  5
315
100
AcDbEntity
  8
0
100
AcDbSpline
 62
9
  6
CONTINUOUS
 70
0
 71
3
 72
15
 73
11
 74
0
 42
0.0000001
 43
0.0000001
 44
0.0000000001
 40
0.0
 40
0.0
 40
0.0
 40
0.0
 40
0.1268940281
 40
0.2534333807
 40
0.3792476196
 40
0.5044219648
 40
0.628965704
 40
0.7529635528
 40
0.8766715118
 40
1.0
 40
1.0
 40
1.0
 40
1.0
 10
10.6025743855
 20
10.0943842144
 30
0.0
 10
10.5989713114
 20
10.0933781577
 30
0.0
 10
10.591921157
 20
10.0907975457
 30
0.0
 10
10.5821135183
 20
10.0853376588
 30
0.0
 10
10.5733354916
 20
10.0784167222
 30
0.0
 10
10.5658216314
 20
10.0702208055
 30
0.0
 10
10.5597574533
 20
10.0609641526
 30
0.0
 10
10.5553076538
 20
10.0508770295
 30
0.0
 10
10.5525961915
 20
10.040230803
 30
0.0
 10
10.5519834886
 20
10.0329340163
 30
0.0
 10
10.5519834895
 20
10.0292982354
 30
0.0
  0
SPLINE
  5
316
100
AcDbEntity
  8
0
100
AcDbSpline
 62
9
  6
CONTINUOUS
 70
0
 71
3
 72
15
 73
11
 74
0
 42
0.0000001
 43
0.0000001
 44
0.0000000001
 40
0.0
 40
0.0
 40
0.0
 40
0.0
 40
0.2434123678
 40
0.307021596
 40
0.3712822737
 40
0.500658555
 40
0.629934288
 40
0.6940746644
 40
0.7575224668
 40
1.0
 40
1.0
 40
1.0
 40
1.0
 10
10.6025743983
 20
10.2293245347
 30
0.0
 10
10.5955705421
 20
10.227313049
 30
0.0
 10
10.5870455815
 20
10.2233487506
 30
0.0
 10
10.578094249
 20
10.2167550418
 30
0.0
 10
10.5722781633
 20
10.2116943808
 30
0.0
 10
10.5657802498
 20
10.2044725232
 30
0.0
 10
10.5606063148
 20
10.1962541558
 30
0.0
 10
10.5573316981
 20
10.1892871535
 30
0.0
 10
10.5534503253
 20
10.1789079562
 30
0.0
 10
10.5519834865
 20
10.1696522899
 30
0.0
 10
10.5519834892
 20
10.1623932959
 30
0.0
  0
SPLINE
  5
317
100
AcDbEntity
  8
0
100
AcDbSpline
 62
9
  6
CONTINUOUS
 70
0
 71
3
 72
30
 73
26
 74
0
 42
0.0000001
 43
0.0000001
 44
0.0000000001
 40
0.0
 40
0.0
 40
0.0
 40
0.0
 40
0.1927387609
 40
0.3779809232
 40
0.4655600653
 40
0.54866311
 40
0.6265085124
 40
0.6983744602
 40
0.7636098366
 40
0.8216276929
 40
0.8477636251
 40
0.8719047095
 40
0.8939941233
 40
0.9139817389
 40
0.9318432851
 40
0.9475678191
 40
0.9611537898
 40
0.972616324
 40
0.9820078162
 40
0.9859663798
 40
0.9894654513
 40
0.9925450031
 40
0.9952643066
 40
0.997709794
 40
1.0
 40
1.0
 40
1.0
 40
1.0
 10
10.2381695931
 20
10.230359656
 30
0.0
 10
10.2617050728
 20
10.2325567116
 30
0.0
 10
10.3078998808
 20
10.2364554227
 30
0.0
 10
10.3648777307
 20
10.2402049221
 30
0.0
 10
10.4084760834
 20
10.242368173
 30
0.0
 10
10.4389349333
 20
10.2435206268
 30
0.0
 10
10.4674799699
 20
10.2442229233
 30
0.0
 10
10.4938414685
 20
10.2444709197
 30
0.0
 10
10.5177717151
 20
10.2442650408
 30
0.0
 10
10.5360867563
 20
10.2437053908
 30
0.0
 10
10.5493502181
 20
10.2430043208
 30
0.0
 10
10.5582042773
 20
10.2423857805
 30
0.0
 10
10.5662933253
 20
10.2416576011
 30
0.0
 10
10.5735973042
 20
10.2408201225
 30
0.0
 10
10.5801008853
 20
10.2398770176
 30
0.0
 10
10.585792677
 20
10.238832427
 30
0.0
 10
10.5906641164
 20
10.2376908419
 30
0.0
 10
10.5947066896
 20
10.2364559221
 30
0.0
 10
10.5975290102
 20
10.2352950538
 30
0.0
 10
10.5993389241
 20
10.234293067
 30
0.0
 10
10.6004071629
 20
10.2335614731
 30
0.0
 10
10.6012657364
 20
10.2328056661
 30
0.0
 10
10.6019139102
 20
10.2320226054
 30
0.0
 10
10.6023477383
 20
10.2312095881
 30
0.0
 10
10.6024902276
 20
10.2306387801
 30
0.0
 10
10.6025213694
 20
10.2303596371
 30
0.0
  0
SPLINE
  5
318
100
AcDbEntity
  8
0
100
AcDbSpline
 62
9
  6
CONTINUOUS
 70
0
 71
3
 72
15
 73
11
 74
0
 42
0.0000001
 43
0.0000001
 44
0.0000000001
 40
0.0
 40
0.0
 40
0.0
 40
0.0
 40
0.2433989433
 40
0.3070185884
 40
0.3712936936
 40
0.5007056696
 40
0.6300113261
 40
0.6941592586
 40
0.7576077019
 40
1.0
 40
1.0
 40
1.0
 40
1.0
 10
10.6025213694
 20
10.2303596371
 30
0.0
 10
10.5955176479
 20
10.2283383195
 30
0.0
 10
10.5869948561
 20
10.224361927
 30
0.0
 10
10.5780445964
 20
10.2177586084
 30
0.0
 10
10.5722274728
 20
10.2126916071
 30
0.0
 10
10.5657265868
 20
10.2054642657
 30
0.0
 10
10.5605455333
 20
10.1972435014
 30
0.0
 10
10.557262504
 20
10.1902757632
 30
0.0
 10
10.5533673652
 20
10.1798993902
 30
0.0
 10
10.5518815369
 20
10.1706468828
 30
0.0
 10
10.5518639489
 20
10.1633874816
 30
0.0
  0
SPLINE
  5
319
100
AcDbEntity
  8
0
100
AcDbSpline
 62
9
  6
CONTINUOUS
 70
0
 71
3
 72
15
 73
11
 74
0
 42
0.0000001
 43
0.0000001
 44
0.0000000001
 40
0.0
 40
0.0
 40
0.0
 40
0.0
 40
0.0248794363
 40
0.0561288231
 40
0.1379354357
 40
0.2450693483
 40
0.3742282567
 40
0.5208803903
 40
0.6785318809
 40
1.0
 40
1.0
 40
1.0
 40
1.0
 10
10.2381698277
 20
10.2303596377
 30
0.0
 10
10.2381661433
 20
10.2298028749
 30
0.0
 10
10.2381760335
 20
10.2285466941
 30
0.0
 10
10.2382503143
 20
10.2254606768
 30
0.0
 10
10.2384585612
 20
10.2205371244
 30
0.0
 10
10.2388516794
 20
10.2134291943
 30
0.0
 10
10.23940191
 20
10.2048768707
 30
0.0
 10
10.2400932051
 20
10.1952010504
 30
0.0
 10
10.2411680851
 20
10.1812382143
 30
0.0
 10
10.2420683686
 20
10.1705537067
 30
0.0
 10
10.2427014459
 20
10.1633875051
 30
0.0
  0
SPLINE
  5
31A
100
AcDbEntity
  8
0
100
AcDbSpline
 62
9
  6
CONTINUOUS
 70
0
 71
3
 72
15
 73
11
 74
0
 42
0.0000001
 43
0.0000001
 44
0.0000000001
 40
0.0
 40
0.0
 40
0.0
 40
0.0
 40
0.1249491383
 40
0.2499396998
 40
0.3749185264
 40
0.499895599
 40
0.6248968738
 40
0.7499154449
 40
0.8749503598
 40
1.0
 40
1.0
 40
1.0
 40
1.0
 10
10.2339827276
 20
9.8869350243
 30
0.0
 10
10.2156594103
 20
9.9014816062
 30
0.0
 10
10.1771063201
 20
9.9282709046
 30
0.0
 10
10.1147052135
 20
9.9608198066
 30
0.0
 10
10.0486512396
 20
9.9851643556
 30
0.0
 10
9.9800436022
 20
10.0009387405
 30
0.0
 10
9.909972396
 20
10.0077982696
 30
0.0
 10
9.8395831608
 20
10.0056665463
 30
0.0
 10
9.7700584507
 20
9.9944708799
 30
0.0
 10
9.7250195911
 20
9.9811052281
 30
0.0
 10
9.7030537229
 20
9.9729979167
 30
0.0
  0
SPLINE
  5
31B
100
AcDbEntity
  8
0
100
AcDbSpline
 62
9
  6
CONTINUOUS
 70
0
 71
3
 72
39
 73
35
 74
0
 42
0.0000001
 43
0.0000001
 44
0.0000000001
 40
0.0
 40
0.0
 40
0.0
 40
0.0
 40
0.03113337
 40
0.0622866136
 40
0.0934537799
 40
0.1246366006
 40
0.1558384667
 40
0.1870593066
 40
0.2183018773
 40
0.2495647841
 40
0.2808455403
 40
0.3121425484
 40
0.3434489564
 40
0.3747602329
 40
0.4060748946
 40
0.4373890252
 40
0.4687020989
 40
0.5000116378
 40
0.5313145227
 40
0.5626114484
 40
0.5939000133
 40
0.6251797154
 40
0.6564519156
 40
0.6877143927
 40
0.7189686543
 40
0.750215774
 40
0.7814542528
 40
0.8126869493
 40
0.8439142142
 40
0.8751356868
 40
0.9063548735
 40
0.9375711399
 40
0.9687850064
 40
1.0
 40
1.0
 40
1.0
 40
1.0
 10
9.7030514218
 20
9.8645565765
 30
0.0
 10
9.7030503341
 20
9.8588179188
 30
0.0
 10
9.7024562823
 20
9.847328553
 30
0.0
 10
9.6998163684
 20
9.8302774955
 30
0.0
 10
9.6954468672
 20
9.8135737663
 30
0.0
 10
9.6893821513
 20
9.7973995364
 30
0.0
 10
9.6817066464
 20
9.7819139153
 30
0.0
 10
9.6724912158
 20
9.7672788783
 30
0.0
 10
9.6618341081
 20
9.7536443047
 30
0.0
 10
9.6498562797
 20
9.7411387382
 30
0.0
 10
9.6366695789
 20
9.7298994574
 30
0.0
 10
9.6224174243
 20
9.7200332654
 30
0.0
 10
9.6072478314
 20
9.7116335542
 30
0.0
 10
9.591308165
 20
9.7047990402
 30
0.0
 10
9.574766724
 20
9.6995839026
 30
0.0
 10
9.5577870577
 20
9.6960431602
 30
0.0
 10
9.5405391452
 20
9.694222562
 30
0.0
 10
9.5231979012
 20
9.6941243984
 30
0.0
 10
9.5059363848
 20
9.6957626183
 30
0.0
 10
9.4889303726
 20
9.6991229742
 30
0.0
 10
9.4723479463
 20
9.704160733
 30
0.0
 10
9.4563618014
 20
9.7108431561
 30
0.0
 10
9.4411327075
 20
9.7190956714
 30
0.0
 10
9.4268119021
 20
9.7288321568
 30
0.0
 10
9.4135567394
 20
9.7399690089
 30
0.0
 10
9.4014939188
 20
9.7523807181
 30
0.0
 10
9.3907493126
 20
9.7659453766
 30
0.0
 10
9.381444243
 20
9.7805306149
 30
0.0
 10
9.3736602943
 20
9.7959776099
 30
0.0
 10
9.3674891464
 20
9.8121346997
 30
0.0
 10
9.3629977355
 20
9.8288341624
 30
0.0
 10
9.3602189849
 20
9.8459015768
 30
0.0
 10
9.3591993658
 20
9.8631613708
 30
0.0
 10
9.359694411
 20
9.8746813644
 30
0.0
 10
9.3602325369
 20
9.8804098476
 30
0.0
  0
SPLINE
  5
31C
100
AcDbEntity
  8
0
100
AcDbSpline
 62
9
  6
CONTINUOUS
 70
0
 71
3
 72
15
 73
11
 74
0
 42
0.0000001
 43
0.0000001
 44
0.0000000001
 40
0.0
 40
0.0
 40
0.0
 40
0.0
 40
0.1250334177
 40
0.2501193839
 40
0.3752035774
 40
0.5002381361
 40
0.6252287171
 40
0.7501935782
 40
0.8751181832
 40
1.0
 40
1.0
 40
1.0
 40
1.0
 10
10.1921629436
 20
9.8342636264
 30
0.0
 10
10.1786207652
 20
9.8450144657
 30
0.0
 10
10.1503415298
 20
9.8650676159
 30
0.0
 10
10.1049834616
 20
9.8904540865
 30
0.0
 10
10.0571885892
 20
9.9109024935
 30
0.0
 10
10.0074954904
 20
9.9261330886
 30
0.0
 10
9.9564561562
 20
9.9358644084
 30
0.0
 10
9.9046841731
 20
9.9400646846
 30
0.0
 10
9.8527803643
 20
9.9387075815
 30
0.0
 10
9.8184652102
 20
9.9340717586
 30
0.0
 10
9.8015042704
 20
9.9308201271
 30
0.0
  0
SPLINE
  5
31D
100
AcDbEntity
  8
0
100
AcDbSpline
 62
9
  6
CONTINUOUS
 70
0
 71
3
 72
16
 73
12
 74
0
 42
0.0000001
 43
0.0000001
 44
0.0000000001
 40
0.0
 40
0.0
 40
0.0
 40
0.0
 40
0.1440500268
 40
0.2868413529
 40
0.4268985986
 40
0.5627807278
 40
0.6924269969
 40
0.8129088518
 40
0.9184259953
 40
0.9629606932
 40
1.0
 40
1.0
 40
1.0
 40
1.0
 10
9.703053412
 20
9.9729987589
 30
0.0
 10
9.7078129073
 20
9.9710495572
 30
0.0
 10
9.7172911562
 20
9.9671702466
 30
0.0
 10
9.7313750018
 20
9.9613421704
 30
0.0
 10
9.7451529987
 20
9.9555384375
 30
0.0
 10
9.7584695282
 20
9.9498487609
 30
0.0
 10
9.7711158581
 20
9.9443697981
 30
0.0
 10
9.7827422121
 20
9.9392641486
 30
0.0
 10
9.7915586531
 20
9.9353179152
 30
0.0
 10
9.7976362311
 20
9.9325459839
 30
0.0
 10
9.8002918909
 20
9.9313497881
 30
0.0
 10
9.8015036827
 20
9.9308202196
 30
0.0
  0
SPLINE
  5
31E
100
AcDbEntity
  8
0
100
AcDbSpline
 62
9
  6
CONTINUOUS
 70
0
 71
3
 72
13
 73
9
 74
0
 42
0.0000001
 43
0.0000001
 44
0.0000000001
 40
0.0
 40
0.0
 40
0.0
 40
0.0
 40
0.2411409215
 40
0.3694448684
 40
0.4999949812
 40
0.6305458568
 40
0.7588519289
 40
1.0
 40
1.0
 40
1.0
 40
1.0
 10
9.7703075077
 20
9.8930764473
 30
0.0
 10
9.7705730755
 20
9.8972585856
 30
0.0
 10
9.7720097985
 20
9.9036542556
 30
0.0
 10
9.7758326997
 20
9.9114838704
 30
0.0
 10
9.7797203409
 20
9.9170603787
 30
0.0
 10
9.7844652772
 20
9.9219283631
 30
0.0
 10
9.7914353216
 20
9.9271570305
 30
0.0
 10
9.7974462729
 20
9.9297722269
 30
0.0
 10
9.8015037374
 20
9.9308204776
 30
0.0
  0
SPLINE
  5
31F
100
AcDbEntity
  8
0
100
AcDbSpline
 62
9
  6
CONTINUOUS
 70
0
 71
3
 72
10
 73
6
 74
0
 42
0.0000001
 43
0.0000001
 44
0.0000000001
 40
0.0
 40
0.0
 40
0.0
 40
0.0
 40
0.2550939594
 40
0.5075373907
 40
1.0
 40
1.0
 40
1.0
 40
1.0
 10
9.794123097
 20
9.8930767836
 30
0.0
 10
9.7955437632
 20
9.89057481
 30
0.0
 10
9.7984716166
 20
9.8856540007
 30
0.0
 10
9.8045341621
 20
9.8761417639
 30
0.0
 10
9.8092435392
 20
9.8691831728
 30
0.0
 10
9.8123132213
 20
9.8645540441
 30
0.0
  0
SPLINE
  5
320
100
AcDbEntity
  8
0
100
AcDbSpline
 62
9
  6
CONTINUOUS
 70
0
 71
3
 72
25
 73
21
 74
0
 42
0.0000001
 43
0.0000001
 44
0.0000000001
 40
0.0
 40
0.0
 40
0.0
 40
0.0
 40
0.189853175
 40
0.3686123342
 40
0.533765212
 40
0.610114513
 40
0.6816477906
 40
0.747833996
 40
0.8079517571
 40
0.8612108578
 40
0.906821478
 40
0.926513915
 40
0.9440220707
 40
0.9592841987
 40
0.9722399265
 40
0.9828309746
 40
0.9910037889
 40
0.9967180769
 40
0.9986549517
 40
1.0
 40
1.0
 40
1.0
 40
1.0
 10
9.8123141143
 20
9.8645552779
 30
0.0
 10
9.8140381512
 20
9.8620670077
 30
0.0
 10
9.8173576548
 20
9.8572164969
 30
0.0
 10
9.8220736566
 20
9.8501314947
 30
0.0
 10
9.8257044214
 20
9.84449903
 30
0.0
 10
9.8283599527
 20
9.8402727322
 30
0.0
 10
9.8301531458
 20
9.8373683785
 30
0.0
 10
9.8317877037
 20
9.8346703777
 30
0.0
 10
9.8332493887
 20
9.8322084525
 30
0.0
 10
9.8345219041
 20
9.8300159006
 30
0.0
 10
9.8354516834
 20
9.8283698215
 30
0.0
 10
9.8360868653
 20
9.827212205
 30
0.0
 10
9.8364820878
 20
9.826474937
 30
0.0
 10
9.8368186751
 20
9.8258281407
 30
0.0
 10
9.8370952443
 20
9.8252745988
 30
0.0
 10
9.8373111295
 20
9.824817009
 30
0.0
 10
9.8374644179
 20
9.824458281
 30
0.0
 10
9.8375507894
 20
9.8242203131
 30
0.0
 10
9.8375827935
 20
9.8240805822
 30
0.0
 10
9.8375874435
 20
9.8240277758
 30
0.0
 10
9.8375850389
 20
9.8240064645
 30
0.0
  0
SPLINE
  5
321
100
AcDbEntity
  8
0
100
AcDbSpline
 62
9
  6
CONTINUOUS
 70
0
 71
3
 72
31
 73
27
 74
0
 42
0.0000001
 43
0.0000001
 44
0.0000000001
 40
0.0
 40
0.0
 40
0.0
 40
0.0
 40
0.1976635348
 40
0.2947025667
 40
0.3891107877
 40
0.479818645
 40
0.565784861
 40
0.6459751278
 40
0.7193551561
 40
0.7850007351
 40
0.8424146348
 40
0.8912032037
 40
0.912240008
 40
0.9309729209
 40
0.9473695959
 40
0.9614590473
 40
0.9732843311
 40
0.982888604
 40
0.9868714129
 40
0.9903152683
 40
0.9932256818
 40
0.9956082616
 40
0.9974688173
 40
0.9988136644
 40
0.9996508381
 40
1.0
 40
1.0
 40
1.0
 40
1.0
 10
9.457991625
 20
10.1196838923
 30
0.0
 10
9.4571434782
 20
10.1229495299
 30
0.0
 10
9.4558811781
 20
10.1278189474
 30
0.0
 10
9.4542195783
 20
10.1342496002
 30
0.0
 10
9.4530174497
 20
10.1389133547
 30
0.0
 10
9.4518655133
 20
10.1433948625
 30
0.0
 10
9.4507771567
 20
10.147642132
 30
0.0
 10
9.4497656088
 20
10.1516037517
 30
0.0
 10
9.4488435906
 20
10.1552302421
 30
0.0
 10
9.4480215888
 20
10.1584810132
 30
0.0
 10
9.4473070504
 20
10.161325983
 30
0.0
 10
9.4467823179
 20
10.1634335311
 30
0.0
 10
9.4464204887
 20
10.1649012174
 30
0.0
 10
9.4461927252
 20
10.1658324921
 30
0.0
 10
9.4459950539
 20
10.1666490418
 30
0.0
 10
9.4458272316
 20
10.167351503
 30
0.0
 10
9.4456887212
 20
10.1679417507
 30
0.0
 10
9.445591942
 20
10.1683646048
 30
0.0
 10
9.4455290418
 20
10.1686484062
 30
0.0
 10
9.4454918078
 20
10.1688209263
 30
0.0
 10
9.4454615597
 20
10.1689668286
 30
0.0
 10
9.4454377391
 20
10.1690869547
 30
0.0
 10
9.4454214752
 20
10.1691800249
 30
0.0
 10
9.4454095335
 20
10.1692501068
 30
0.0
 10
9.4454079572
 20
10.1692896631
 30
0.0
 10
9.4454051123
 20
10.1693141068
 30
0.0
 10
9.4454097683
 20
10.1693178275
 30
0.0
  0
SPLINE
  5
322
100
AcDbEntity
  8
0
100
AcDbSpline
 62
9
  6
CONTINUOUS
 70
0
 71
3
 72
14
 73
10
 74
0
 42
0.0000001
 43
0.0000001
 44
0.0000000001
 40
0.0
 40
0.0
 40
0.0
 40
0.0
 40
0.2415873261
 40
0.3647471707
 40
0.489422499
 40
0.615528324
 40
0.742869446
 40
0.8711988943
 40
1.0
 40
1.0
 40
1.0
 40
1.0
 10
11.3586270481
 20
8.1195249148
 30
0.0
 10
11.3175200499
 20
8.1946821685
 30
0.0
 10
11.2600149961
 20
8.3107177574
 30
0.0
 10
11.1916158319
 20
8.470238156
 30
0.0
 10
11.1436649348
 20
8.5938911098
 30
0.0
 10
11.0993963123
 20
8.7204756644
 30
0.0
 10
11.0589589506
 20
8.8496954977
 30
0.0
 10
11.0225551622
 20
8.9810999861
 30
0.0
 10
11.0014012369
 20
9.069816983
 30
0.0
 10
10.9917546549
 20
9.1144581868
 30
0.0
  0
LINE
  5
323
100
AcDbEntity
  8
0
100
AcDbLine
 62
9
  6
CONTINUOUS
 10
9.7102629717
 20
7.697891804
 11
9.7102932877
 21
7.729959177
  0
SPLINE
  5
324
100
AcDbEntity
  8
0
100
AcDbSpline
 62
9
  6
CONTINUOUS
 70
0
 71
3
 72
33
 73
29
 74
0
 42
0.0000001
 43
0.0000001
 44
0.0000000001
 40
0.0
 40
0.0
 40
0.0
 40
0.0
 40
0.0023206667
 40
0.0047368321
 40
0.0073828189
 40
0.0103605327
 40
0.0137407121
 40
0.0175707196
 40
0.0218821078
 40
0.0266960719
 40
0.0378820323
 40
0.0512011942
 40
0.066684455
 40
0.0843437486
 40
0.1041730406
 40
0.1261302439
 40
0.1501613536
 40
0.1762093857
 40
0.2341176799
 40
0.2993707545
 40
0.3714246173
 40
0.4495444693
 40
0.5329444929
 40
0.6208358562
 40
0.7124048234
 40
0.8067434606
 40
0.9029194661
 40
1.0
 40
1.0
 40
1.0
 40
1.0
 10
10.6972475909
 20
10.308842562
 30
0.0
 10
10.6972474827
 20
10.3092074962
 30
0.0
 10
10.6971486006
 20
10.3099559997
 30
0.0
 10
10.6967024988
 20
10.3110395787
 30
0.0
 10
10.6959714892
 20
10.3120813375
 30
0.0
 10
10.6949642045
 20
10.313084212
 30
0.0
 10
10.693683446
 20
10.3140528999
 30
0.0
 10
10.6921296862
 20
10.3149897723
 30
0.0
 10
10.6903030264
 20
10.3158959713
 30
0.0
 10
10.6873531021
 20
10.3171252839
 30
0.0
 10
10.6829598691
 20
10.3185467386
 30
0.0
 10
10.67685213
 20
10.3200557728
 30
0.0
 10
10.6696745897
 20
10.3214357428
 30
0.0
 10
10.6614365556
 20
10.3226813574
 30
0.0
 10
10.6521527638
 20
10.3237865314
 30
0.0
 10
10.6418467574
 20
10.3247501974
 30
0.0
 10
10.6305477795
 20
10.3255702429
 30
0.0
 10
10.6135911995
 20
10.3265019956
 30
0.0
 10
10.5901361801
 20
10.3272483843
 30
0.0
 10
10.559437069
 20
10.3275228798
 30
0.0
 10
10.5255602864
 20
10.3271881016
 30
0.0
 10
10.4888404896
 20
10.326255405
 30
0.0
 10
10.4496480431
 20
10.3247337733
 30
0.0
 10
10.4083646328
 20
10.3226341338
 30
0.0
 10
10.3653903607
 20
10.3199694449
 30
0.0
 10
10.3211461957
 20
10.3167724463
 30
0.0
 10
10.2760713176
 20
10.3130764271
 30
0.0
 10
10.2458069079
 20
10.310306414
 30
0.0
 10
10.2306109378
 20
10.3088426485
 30
0.0
  0
LINE
  5
325
100
AcDbEntity
  8
0
100
AcDbLine
 62
9
  6
CONTINUOUS
 10
9.4506058541
 20
10.1706732387
 11
9.4454097508
 21
10.1693179221
  0
SPLINE
  5
326
100
AcDbEntity
  8
0
100
AcDbSpline
 62
9
  6
CONTINUOUS
 70
0
 71
3
 72
9
 73
5
 74
0
 42
0.0000001
 43
0.0000001
 44
0.0000000001
 40
0.0
 40
0.0
 40
0.0
 40
0.0
 40
0.5262536252
 40
1.0
 40
1.0
 40
1.0
 40
1.0
 10
10.5517494798
 20
9.7903342347
 30
0.0
 10
10.5499195498
 20
9.7927333528
 30
0.0
 10
10.5468301039
 20
9.7976090119
 30
0.0
 10
10.5447790969
 20
9.8030175427
 30
0.0
 10
10.5441233682
 20
9.8056535001
 30
0.0
  0
SPLINE
  5
327
100
AcDbEntity
  8
0
100
AcDbSpline
 62
9
  6
CONTINUOUS
 70
0
 71
3
 72
9
 73
5
 74
0
 42
0.0000001
 43
0.0000001
 44
0.0000000001
 40
0.0
 40
0.0
 40
0.0
 40
0.0
 40
0.5066760781
 40
1.0
 40
1.0
 40
1.0
 40
1.0
 10
10.0229313243
 20
8.1137520529
 30
0.0
 10
9.9860932653
 20
8.0461985342
 30
0.0
 10
9.9090314914
 20
7.9151913771
 30
0.0
 10
9.822815477
 20
7.7899783979
 30
0.0
 10
9.7779231609
 20
7.7300011397
 30
0.0
  0
SPLINE
  5
328
100
AcDbEntity
  8
0
100
AcDbSpline
 62
9
  6
CONTINUOUS
 70
0
 71
3
 72
22
 73
18
 74
0
 42
0.0000001
 43
0.0000001
 44
0.0000000001
 40
0.0
 40
0.0
 40
0.0
 40
0.0
 40
0.1648137304
 40
0.2465469709
 40
0.3268169403
 40
0.4049076688
 40
0.4801188395
 40
0.5517763897
 40
0.6192565598
 40
0.6820748866
 40
0.7400906421
 40
0.7933021789
 40
0.8418105256
 40
0.8859353483
 40
0.9264166995
 40
0.9641357879
 40
1.0
 40
1.0
 40
1.0
 40
1.0
 10
10.0229250724
 20
8.1137548429
 30
0.0
 10
10.0177478149
 20
8.1164061545
 30
0.0
 10
10.009864495
 20
8.1201123494
 30
0.0
 10
9.9991637933
 20
8.1244230172
 30
0.0
 10
9.9911767925
 20
8.1272614282
 30
0.0
 10
9.9832864053
 20
8.1296584531
 30
0.0
 10
9.9755805008
 20
8.1315845543
 30
0.0
 10
9.9681469239
 20
8.1330108285
 30
0.0
 10
9.9610705969
 20
8.1339096764
 30
0.0
 10
9.9544261891
 20
8.1342498394
 30
0.0
 10
9.9482788351
 20
8.1340440873
 30
0.0
 10
9.9426792224
 20
8.1333100446
 30
0.0
 10
9.9376712217
 20
8.1320641114
 30
0.0
 10
9.9332945909
 20
8.1303109509
 30
0.0
 10
9.9295668751
 20
8.1280951197
 30
0.0
 10
9.9264906219
 20
8.1254676931
 30
0.0
 10
9.9248438104
 20
8.1234370808
 30
0.0
 10
9.9241432916
 20
8.122382877
 30
0.0
  0
SPLINE
  5
329
100
AcDbEntity
  8
0
100
AcDbSpline
 62
9
  6
CONTINUOUS
 70
0
 71
3
 72
20
 73
16
 74
0
 42
0.0000001
 43
0.0000001
 44
0.0000000001
 40
0.0
 40
0.0
 40
0.0
 40
0.0
 40
0.1627057084
 40
0.2430501136
 40
0.3222720071
 40
0.3999174454
 40
0.4754621024
 40
0.5483780144
 40
0.6181193778
 40
0.745748047
 40
0.8539223109
 40
0.8996068582
 40
0.9392149989
 40
0.9726785518
 40
1.0
 40
1.0
 40
1.0
 40
1.0
 10
9.7102932897
 20
7.7299591804
 30
0.0
 10
9.7054495121
 20
7.7302114672
 30
0.0
 10
9.6982202533
 20
7.7307033766
 30
0.0
 10
9.6886363363
 20
7.7313691027
 30
0.0
 10
9.6815781545
 20
7.7318034114
 30
0.0
 10
9.6746593424
 20
7.7321676147
 30
0.0
 10
9.6679260531
 20
7.7324766532
 30
0.0
 10
9.661426685
 20
7.7327409924
 30
0.0
 10
9.653374688
 20
7.7330351923
 30
0.0
 10
9.6442694553
 20
7.7332901591
 30
0.0
 10
9.6358772175
 20
7.7333429417
 30
0.0
 10
9.6301104572
 20
7.7332454585
 30
0.0
 10
9.6265722048
 20
7.7331199925
 30
0.0
 10
9.6235844203
 20
7.7329426514
 30
0.0
 10
9.6217793409
 20
7.732777041
 30
0.0
 10
9.6209706108
 20
7.7326805423
 30
0.0
  0
SPLINE
  5
32A
100
AcDbEntity
  8
0
100
AcDbSpline
 62
9
  6
CONTINUOUS
 70
0
 71
3
 72
12
 73
8
 74
0
 42
0.0000001
 43
0.0000001
 44
0.0000000001
 40
0.0
 40
0.0
 40
0.0
 40
0.0
 40
0.3689487976
 40
0.653322564
 40
0.8598659207
 40
0.9372144664
 40
1.0
 40
1.0
 40
1.0
 40
1.0
 10
9.6209706108
 20
7.7326805423
 30
0.0
 10
9.620417493
 20
7.7326145436
 30
0.0
 10
9.6194394463
 20
7.7324797188
 30
0.0
 10
9.6181680256
 20
7.7322166157
 30
0.0
 10
9.617346566
 20
7.7319509221
 30
0.0
 10
9.6168854487
 20
7.7317002899
 30
0.0
 10
9.6167188609
 20
7.7315663892
 30
0.0
 10
9.6166543471
 20
7.731496935
 30
0.0
  0
SPLINE
  5
32B
100
AcDbEntity
  8
0
100
AcDbSpline
 62
9
  6
CONTINUOUS
 70
0
 71
3
 72
9
 73
5
 74
0
 42
0.0000001
 43
0.0000001
 44
0.0000000001
 40
0.0
 40
0.0
 40
0.0
 40
0.0
 40
0.4988169859
 40
1.0
 40
1.0
 40
1.0
 40
1.0
 10
10.3042470339
 20
9.8056539356
 30
0.0
 10
10.2938939837
 20
9.8202357178
 30
0.0
 10
10.2716185217
 20
9.848409781
 30
0.0
 10
10.2468906243
 20
9.874435543
 30
0.0
 10
10.2339834891
 20
9.8869359835
 30
0.0
  0
SPLINE
  5
32C
100
AcDbEntity
  8
0
100
AcDbSpline
 62
9
  6
CONTINUOUS
 70
0
 71
3
 72
29
 73
25
 74
0
 42
0.0000001
 43
0.0000001
 44
0.0000000001
 40
0.0
 40
0.0
 40
0.0
 40
0.0
 40
0.1916532521
 40
0.2848922646
 40
0.3752837501
 40
0.4620078932
 40
0.5443245882
 40
0.6215154816
 40
0.6928661375
 40
0.7577093243
 40
0.8155495168
 40
0.8659455527
 40
0.8882223952
 40
0.9084864022
 40
0.9267011737
 40
0.9428627909
 40
0.9569840326
 40
0.9690949858
 40
0.9792567255
 40
0.9875895593
 40
0.9911439476
 40
0.9943480397
 40
0.9972698063
 40
1.0
 40
1.0
 40
1.0
 40
1.0
 10
10.2427015693
 20
10.1633869791
 30
0.0
 10
10.2625630657
 20
10.1655295909
 30
0.0
 10
10.2921204969
 20
10.1684181407
 30
0.0
 10
10.3311089784
 20
10.1715960745
 30
0.0
 10
10.3592209073
 20
10.1735648368
 30
0.0
 10
10.3862186732
 20
10.1751170078
 30
0.0
 10
10.4118605086
 20
10.176242446
 30
0.0
 10
10.4359148818
 20
10.1769326097
 30
0.0
 10
10.45815673
 20
10.1771798388
 30
0.0
 10
10.478382506
 20
10.1769760085
 30
0.0
 10
10.4964137935
 20
10.1763308649
 30
0.0
 10
10.5099900218
 20
10.1754056516
 30
0.0
 10
10.519627211
 20
10.1744139726
 30
0.0
 10
10.5259079038
 20
10.1735960698
 30
0.0
 10
10.5315294724
 20
10.1726744577
 30
0.0
 10
10.5364821208
 20
10.1716529453
 30
0.0
 10
10.5407598617
 20
10.1705356234
 30
0.0
 10
10.5443599701
 20
10.1693258925
 30
0.0
 10
10.5472792063
 20
10.1680268875
 30
0.0
 10
10.54924473
 20
10.1668098406
 30
0.0
 10
10.5504302276
 20
10.1657704126
 30
0.0
 10
10.5510962302
 20
10.1650074763
 30
0.0
 10
10.5515848199
 20
10.1642188555
 30
0.0
 10
10.5517937975
 20
10.1636627058
 30
0.0
 10
10.5518639472
 20
10.1633869091
 30
0.0
  0
LINE
  5
32D
100
AcDbEntity
  8
0
100
AcDbLine
 62
9
  6
CONTINUOUS
 10
10.5518639706
 20
10.1633874803
 11
10.5519834892
 21
10.1623933216
  0
SPLINE
  5
32E
100
AcDbEntity
  8
0
100
AcDbSpline
 62
9
  6
CONTINUOUS
 70
0
 71
3
 72
9
 73
5
 74
0
 42
0.0000001
 43
0.0000001
 44
0.0000000001
 40
0.0
 40
0.0
 40
0.0
 40
0.0
 40
0.4865571097
 40
1.0
 40
1.0
 40
1.0
 40
1.0
 10
10.5510396238
 20
9.8618791818
 30
0.0
 10
10.5503863168
 20
9.8527125658
 30
0.0
 10
10.548431587
 20
9.8339153499
 30
0.0
 10
10.5456635909
 20
9.8152285908
 30
0.0
 10
10.5441238352
 20
9.8056539356
 30
0.0
  0
SPLINE
  5
32F
100
AcDbEntity
  8
0
100
AcDbSpline
 62
9
  6
CONTINUOUS
 70
0
 71
3
 72
73
 73
69
 74
0
 42
0.0000001
 43
0.0000001
 44
0.0000000001
 40
0.0
 40
0.0
 40
0.0
 40
0.0
 40
0.0557801216
 40
0.1136176944
 40
0.1730586189
 40
0.2032645779
 40
0.2337426128
 40
0.2644596919
 40
0.2953864637
 40
0.3264965257
 40
0.357765349
 40
0.3734516883
 40
0.3891681379
 40
0.4049104865
 40
0.4206727921
 40
0.4285585631
 40
0.4364448628
 40
0.444328416
 40
0.4522035376
 40
0.4561348485
 40
0.4600590819
 40
0.4639724185
 40
0.4678682402
 40
0.4698060936
 40
0.4717338687
 40
0.4736473751
 40
0.4755403679
 40
0.4773995717
 40
0.4783088858
 40
0.4791986472
 40
0.4800623231
 40
0.4808893844
 40
0.4816707804
 40
0.4824134239
 40
0.4831587126
 40
0.4839436566
 40
0.4847765496
 40
0.485645437
 40
0.4865412797
 40
0.4874572052
 40
0.4893282555
 40
0.4912327212
 40
0.4931586772
 40
0.4950991804
 40
0.4970500925
 40
0.5009736633
 40
0.5049168845
 40
0.5088733428
 40
0.5128393311
 40
0.5207914506
 40
0.5287625334
 40
0.5367471983
 40
0.5447424184
 40
0.5607577245
 40
0.5767998009
 40
0.5928642966
 40
0.6089487008
 40
0.625051427
 40
0.6411714129
 40
0.6734602679
 40
0.7058119866
 40
0.7382254013
 40
0.7707009517
 40
0.803240355
 40
0.8358463961
 40
0.868522681
 40
0.9340969824
 40
1.0
 40
1.0
 40
1.0
 40
1.0
 10
10.5441238352
 20
9.8056539356
 30
0.0
 10
10.5420702229
 20
9.7928868845
 30
0.0
 10
10.5373555094
 20
9.7669666997
 30
0.0
 10
10.5290806529
 20
9.7277072297
 30
0.0
 10
10.5213498589
 20
9.6944001847
 30
0.0
 10
10.5147309916
 20
9.6673502231
 30
0.0
 10
10.5095432351
 20
9.6468059506
 30
0.0
 10
10.5041716174
 20
9.6261363316
 30
0.0
 10
10.4986237324
 20
9.605361627
 30
0.0
 10
10.4929023477
 20
9.5845013757
 30
0.0
 10
10.487993039
 20
9.5670824099
 30
0.0
 10
10.4839702856
 20
9.5531216194
 30
0.0
 10
10.480899473
 20
9.5426324824
 30
0.0
 10
10.4777732694
 20
9.5321413381
 30
0.0
 10
10.4751154763
 20
9.5234049582
 30
0.0
 10
10.4729480229
 20
9.5164232209
 30
0.0
 10
10.4712977332
 20
9.5111934596
 30
0.0
 10
10.4696169636
 20
9.5059759992
 30
0.0
 10
10.4681817811
 20
9.5016427848
 30
0.0
 10
10.4670023761
 20
9.4981919952
 30
0.0
 10
10.4660984659
 20
9.4956177277
 30
0.0
 10
10.4651681468
 20
9.4930616178
 30
0.0
 10
10.4643606303
 20
9.4909510469
 30
0.0
 10
10.4636852326
 20
9.4892832607
 30
0.0
 10
10.4631609457
 20
9.4880502759
 30
0.0
 10
10.4626118472
 20
9.4868394307
 30
0.0
 10
10.4620312192
 20
9.4856610664
 30
0.0
 10
10.4615058985
 20
9.4847155276
 30
0.0
 10
10.4610438994
 20
9.4840038812
 30
0.0
 10
10.4606765026
 20
9.4835071964
 30
0.0
 10
10.4602809756
 20
9.4830571076
 30
0.0
 10
10.459850461
 20
9.4826754209
 30
0.0
 10
10.4593710838
 20
9.4824028463
 30
0.0
 10
10.4588432353
 20
9.4822992697
 30
0.0
 10
10.4583138585
 20
9.482401451
 30
0.0
 10
10.4578328515
 20
9.4826765319
 30
0.0
 10
10.4573963322
 20
9.4830561012
 30
0.0
 10
10.4569946796
 20
9.4835062333
 30
0.0
 10
10.456621018
 20
9.4840033913
 30
0.0
 10
10.4561504584
 20
9.4847162258
 30
0.0
 10
10.4556110872
 20
9.4856616795
 30
0.0
 10
10.4550104779
 20
9.4868393143
 30
0.0
 10
10.4544418638
 20
9.4880505053
 30
0.0
 10
10.453895475
 20
9.489283538
 30
0.0
 10
10.4531880309
 20
9.4909514684
 30
0.0
 10
10.452336818
 20
9.4930624397
 30
0.0
 10
10.4513474215
 20
9.4956185926
 30
0.0
 10
10.4503780814
 20
9.498192914
 30
0.0
 10
10.4491023976
 20
9.5016448535
 30
0.0
 10
10.4475307808
 20
9.5059795605
 30
0.0
 10
10.4456612607
 20
9.5111971506
 30
0.0
 10
10.4437963536
 20
9.5164270011
 30
0.0
 10
10.4413064189
 20
9.5234138292
 30
0.0
 10
10.4381802468
 20
9.532156894
 30
0.0
 10
10.4343885809
 20
9.5426485932
 30
0.0
 10
10.4305445979
 20
9.5531383148
 30
0.0
 10
10.4266412053
 20
9.5636210902
 30
0.0
 10
10.4226729927
 20
9.5740932765
 30
0.0
 10
10.417286797
 20
9.5880450774
 30
0.0
 10
10.4103700435
 20
9.6054434903
 30
0.0
 10
10.4017488662
 20
9.6262266495
 30
0.0
 10
10.3927724361
 20
9.6469062699
 30
0.0
 10
10.3834102696
 20
9.6674622006
 30
0.0
 10
10.3736309925
 20
9.6878727533
 30
0.0
 10
10.3634021314
 20
9.7081143682
 30
0.0
 10
10.3491042401
 20
9.7348718266
 30
0.0
 10
10.3299308948
 20
9.7677638055
 30
0.0
 10
10.3130918785
 20
9.7931967039
 30
0.0
 10
10.3042470339
 20
9.8056539356
 30
0.0
  0
SPLINE
  5
330
100
AcDbEntity
  8
0
100
AcDbSpline
 62
9
  6
CONTINUOUS
 70
0
 71
3
 72
18
 73
14
 74
0
 42
0.0000001
 43
0.0000001
 44
0.0000000001
 40
0.0
 40
0.0
 40
0.0
 40
0.0
 40
0.0233159568
 40
0.052413329
 40
0.0876206002
 40
0.1291674762
 40
0.177154129
 40
0.2313295145
 40
0.3568049966
 40
0.5021527974
 40
0.6618474769
 40
0.8298168287
 40
1.0
 40
1.0
 40
1.0
 40
1.0
 10
10.2665000111
 20
9.7621656962
 30
0.0
 10
10.2665956354
 20
9.7626060446
 30
0.0
 10
10.2669083456
 20
9.7635742256
 30
0.0
 10
10.26760844
 20
9.7651180344
 30
0.0
 10
10.2686008785
 20
9.7669089956
 30
0.0
 10
10.2698944512
 20
9.7689445458
 30
0.0
 10
10.2714927225
 20
9.7712169443
 30
0.0
 10
10.2741532698
 20
9.7747215831
 30
0.0
 10
10.278178249
 20
9.7795476195
 30
0.0
 10
10.2837765506
 20
9.7857050277
 30
0.0
 10
10.2901425381
 20
9.7922676832
 30
0.0
 10
10.2970314343
 20
9.7989860383
 30
0.0
 10
10.3018154465
 20
9.8034392178
 30
0.0
 10
10.3042470778
 20
9.8056538911
 30
0.0
  0
SPLINE
  5
331
100
AcDbEntity
  8
0
100
AcDbSpline
 62
9
  6
CONTINUOUS
 70
0
 71
3
 72
70
 73
66
 74
0
 42
0.0000001
 43
0.0000001
 44
0.0000000001
 40
0.0
 40
0.0
 40
0.0
 40
0.0
 40
0.0669280371
 40
0.1000935409
 40
0.133023344
 40
0.1983123191
 40
0.2306875222
 40
0.2628990586
 40
0.2949595824
 40
0.3268809563
 40
0.3586752491
 40
0.3903537462
 40
0.4219260546
 40
0.4376749146
 40
0.4533998797
 40
0.4691013632
 40
0.4847794396
 40
0.5004335401
 40
0.5160621503
 40
0.531662258
 40
0.5472278818
 40
0.5549944646
 40
0.562747054
 40
0.5704819611
 40
0.5781932497
 40
0.5858703837
 40
0.5934961602
 40
0.5972794217
 40
0.6010312331
 40
0.604740292
 40
0.6083914952
 40
0.6119451147
 40
0.6153506168
 40
0.6169810909
 40
0.6185474179
 40
0.6200754358
 40
0.6216210233
 40
0.6232171178
 40
0.6248647696
 40
0.6282823703
 40
0.630054002
 40
0.6318519709
 40
0.6354993791
 40
0.6392023617
 40
0.6429449988
 40
0.6505008519
 40
0.6581135056
 40
0.6657599309
 40
0.6734265178
 40
0.6811060595
 40
0.6964863709
 40
0.7118785358
 40
0.7272710906
 40
0.7426571321
 40
0.7580319482
 40
0.7733919282
 40
0.7887340053
 40
0.8040553868
 40
0.8193533994
 40
0.8498684592
 40
0.8802566282
 40
0.9104932204
 40
0.9405508144
 40
0.9703979449
 40
1.0
 40
1.0
 40
1.0
 40
1.0
 10
10.2665000854
 20
9.762165647
 30
0.0
 10
10.2747480337
 20
9.7530135127
 30
0.0
 10
10.2866681095
 20
9.7389490118
 30
0.0
 10
10.3018932769
 20
9.7197696813
 30
0.0
 10
10.3165531586
 20
9.7005313945
 30
0.0
 10
10.3305772614
 20
9.6809989249
 30
0.0
 10
10.3440767112
 20
9.6612663517
 30
0.0
 10
10.3539223451
 20
9.6464471953
 30
0.0
 10
10.3635442368
 20
9.6315814648
 30
0.0
 10
10.37296943
 20
9.6166811357
 30
0.0
 10
10.3822225661
 20
9.6017561244
 30
0.0
 10
10.3913266391
 20
9.5868149861
 30
0.0
 10
10.3988136489
 20
9.5743477705
 30
0.0
 10
10.4047496957
 20
9.564374989
 30
0.0
 10
10.4091743999
 20
9.5569025726
 30
0.0
 10
10.4135779896
 20
9.549432819
 30
0.0
 10
10.4179632578
 20
9.5419674217
 30
0.0
 10
10.4223334539
 20
9.534508737
 30
0.0
 10
10.426692555
 20
9.5270601885
 30
0.0
 10
10.4310456891
 20
9.5196270207
 30
0.0
 10
10.4346773287
 20
9.5134485042
 30
0.0
 10
10.4375912891
 20
9.5085238433
 30
0.0
 10
10.4397822635
 20
9.5048463506
 30
0.0
 10
10.4419840102
 20
9.5011871644
 30
0.0
 10
10.4442020724
 20
9.4975540643
 30
0.0
 10
10.4464471197
 20
9.4939612141
 30
0.0
 10
10.448356934
 20
9.4910117774
 30
0.0
 10
10.4499241296
 20
9.488702329
 30
0.0
 10
10.4511249544
 20
9.4870160923
 30
0.0
 10
10.4523638991
 20
9.4853879298
 30
0.0
 10
10.4536459862
 20
9.4838400034
 30
0.0
 10
10.4549922641
 20
9.4824217968
 30
0.0
 10
10.456250826
 20
9.4814437007
 30
0.0
 10
10.4573394447
 20
9.4808941147
 30
0.0
 10
10.4581771633
 20
9.4806385691
 30
0.0
 10
10.4590384298
 20
9.4805844897
 30
0.0
 10
10.4598908857
 20
9.4807398993
 30
0.0
 10
10.4607170724
 20
9.4810588362
 30
0.0
 10
10.4617845349
 20
9.4816700001
 30
0.0
 10
10.4627501806
 20
9.482491475
 30
0.0
 10
10.4636428918
 20
9.483416959
 30
0.0
 10
10.4645243635
 20
9.4844115812
 30
0.0
 10
10.4655827669
 20
9.4857224492
 30
0.0
 10
10.4667949012
 20
9.4873663619
 30
0.0
 10
10.4683662018
 20
9.4896375735
 30
0.0
 10
10.4702624964
 20
9.4925576913
 30
0.0
 10
10.4724731619
 20
9.4961288009
 30
0.0
 10
10.474643585
 20
9.4997482547
 30
0.0
 10
10.4767868005
 20
9.5033980949
 30
0.0
 10
10.4796173216
 20
9.5082951665
 30
0.0
 10
10.4831129272
 20
9.5144502672
 30
0.0
 10
10.4872612319
 20
9.5218672464
 30
0.0
 10
10.4913737799
 20
9.5293053077
 30
0.0
 10
10.4954552528
 20
9.5367568139
 30
0.0
 10
10.4995079149
 20
9.5442172019
 30
0.0
 10
10.5035326969
 20
9.5516834729
 30
0.0
 10
10.5075297017
 20
9.5591534959
 30
0.0
 10
10.5114984735
 20
9.5666256444
 30
0.0
 10
10.5167466256
 20
9.5765808242
 30
0.0
 10
10.5232294589
 20
9.5890203846
 30
0.0
 10
10.5308812459
 20
9.6039513073
 30
0.0
 10
10.5383838322
 20
9.6188635866
 30
0.0
 10
10.5457166481
 20
9.6337491807
 30
0.0
 10
10.5528608665
 20
9.6485967175
 30
0.0
 10
10.5575019225
 20
9.6585077508
 30
0.0
 10
10.5597841577
 20
9.6634560415
 30
0.0
  0
LINE
  5
332
100
AcDbEntity
  8
0
100
AcDbLine
 62
9
  6
CONTINUOUS
 10
10.6021185748
 20
9.6270634647
 11
10.6021683675
 21
9.6240635752
  0
SPLINE
  5
333
100
AcDbEntity
  8
0
100
AcDbSpline
 62
9
  6
CONTINUOUS
 70
0
 71
3
 72
11
 73
7
 74
0
 42
0.0000001
 43
0.0000001
 44
0.0000000001
 40
0.0
 40
0.0
 40
0.0
 40
0.0
 40
0.25002194
 40
0.5000322693
 40
0.7500202963
 40
1.0
 40
1.0
 40
1.0
 40
1.0
 10
10.371333689
 20
9.4689312794
 30
0.0
 10
10.3713326689
 20
9.4953615856
 30
0.0
 10
10.366729899
 20
9.5483341505
 30
0.0
 10
10.3462720548
 20
9.6253256669
 30
0.0
 10
10.3130642636
 20
9.6977211169
 30
0.0
 10
10.2831372807
 20
9.7416344799
 30
0.0
 10
10.2665000854
 20
9.762165647
 30
0.0
  0
SPLINE
  5
334
100
AcDbEntity
  8
0
100
AcDbSpline
 62
9
  6
CONTINUOUS
 70
0
 71
3
 72
22
 73
18
 74
0
 42
0.0000001
 43
0.0000001
 44
0.0000000001
 40
0.0
 40
0.0
 40
0.0
 40
0.0
 40
0.0286546816
 40
0.0580555811
 40
0.1178565085
 40
0.1785768072
 40
0.2400217658
 40
0.3020126558
 40
0.3644472372
 40
0.4272557322
 40
0.4903727279
 40
0.617140189
 40
0.7445331325
 40
0.8084338917
 40
0.8723458731
 40
0.9362206037
 40
1.0
 40
1.0
 40
1.0
 40
1.0
 10
10.3663326863
 20
9.4689308972
 30
0.0
 10
10.3656363188
 20
9.4765124679
 30
0.0
 10
10.3639444896
 20
9.4918493469
 30
0.0
 10
10.3592375701
 20
9.5228157583
 30
0.0
 10
10.3504152038
 20
9.5617326654
 30
0.0
 10
10.3350355121
 20
9.6076541888
 30
0.0
 10
10.3148321221
 20
9.6523138736
 30
0.0
 10
10.289871537
 20
9.6950302751
 30
0.0
 10
10.2604144759
 20
9.7352292906
 30
0.0
 10
10.2267148664
 20
9.7723580846
 30
0.0
 10
10.1765917646
 20
9.8171819056
 30
0.0
 10
10.1051551212
 20
9.8631801496
 30
0.0
 10
10.025443551
 20
9.8932308615
 30
0.0
 10
9.9588938419
 20
9.9067788061
 30
0.0
 10
9.9080873492
 20
9.9115891657
 30
0.0
 10
9.8571012393
 20
9.9109193937
 30
0.0
 10
9.8233511554
 20
9.906852518
 30
0.0
 10
9.8066602616
 20
9.9039229468
 30
0.0
  0
SPLINE
  5
335
100
AcDbEntity
  8
0
100
AcDbSpline
 62
9
  6
CONTINUOUS
 70
0
 71
3
 72
9
 73
5
 74
0
 42
0.0000001
 43
0.0000001
 44
0.0000000001
 40
0.0
 40
0.0
 40
0.0
 40
0.0
 40
0.2520739828
 40
1.0
 40
1.0
 40
1.0
 40
1.0
 10
10.192155482
 20
9.8342698382
 30
0.0
 10
10.1989772715
 20
9.828853737
 30
0.0
 10
10.2255169527
 20
9.8067209328
 30
0.0
 10
10.2499079018
 20
9.7819807484
 30
0.0
 10
10.2665000841
 20
9.7621656396
 30
0.0
  0
SPLINE
  5
336
100
AcDbEntity
  8
0
100
AcDbSpline
 62
9
  6
CONTINUOUS
 70
0
 71
3
 72
15
 73
11
 74
0
 42
0.0000001
 43
0.0000001
 44
0.0000000001
 40
0.0
 40
0.0
 40
0.0
 40
0.0
 40
0.1217103104
 40
0.2444999783
 40
0.3683426361
 40
0.4931740022
 40
0.6188439714
 40
0.7452251569
 40
0.87227783
 40
1.0
 40
1.0
 40
1.0
 40
1.0
 10
9.8338352985
 20
9.8869671159
 30
0.0
 10
9.832710542
 20
9.8876191056
 30
0.0
 10
9.8304576792
 20
9.8889402997
 30
0.0
 10
9.8270756653
 20
9.8909508456
 30
0.0
 10
9.8236677756
 20
9.8929830915
 30
0.0
 10
9.8202313711
 20
9.8950275866
 30
0.0
 10
9.8167916552
 20
9.8971194736
 30
0.0
 10
9.813375258
 20
9.8992941943
 30
0.0
 10
9.8099952728
 20
9.901564581
 30
0.0
 10
9.8077685489
 20
9.9031294774
 30
0.0
 10
9.8066599645
 20
9.9039246524
 30
0.0
  0
LINE
  5
337
100
AcDbEntity
  8
0
100
AcDbLine
 62
9
  6
CONTINUOUS
 10
11.9745572275
 20
10.1693179221
 11
11.9693667007
 21
10.1706717873
  0
SPLINE
  5
338
100
AcDbEntity
  8
0
100
AcDbSpline
 62
9
  6
CONTINUOUS
 70
0
 71
3
 72
33
 73
29
 74
0
 42
0.0000001
 43
0.0000001
 44
0.0000000001
 40
0.0
 40
0.0
 40
0.0
 40
0.0
 40
0.0970750647
 40
0.1932505333
 40
0.2875912617
 40
0.3791626535
 40
0.4670549863
 40
0.5504547139
 40
0.6285736832
 40
0.7006267517
 40
0.7658796361
 40
0.823788234
 40
0.8498365195
 40
0.8738679054
 40
0.8958253744
 40
0.9156548881
 40
0.9333143366
 40
0.9487977021
 40
0.962116946
 40
0.9733029947
 40
0.9781170151
 40
0.9824284732
 40
0.9862585682
 40
0.9896388564
 40
0.9926167019
 40
0.9952628419
 40
0.9976791729
 40
1.0
 40
1.0
 40
1.0
 40
1.0
 10
11.189356766
 20
10.3088425705
 30
0.0
 10
11.1741616146
 20
10.310306068
 30
0.0
 10
11.1438980871
 20
10.3130757729
 30
0.0
 10
11.0988237671
 20
10.3167717619
 30
0.0
 10
11.054578939
 20
10.3199690434
 30
0.0
 10
11.0116037688
 20
10.3226340787
 30
0.0
 10
10.9703198258
 20
10.3247338871
 30
0.0
 10
10.9311273625
 20
10.3262555395
 30
0.0
 10
10.8944078273
 20
10.3271881735
 30
0.0
 10
10.8605312943
 20
10.3275228692
 30
0.0
 10
10.8298322517
 20
10.3272483431
 30
0.0
 10
10.8063771444
 20
10.3265019698
 30
0.0
 10
10.7894204099
 20
10.3255702493
 30
0.0
 10
10.77812129
 20
10.324750233
 30
0.0
 10
10.7678151466
 20
10.3237866017
 30
0.0
 10
10.7585312364
 20
10.3226814664
 30
0.0
 10
10.7502931091
 20
10.3214358917
 30
0.0
 10
10.7431154978
 20
10.3200559573
 30
0.0
 10
10.7370076994
 20
10.3185469481
 30
0.0
 10
10.7326144199
 20
10.3171255016
 30
0.0
 10
10.7296644563
 20
10.3158961847
 30
0.0
 10
10.7278377614
 20
10.3149899749
 30
0.0
 10
10.7262839611
 20
10.314053084
 30
0.0
 10
10.7250031557
 20
10.3130843694
 30
0.0
 10
10.7239958165
 20
10.3120814597
 30
0.0
 10
10.7232647437
 20
10.3110396578
 30
0.0
 10
10.7228185665
 20
10.3099560287
 30
0.0
 10
10.7227196219
 20
10.3092074824
 30
0.0
 10
10.7227194813
 20
10.3088425226
 30
0.0
  0
SPLINE
  5
339
100
AcDbEntity
  8
0
100
AcDbSpline
 62
9
  6
CONTINUOUS
 70
0
 71
3
 72
30
 73
26
 74
0
 42
0.0000001
 43
0.0000001
 44
0.0000000001
 40
0.0
 40
0.0
 40
0.0
 40
0.0
 40
0.1802366183
 40
0.3535231949
 40
0.436856942
 40
0.5174541069
 40
0.5947534593
 40
0.6681898793
 40
0.7371141897
 40
0.8005476253
 40
0.8574307171
 40
0.9065938719
 40
0.9466208598
 40
0.9627571098
 40
0.9760805199
 40
0.9816517462
 40
0.9864809159
 40
0.990557792
 40
0.9938738762
 40
0.9964245754
 40
0.9982160925
 40
0.9988401633
 40
0.9993040166
 40
0.9996562571
 40
1.0
 40
1.0
 40
1.0
 40
1.0
 10
9.8338337028
 20
9.8869680272
 30
0.0
 10
9.8364944316
 20
9.8854044907
 30
0.0
 10
9.8416893099
 20
9.8822967378
 30
0.0
 10
9.8480539867
 20
9.8783665473
 30
0.0
 10
9.85293784
 20
9.8752863148
 30
0.0
 10
9.8564177627
 20
9.8730611619
 30
0.0
 10
9.8597406615
 20
9.8709051789
 30
0.0
 10
9.8628810692
 20
9.8688353088
 30
0.0
 10
9.865807563
 20
9.8668725063
 30
0.0
 10
9.8684831728
 20
9.8650447003
 30
0.0
 10
9.8708635911
 20
9.8633848292
 30
0.0
 10
9.8728983944
 20
9.8619303311
 30
0.0
 10
9.8743502343
 20
9.8608602179
 30
0.0
 10
9.8752943449
 20
9.8601361143
 30
0.0
 10
9.8757640735
 20
9.8597630043
 30
0.0
 10
9.8760766834
 20
9.8595035936
 30
0.0
 10
9.8762645534
 20
9.8593418305
 30
0.0
 10
9.8764196825
 20
9.8592013613
 30
0.0
 10
9.8765418807
 20
9.8590826221
 30
0.0
 10
9.8766303873
 20
9.8589859507
 30
0.0
 10
9.8766822308
 20
9.8589178821
 30
0.0
 10
9.8767040486
 20
9.8588734816
 30
0.0
 10
9.8767102731
 20
9.8588492979
 30
0.0
 10
9.8767065474
 20
9.85882864
 30
0.0
 10
9.8766966749
 20
9.8588204135
 30
0.0
 10
9.8766914155
 20
9.8588177712
 30
0.0
  0
SPLINE
  5
33A
100
AcDbEntity
  8
0
100
AcDbSpline
 62
9
  6
CONTINUOUS
 70
0
 71
3
 72
11
 73
7
 74
0
 42
0.0000001
 43
0.0000001
 44
0.0000000001
 40
0.0
 40
0.0
 40
0.0
 40
0.0
 40
0.2297444295
 40
0.4803328179
 40
0.7416645781
 40
1.0
 40
1.0
 40
1.0
 40
1.0
 10
9.8123123551
 20
9.8645544079
 30
0.0
 10
9.8135966197
 20
9.8665738104
 30
0.0
 10
9.8165081835
 20
9.8706540878
 30
0.0
 10
9.8215639055
 20
9.8765105542
 30
0.0
 10
9.8273756853
 20
9.8820588548
 30
0.0
 10
9.8316324428
 20
9.8854207872
 30
0.0
 10
9.8338352317
 20
9.8869665033
 30
0.0
  0
SPLINE
  5
33B
100
AcDbEntity
  8
0
100
AcDbSpline
 62
9
  6
CONTINUOUS
 70
0
 71
3
 72
15
 73
11
 74
0
 42
0.0000001
 43
0.0000001
 44
0.0000000001
 40
0.0
 40
0.0
 40
0.0
 40
0.0
 40
0.1223634706
 40
0.2457005131
 40
0.3698609623
 40
0.4947289271
 40
0.6202450521
 40
0.7463576446
 40
0.8729791633
 40
1.0
 40
1.0
 40
1.0
 40
1.0
 10
10.9926994659
 20
9.3128945169
 30
0.0
 10
10.993198672
 20
9.304796659
 30
0.0
 10
10.9941707388
 20
9.2885346445
 30
0.0
 10
10.9955829396
 20
9.2640519448
 30
0.0
 10
10.9969870871
 20
9.2394024594
 30
0.0
 10
10.9984349366
 20
9.2146107366
 30
0.0
 10
11.0000184526
 20
9.1896974415
 30
0.0
 10
11.0018292264
 20
9.1646828292
 30
0.0
 10
11.0039200255
 20
9.1395898588
 30
0.0
 10
11.0055206024
 20
9.1228480402
 30
0.0
 10
11.0063795534
 20
9.1144699222
 30
0.0
  0
SPLINE
  5
33C
100
AcDbEntity
  8
0
100
AcDbSpline
 62
9
  6
CONTINUOUS
 70
0
 71
3
 72
14
 73
10
 74
0
 42
0.0000001
 43
0.0000001
 44
0.0000000001
 40
0.0
 40
0.0
 40
0.0
 40
0.0
 40
0.0787279774
 40
0.1720596753
 40
0.2796583679
 40
0.4010300668
 40
0.5354141786
 40
0.6812478941
 40
1.0
 40
1.0
 40
1.0
 40
1.0
 10
11.0574766336
 20
9.1153910041
 30
0.0
 10
11.056174562
 20
9.1157381759
 30
0.0
 10
11.0532793552
 20
9.1163108353
 30
0.0
 10
11.0485200308
 20
9.1168513356
 30
0.0
 10
11.0430074431
 20
9.1171326686
 30
0.0
 10
11.0367860417
 20
9.1171420913
 30
0.0
 10
11.0299159254
 20
9.1168699282
 30
0.0
 10
11.0196893573
 20
9.1161256441
 30
0.0
 10
11.0117854082
 20
9.1152111484
 30
0.0
 10
11.00637996
 20
9.1144703617
 30
0.0
  0
SPLINE
  5
33D
100
AcDbEntity
  8
0
100
AcDbSpline
 62
9
  6
CONTINUOUS
 70
0
 71
3
 72
18
 73
14
 74
0
 42
0.0000001
 43
0.0000001
 44
0.0000000001
 40
0.0
 40
0.0
 40
0.0
 40
0.0
 40
0.128520436
 40
0.1924052262
 40
0.256021496
 40
0.3193887515
 40
0.382513837
 40
0.4453967426
 40
0.5080375076
 40
0.6325824667
 40
0.7561291844
 40
0.8786251676
 40
1.0
 40
1.0
 40
1.0
 40
1.0
 10
11.0574774272
 20
9.1153912848
 30
0.0
 10
11.0673301451
 20
9.0822223432
 30
0.0
 10
11.0819421351
 20
9.0325244574
 30
0.0
 10
11.1019925923
 20
8.9665761116
 30
0.0
 10
11.1173896469
 20
8.9175487941
 30
0.0
 10
11.1333293655
 20
8.8689098674
 30
0.0
 10
11.1498673509
 20
8.8206796457
 30
0.0
 10
11.1670288066
 20
8.7728751746
 30
0.0
 10
11.1907256572
 20
8.709855527
 30
0.0
 10
11.2219680759
 20
8.6322343515
 30
0.0
 10
11.2621432966
 20
8.5408893601
 30
0.0
 10
11.304847392
 20
8.4516447969
 30
0.0
 10
11.3350771238
 20
8.3933461358
 30
0.0
 10
11.3505806091
 20
8.3645804369
 30
0.0
  0
SPLINE
  5
33E
100
AcDbEntity
  8
0
100
AcDbSpline
 62
9
  6
CONTINUOUS
 70
0
 71
3
 72
10
 73
6
 74
0
 42
0.0000001
 43
0.0000001
 44
0.0000000001
 40
0.0
 40
0.0
 40
0.0
 40
0.0
 40
0.4978365695
 40
0.748228681
 40
1.0
 40
1.0
 40
1.0
 40
1.0
 10
11.0574770423
 20
9.1153903072
 30
0.0
 10
11.0475731231
 20
9.1484371958
 30
0.0
 10
11.0325276391
 20
9.1980632247
 30
0.0
 10
11.0107004063
 20
9.2638388199
 30
0.0
 10
10.9988941858
 20
9.296580409
 30
0.0
 10
10.992701204
 20
9.3128915392
 30
0.0
  0
SPLINE
  5
33F
100
AcDbEntity
  8
0
100
AcDbSpline
 62
9
  6
CONTINUOUS
 70
0
 71
3
 72
31
 73
27
 74
0
 42
0.0000001
 43
0.0000001
 44
0.0000000001
 40
0.0
 40
0.0
 40
0.0
 40
0.0
 40
0.197663617
 40
0.2947026956
 40
0.3891107146
 40
0.4798179636
 40
0.5657835685
 40
0.6459738723
 40
0.7193552366
 40
0.7850011213
 40
0.842413301
 40
0.8912006757
 40
0.9122378776
 40
0.9309722758
 40
0.9473703962
 40
0.9614602245
 40
0.9732851571
 40
0.9828886915
 40
0.9868710924
 40
0.9903145707
 40
0.9932246805
 40
0.9956070726
 40
0.9974675989
 40
0.9988126166
 40
0.9996501996
 40
1.0
 40
1.0
 40
1.0
 40
1.0
 10
11.9619753648
 20
10.1196838925
 30
0.0
 10
11.9628235126
 20
10.1229495334
 30
0.0
 10
11.964085814
 20
10.1278189558
 30
0.0
 10
11.9657474146
 20
10.1342496112
 30
0.0
 10
11.9669495411
 20
10.1389133557
 30
0.0
 10
11.9681014722
 20
10.1433948426
 30
0.0
 10
11.9691898242
 20
10.1476420951
 30
0.0
 10
11.9702013755
 20
10.1516037299
 30
0.0
 10
11.9711234024
 20
10.1552302499
 30
0.0
 10
11.9719454053
 20
10.1584810214
 30
0.0
 10
11.9726599324
 20
10.1613259499
 30
0.0
 10
11.9731846538
 20
10.1634334578
 30
0.0
 10
11.973546486
 20
10.1649011564
 30
0.0
 10
11.9737742643
 20
10.1658324865
 30
0.0
 10
11.9739719506
 20
10.1666490912
 30
0.0
 10
11.9741397794
 20
10.1673515771
 30
0.0
 10
11.974278287
 20
10.1679418133
 30
0.0
 10
11.9743750597
 20
10.1683646428
 30
0.0
 10
11.9744379534
 20
10.1686484194
 30
0.0
 10
11.9744751827
 20
10.1688209212
 30
0.0
 10
11.9745054273
 20
10.1689668105
 30
0.0
 10
11.9745292445
 20
10.1690869246
 30
0.0
 10
11.9745455107
 20
10.169180003
 30
0.0
 10
11.9745574481
 20
10.1692500742
 30
0.0
 10
11.9745590382
 20
10.1692896864
 30
0.0
 10
11.9745618777
 20
10.1693141097
 30
0.0
 10
11.9745572315
 20
10.1693178598
 30
0.0
  0
SPLINE
  5
340
100
AcDbEntity
  8
0
100
AcDbSpline
 62
9
  6
CONTINUOUS
 70
0
 71
3
 72
29
 73
25
 74
0
 42
0.0000001
 43
0.0000001
 44
0.0000000001
 40
0.0
 40
0.0
 40
0.0
 40
0.0
 40
0.0005767806
 40
0.0010688243
 40
0.0017297421
 40
0.0035847532
 40
0.0061672494
 40
0.0135272826
 40
0.0238053401
 40
0.0369756548
 40
0.0529992898
 40
0.0717398556
 40
0.0930009312
 40
0.1165837602
 40
0.1422887411
 40
0.199284296
 40
0.2627358696
 40
0.3316633638
 40
0.4051231471
 40
0.4824298745
 40
0.5630370888
 40
0.6463999474
 40
0.8197251681
 40
1.0
 40
1.0
 40
1.0
 40
1.0
 10
11.543275793
 20
9.858817905
 30
0.0
 10
11.5432683711
 20
9.8588244139
 30
0.0
 10
11.5432694326
 20
9.8588474838
 30
0.0
 10
11.5432818405
 20
9.8588730696
 30
0.0
 10
11.5433087451
 20
9.8589177391
 30
0.0
 10
11.5433638668
 20
9.8589852249
 30
0.0
 10
11.5435013158
 20
9.8591334516
 30
0.0
 10
11.5437546965
 20
9.8593695065
 30
0.0
 10
11.5441542083
 20
9.8597137168
 30
0.0
 10
11.544679048
 20
9.8601392377
 30
0.0
 10
11.5453275607
 20
9.8606417994
 30
0.0
 10
11.5460947683
 20
9.861217048
 30
0.0
 10
11.5469727822
 20
9.8618600414
 30
0.0
 10
11.5479531048
 20
9.8625649925
 30
0.0
 10
11.549437257
 20
9.8636168098
 30
0.0
 10
11.5514902794
 20
9.8650459533
 30
0.0
 10
11.5541664806
 20
9.8668744689
 30
0.0
 10
11.557091668
 20
9.8688378669
 30
0.0
 10
11.5602306939
 20
9.8709079489
 30
0.0
 10
11.5635527703
 20
9.8730633513
 30
0.0
 10
11.5670321236
 20
9.8752875722
 30
0.0
 10
11.5719155382
 20
9.8783663344
 30
0.0
 10
11.5782790524
 20
9.8822957162
 30
0.0
 10
11.5834725977
 20
9.8854031801
 30
0.0
 10
11.5861326287
 20
9.8869665716
 30
0.0
  0
SPLINE
  5
341
100
AcDbEntity
  8
0
100
AcDbSpline
 62
9
  6
CONTINUOUS
 70
0
 71
3
 72
13
 73
9
 74
0
 42
0.0000001
 43
0.0000001
 44
0.0000000001
 40
0.0
 40
0.0
 40
0.0
 40
0.0
 40
0.2474553551
 40
0.37443961
 40
0.5018985153
 40
0.7547834397
 40
0.8790086688
 40
1.0
 40
1.0
 40
1.0
 40
1.0
 10
10.8174456087
 20
10.2303596378
 30
0.0
 10
10.8142275347
 20
10.2312792719
 30
0.0
 10
10.8095196874
 20
10.233326783
 30
0.0
 10
10.8038746398
 20
10.237117962
 30
0.0
 10
10.7986976157
 20
10.2416493185
 30
0.0
 10
10.7945256656
 20
10.247165636
 30
0.0
 10
10.7915106496
 20
10.2532018962
 30
0.0
 10
10.7904012316
 20
10.2563395583
 30
0.0
 10
10.7899589793
 20
10.2579151047
 30
0.0
  0
SPLINE
  5
342
100
AcDbEntity
  8
0
100
AcDbSpline
 62
9
  6
CONTINUOUS
 70
0
 71
3
 72
12
 73
8
 74
0
 42
0.0000001
 43
0.0000001
 44
0.0000000001
 40
0.0
 40
0.0
 40
0.0
 40
0.0
 40
0.1232215501
 40
0.2492001751
 40
0.5037084621
 40
0.7562730862
 40
1.0
 40
1.0
 40
1.0
 40
1.0
 10
10.8173922479
 20
10.094382756
 30
0.0
 10
10.8158123073
 20
10.0948240277
 30
0.0
 10
10.8126707346
 20
10.0959231003
 30
0.0
 10
10.8066438911
 20
10.0988865026
 30
0.0
 10
10.7997853158
 20
10.1039631052
 30
0.0
 10
10.7935673171
 20
10.1119244777
 30
0.0
 10
10.790859081
 20
10.1180414708
 30
0.0
 10
10.7899591213
 20
10.1211588166
 30
0.0
  0
LINE
  5
343
100
AcDbEntity
  8
0
100
AcDbLine
 62
9
  6
CONTINUOUS
 10
11.7097039216
 20
7.697891804
 11
11.7096735958
 21
7.7299592036
  0
SPLINE
  5
344
100
AcDbEntity
  8
0
100
AcDbSpline
 62
9
  6
CONTINUOUS
 70
0
 71
3
 72
14
 73
10
 74
0
 42
0.0000001
 43
0.0000001
 44
0.0000000001
 40
0.0
 40
0.0
 40
0.0
 40
0.0
 40
0.2461676952
 40
0.3746205623
 40
0.5041040506
 40
0.6329007953
 40
0.7594254163
 40
0.8821070084
 40
1.0
 40
1.0
 40
1.0
 40
1.0
 10
10.8173924116
 20
10.0943816346
 30
0.0
 10
10.8243765836
 20
10.0924311681
 30
0.0
 10
10.8346468789
 20
10.0877998532
 30
0.0
 10
10.8463903426
 20
10.0786359229
 30
0.0
 10
10.8541708676
 20
10.0702364249
 30
0.0
 10
10.8603630621
 20
10.0606784411
 30
0.0
 10
10.8648235868
 20
10.0504182809
 30
0.0
 10
10.8674108279
 20
10.0398694885
 30
0.0
 10
10.8679834191
 20
10.0327713407
 30
0.0
 10
10.8679834891
 20
10.0292985428
 30
0.0
  0
SPLINE
  5
345
100
AcDbEntity
  8
0
100
AcDbSpline
 62
9
  6
CONTINUOUS
 70
0
 71
3
 72
14
 73
10
 74
0
 42
0.0000001
 43
0.0000001
 44
0.0000000001
 40
0.0
 40
0.0
 40
0.0
 40
0.0
 40
0.1170288884
 40
0.2392828652
 40
0.3657818993
 40
0.4948381104
 40
0.6247314425
 40
0.7535769357
 40
1.0
 40
1.0
 40
1.0
 40
1.0
 10
10.7899538131
 20
10.1196838923
 30
0.0
 10
10.7889880608
 20
10.123037006
 30
0.0
 10
10.7864586912
 20
10.1297449039
 30
0.0
 10
10.781024225
 20
10.13925513
 30
0.0
 10
10.7738509255
 20
10.1480084443
 30
0.0
 10
10.7651854384
 20
10.1556374414
 30
0.0
 10
10.7552915031
 20
10.161730406
 30
0.0
 10
10.7413351298
 20
10.1675151536
 30
0.0
 10
10.7300515337
 20
10.1692894866
 30
0.0
 10
10.7227040566
 20
10.1693178277
 30
0.0
  0
SPLINE
  5
346
100
AcDbEntity
  8
0
100
AcDbSpline
 62
9
  6
CONTINUOUS
 70
0
 71
3
 72
15
 73
11
 74
0
 42
0.0000001
 43
0.0000001
 44
0.0000000001
 40
0.0
 40
0.0
 40
0.0
 40
0.0
 40
0.1229724168
 40
0.2465972416
 40
0.3707268104
 40
0.4955338572
 40
0.6209763765
 40
0.7469629743
 40
0.8734626734
 40
1.0
 40
1.0
 40
1.0
 40
1.0
 10
10.7899589797
 20
10.1211595896
 30
0.0
 10
10.7889420115
 20
10.12468206
 30
0.0
 10
10.7863043473
 20
10.1315874482
 30
0.0
 10
10.7806968643
 20
10.141167448
 30
0.0
 10
10.7735608331
 20
10.1497451934
 30
0.0
 10
10.7650924787
 20
10.1570903651
 30
0.0
 10
10.7555164993
 20
10.1630227393
 30
0.0
 10
10.7450741963
 20
10.1673822446
 30
0.0
 10
10.7340474916
 20
10.1700491751
 30
0.0
 10
10.7264919146
 20
10.1706639096
 30
0.0
 10
10.7227193045
 20
10.1706732105
 30
0.0
  0
SPLINE
  5
347
100
AcDbEntity
  8
0
100
AcDbSpline
 62
9
  6
CONTINUOUS
 70
0
 71
3
 72
32
 73
28
 74
0
 42
0.0000001
 43
0.0000001
 44
0.0000000001
 40
0.0
 40
0.0
 40
0.0
 40
0.0
 40
0.193412137
 40
0.2877863211
 40
0.3793638705
 40
0.4672394096
 40
0.5506062021
 40
0.6286835219
 40
0.7006936468
 40
0.7659087291
 40
0.8237872269
 40
0.8498238532
 40
0.8738461112
 40
0.8957971876
 40
0.9156232476
 40
0.933282231
 40
0.948767571
 40
0.9620905455
 40
0.9732814284
 40
0.9780980923
 40
0.9824122557
 40
0.9862450645
 40
0.9896280382
 40
0.9926085293
 40
0.9952572995
 40
0.9976763158
 40
1.0
 40
1.0
 40
1.0
 40
1.0
 10
11.1844515022
 20
10.2579151157
 30
0.0
 10
11.1588572205
 20
10.2603802758
 30
0.0
 10
11.1207386801
 20
10.2636923868
 30
0.0
 10
11.0704356788
 20
10.2673280312
 30
0.0
 10
11.0341014011
 20
10.2695811025
 30
0.0
 10
10.9992057783
 20
10.2713560986
 30
0.0
 10
10.9660846245
 20
10.2726420812
 30
0.0
 10
10.9350575654
 20
10.2734301137
 30
0.0
 10
10.9064346301
 20
10.2737128319
 30
0.0
 10
10.8804964097
 20
10.2734809241
 30
0.0
 10
10.860678044
 20
10.2728503078
 30
0.0
 10
10.846349584
 20
10.2720629831
 30
0.0
 10
10.8368009197
 20
10.2713699652
 30
0.0
 10
10.8280906272
 20
10.270555493
 30
0.0
 10
10.8202433813
 20
10.2696213241
 30
0.0
 10
10.8132791281
 20
10.2685683552
 30
0.0
 10
10.8072104877
 20
10.2674016646
 30
0.0
 10
10.8020455844
 20
10.2661256637
 30
0.0
 10
10.7983300759
 20
10.2649235501
 30
0.0
 10
10.7958349194
 20
10.2638837847
 30
0.0
 10
10.7942896689
 20
10.2631172028
 30
0.0
 10
10.7929751664
 20
10.2623245917
 30
0.0
 10
10.7918915313
 20
10.2615049768
 30
0.0
 10
10.7910391976
 20
10.2606563431
 30
0.0
 10
10.7904205711
 20
10.2597747077
 30
0.0
 10
10.7900429907
 20
10.2588575806
 30
0.0
 10
10.7899592519
 20
10.2582240212
 30
0.0
 10
10.7899591259
 20
10.2579151045
 30
0.0
  0
SPLINE
  5
348
100
AcDbEntity
  8
0
100
AcDbSpline
 62
9
  6
CONTINUOUS
 70
0
 71
3
 72
15
 73
11
 74
0
 42
0.0000001
 43
0.0000001
 44
0.0000000001
 40
0.0
 40
0.0
 40
0.0
 40
0.0
 40
0.2423698007
 40
0.3058372523
 40
0.3700098171
 40
0.4993677622
 40
0.628822381
 40
0.6931105712
 40
0.7567331235
 40
1.0
 40
1.0
 40
1.0
 40
1.0
 10
10.7899590894
 20
10.2579152346
 30
0.0
 10
10.7879870886
 20
10.264940634
 30
0.0
 10
10.7840470022
 20
10.2735001131
 30
0.0
 10
10.7774599003
 20
10.2824868688
 30
0.0
 10
10.7723860615
 20
10.2883397059
 30
0.0
 10
10.7651287041
 20
10.2948844115
 30
0.0
 10
10.7568594106
 20
10.300098459
 30
0.0
 10
10.7498420783
 20
10.3034040119
 30
0.0
 10
10.7393764879
 20
10.3073295528
 30
0.0
 10
10.7300432073
 20
10.308823989
 30
0.0
 10
10.7227193042
 20
10.308842539
 30
0.0
  0
SPLINE
  5
349
100
AcDbEntity
  8
0
100
AcDbSpline
 62
9
  6
CONTINUOUS
 70
0
 71
3
 72
15
 73
11
 74
0
 42
0.0000001
 43
0.0000001
 44
0.0000000001
 40
0.0
 40
0.0
 40
0.0
 40
0.0
 40
0.1229722178
 40
0.246597
 40
0.3707266248
 40
0.4955337263
 40
0.6209762973
 40
0.7469629425
 40
0.8734626639
 40
1.0
 40
1.0
 40
1.0
 40
1.0
 10
10.630007972
 20
10.1211591981
 30
0.0
 10
10.6310249226
 20
10.1246816841
 30
0.0
 10
10.63366256
 20
10.1315871099
 30
0.0
 10
10.6392700174
 20
10.1411671746
 30
0.0
 10
10.6464060386
 20
10.1497449951
 30
0.0
 10
10.6548744038
 20
10.1570902375
 30
0.0
 10
10.6644504088
 20
10.1630226736
 30
0.0
 10
10.674892748
 20
10.1673822317
 30
0.0
 10
10.6859194992
 20
10.1700491953
 30
0.0
 10
10.6934751105
 20
10.1706639368
 30
0.0
 10
10.6972477375
 20
10.1706732377
 30
0.0
  0
SPLINE
  5
34A
100
AcDbEntity
  8
0
100
AcDbSpline
 62
9
  6
CONTINUOUS
 70
0
 71
3
 72
15
 73
11
 74
0
 42
0.0000001
 43
0.0000001
 44
0.0000000001
 40
0.0
 40
0.0
 40
0.0
 40
0.0
 40
0.2423697244
 40
0.3058371615
 40
0.3700097149
 40
0.4993676478
 40
0.62882227
 40
0.6931104681
 40
0.7567330327
 40
1.0
 40
1.0
 40
1.0
 40
1.0
 10
10.6300079572
 20
10.2579151906
 30
0.0
 10
10.6319799507
 20
10.2649405872
 30
0.0
 10
10.6359200262
 20
10.2735000646
 30
0.0
 10
10.6425071136
 20
10.2824868228
 30
0.0
 10
10.6475809428
 20
10.2883396635
 30
0.0
 10
10.6548382888
 20
10.2948843761
 30
0.0
 10
10.6631075722
 20
10.3000984338
 30
0.0
 10
10.6701248982
 20
10.3034039961
 30
0.0
 10
10.6805904826
 20
10.3073295527
 30
0.0
 10
10.6899237611
 20
10.3088240029
 30
0.0
 10
10.6972476646
 20
10.308842564
 30
0.0
  0
SPLINE
  5
34B
100
AcDbEntity
  8
0
100
AcDbSpline
 62
9
  6
CONTINUOUS
 70
0
 71
3
 72
13
 73
9
 74
0
 42
0.0000001
 43
0.0000001
 44
0.0000000001
 40
0.0
 40
0.0
 40
0.0
 40
0.0
 40
0.2474549785
 40
0.3744391401
 40
0.5018980205
 40
0.7547831068
 40
0.8790084879
 40
1.0
 40
1.0
 40
1.0
 40
1.0
 10
10.6025213692
 20
10.2303596379
 30
0.0
 10
10.6057394459
 20
10.2312792728
 30
0.0
 10
10.6104472984
 20
10.2333267865
 30
0.0
 10
10.6160923526
 20
10.2371179725
 30
0.0
 10
10.6212693864
 20
10.2416493438
 30
0.0
 10
10.6254413426
 20
10.2471656828
 30
0.0
 10
10.628456359
 20
10.2532019682
 30
0.0
 10
10.6295657742
 20
10.2563396445
 30
0.0
 10
10.6300080241
 20
10.2579151981
 30
0.0
  0
SPLINE
  5
34C
100
AcDbEntity
  8
0
100
AcDbSpline
 62
9
  6
CONTINUOUS
 70
0
 71
3
 72
39
 73
35
 74
0
 42
0.0000001
 43
0.0000001
 44
0.0000000001
 40
0.0
 40
0.0
 40
0.0
 40
0.0
 40
0.0311871526
 40
0.0624005976
 40
0.0936292636
 40
0.1248704737
 40
0.1561226782
 40
0.1873852126
 40
0.2186588598
 40
0.2499385275
 40
0.2812222498
 40
0.312510693
 40
0.3438011268
 40
0.3750945664
 40
0.4063899044
 40
0.4376836635
 40
0.4689770928
 40
0.5002680606
 40
0.5315538793
 40
0.5628360349
 40
0.5941117653
 40
0.6253799049
 40
0.6566416474
 40
0.687893918
 40
0.7191373733
 40
0.7503727551
 40
0.781597736
 40
0.8128147629
 40
0.844024192
 40
0.8752257495
 40
0.9064229042
 40
0.9376158475
 40
0.9688070037
 40
1.0
 40
1.0
 40
1.0
 40
1.0
 10
9.4704617546
 20
10.0943824621
 30
0.0
 10
9.4626336122
 20
10.0923434873
 30
0.0
 10
9.4471671056
 20
10.0874632802
 30
0.0
 10
9.4248252496
 20
10.0778434187
 30
0.0
 10
9.4035584487
 20
10.0659993579
 30
0.0
 10
9.3836071118
 20
10.0520369689
 30
0.0
 10
9.3651673999
 20
10.0361179685
 30
0.0
 10
9.3484478779
 20
10.0183882654
 30
0.0
 10
9.333627142
 20
9.9990350567
 30
0.0
 10
9.3208507788
 20
9.9782683074
 30
0.0
 10
9.3102808576
 20
9.9562915386
 30
0.0
 10
9.302016168
 20
9.9333460287
 30
0.0
 10
9.2961425586
 20
9.9096719068
 30
0.0
 10
9.2927459043
 20
9.8855160195
 30
0.0
 10
9.291837129
 20
9.8611390451
 30
0.0
 10
9.2934398124
 20
9.8367969888
 30
0.0
 10
9.2975451472
 20
9.8127519433
 30
0.0
 10
9.3040841364
 20
9.7892539455
 30
0.0
 10
9.3130086745
 20
9.7665570194
 30
0.0
 10
9.3242127783
 20
9.7448999588
 30
0.0
 10
9.3375642762
 20
9.7245015955
 30
0.0
 10
9.3529407964
 20
9.7055896175
 30
0.0
 10
9.3701591661
 20
9.6883475395
 30
0.0
 10
9.3890393191
 20
9.6729520606
 30
0.0
 10
9.409390889
 20
9.6595752326
 30
0.0
 10
9.4309847789
 20
9.648329804
 30
0.0
 10
9.4536041199
 20
9.6393400799
 30
0.0
 10
9.4770126076
 20
9.6326972893
 30
0.0
 10
9.500964778
 20
9.6284450957
 30
0.0
 10
9.5252199418
 20
9.6266448354
 30
0.0
 10
9.5495277563
 20
9.627299233
 30
0.0
 10
9.5736453229
 20
9.6303919324
 30
0.0
 10
9.5973222247
 20
9.6359102812
 30
0.0
 10
9.6126628016
 20
9.6411584766
 30
0.0
 10
9.620176448
 20
9.6441596222
 30
0.0
  0
SPLINE
  5
34D
100
AcDbEntity
  8
0
100
AcDbSpline
 62
9
  6
CONTINUOUS
 70
0
 71
3
 72
39
 73
35
 74
0
 42
0.0000001
 43
0.0000001
 44
0.0000000001
 40
0.0
 40
0.0
 40
0.0
 40
0.0
 40
0.031690476
 40
0.0633911199
 40
0.0950737108
 40
0.1267244917
 40
0.1583431519
 40
0.1899261017
 40
0.221473777
 40
0.2529826057
 40
0.2844477651
 40
0.3158719569
 40
0.3472544449
 40
0.3785957957
 40
0.4098992671
 40
0.4411644666
 40
0.4723947681
 40
0.5035925184
 40
0.5347582682
 40
0.5658961336
 40
0.5970069646
 40
0.6280926992
 40
0.6591572543
 40
0.6902008941
 40
0.721226898
 40
0.7522378971
 40
0.7832342138
 40
0.8142198334
 40
0.8451957683
 40
0.8761629975
 40
0.9071257945
 40
0.9380846137
 40
0.9690417171
 40
1.0
 40
1.0
 40
1.0
 40
1.0
 10
9.7947258745
 20
9.8645510678
 30
0.0
 10
9.794724765
 20
9.8554452584
 30
0.0
 10
9.7937689745
 20
9.8372170414
 30
0.0
 10
9.7895279414
 20
9.8101835709
 30
0.0
 10
9.7825178403
 20
9.783740204
 30
0.0
 10
9.7728022326
 20
9.7581935479
 30
0.0
 10
9.7605296991
 20
9.7338046824
 30
0.0
 10
9.7458240952
 20
9.7108355041
 30
0.0
 10
9.728857195
 20
9.6895240501
 30
0.0
 10
9.7098348683
 20
9.6700725243
 30
0.0
 10
9.6889465551
 20
9.6526953266
 30
0.0
 10
9.6664319143
 20
9.6375511806
 30
0.0
 10
9.6425321433
 20
9.6247782258
 30
0.0
 10
9.6174885213
 20
9.6145181246
 30
0.0
 10
9.5915719635
 20
9.6068421495
 30
0.0
 10
9.5650435454
 20
9.6018277913
 30
0.0
 10
9.5381745397
 20
9.5995292224
 30
0.0
 10
9.5112392923
 20
9.5999365867
 30
0.0
 10
9.4845088235
 20
9.6030599766
 30
0.0
 10
9.4582547224
 20
9.6088571842
 30
0.0
 10
9.4327354408
 20
9.6172497437
 30
0.0
 10
9.4082158829
 20
9.628174151
 30
0.0
 10
9.3849362592
 20
9.6414982182
 30
0.0
 10
9.3631264286
 20
9.6570841551
 30
0.0
 10
9.3430193584
 20
9.6747889887
 30
0.0
 10
9.3247996899
 20
9.6944115158
 30
0.0
 10
9.3086580317
 20
9.7157626057
 30
0.0
 10
9.2947650896
 20
9.7386282629
 30
0.0
 10
9.2832396357
 20
9.7627647183
 30
0.0
 10
9.2742188599
 20
9.787938416
 30
0.0
 10
9.2677869995
 20
9.8138884375
 30
0.0
 10
9.2639943186
 20
9.8403515386
 30
0.0
 10
9.2629047016
 20
9.8670589596
 30
0.0
 10
9.2639749302
 20
9.884852859
 30
0.0
 10
9.264955382
 20
9.8936940855
 30
0.0
  0
SPLINE
  5
34E
100
AcDbEntity
  8
0
100
AcDbSpline
 62
9
  6
CONTINUOUS
 70
0
 71
3
 72
32
 73
28
 74
0
 42
0.0000001
 43
0.0000001
 44
0.0000000001
 40
0.0
 40
0.0
 40
0.0
 40
0.0
 40
0.0023234751
 40
0.0047422761
 40
0.0073908401
 40
0.0103711422
 40
0.0137539469
 40
0.0175866067
 40
0.0219006401
 40
0.0267171914
 40
0.0379078968
 40
0.0512307505
 40
0.0667160214
 40
0.0843749842
 40
0.1042010648
 40
0.1261521736
 40
0.1501744398
 40
0.176211013
 40
0.234089071
 40
0.2993030154
 40
0.3713112241
 40
0.4493866729
 40
0.5327526932
 40
0.6206296144
 40
0.7122111063
 40
0.8065895937
 40
1.0
 40
1.0
 40
1.0
 40
1.0
 10
10.6300075994
 20
10.257913916
 30
0.0
 10
10.6300075043
 20
10.2582228056
 30
0.0
 10
10.6299238275
 20
10.2588563188
 30
0.0
 10
10.6295463291
 20
10.2597733926
 30
0.0
 10
10.6289277771
 20
10.2606549848
 30
0.0
 10
10.6280755122
 20
10.2615035852
 30
0.0
 10
10.6269919402
 20
10.2623231766
 30
0.0
 10
10.6256774948
 20
10.2631157732
 30
0.0
 10
10.6241322953
 20
10.2638823488
 30
0.0
 10
10.6216371947
 20
10.2649221181
 30
0.0
 10
10.617921741
 20
10.2661242496
 30
0.0
 10
10.6127568845
 20
10.2674002831
 30
0.0
 10
10.6066882666
 20
10.2685670118
 30
0.0
 10
10.599724013
 20
10.2696200155
 30
0.0
 10
10.5918767486
 20
10.2705542069
 30
0.0
 10
10.5831664309
 20
10.2713686935
 30
0.0
 10
10.5736177488
 20
10.27206172
 30
0.0
 10
10.5592893237
 20
10.2728490512
 30
0.0
 10
10.5394711339
 20
10.2734796773
 30
0.0
 10
10.5135333244
 20
10.2737116231
 30
0.0
 10
10.4849109836
 20
10.2734289833
 30
0.0
 10
10.453884464
 20
10.2726410194
 30
0.0
 10
10.4207634079
 20
10.2713550541
 30
0.0
 10
10.3858671097
 20
10.269579982
 30
0.0
 10
10.3495314841
 20
10.2673267365
 30
0.0
 10
10.2992275202
 20
10.2636909401
 30
0.0
 10
10.261108555
 20
10.2603788586
 30
0.0
 10
10.2355144419
 20
10.2579137879
 30
0.0
  0
SPLINE
  5
34F
100
AcDbEntity
  8
0
100
AcDbSpline
 62
9
  6
CONTINUOUS
 70
0
 71
3
 72
19
 73
15
 74
0
 42
0.0000001
 43
0.0000001
 44
0.0000000001
 40
0.0
 40
0.0
 40
0.0
 40
0.0
 40
0.0284858588
 40
0.0623657684
 40
0.1459973798
 40
0.1954282825
 40
0.2496723308
 40
0.3715910182
 40
0.4387852176
 40
0.5098378683
 40
0.5844688707
 40
0.6623665605
 40
0.8267551216
 40
1.0
 40
1.0
 40
1.0
 40
1.0
 10
9.8015041125
 20
9.9308212157
 30
0.0
 10
9.801508544
 20
9.9305609509
 30
0.0
 10
9.8015561355
 20
9.9299919711
 30
0.0
 10
9.801754411
 20
9.9286724637
 30
0.0
 10
9.802054941
 20
9.9271763497
 30
0.0
 10
9.8023784264
 20
9.9254956742
 30
0.0
 10
9.8027533858
 20
9.9234685932
 30
0.0
 10
9.8031759685
 20
9.9212850596
 30
0.0
 10
9.8036952958
 20
9.9189648367
 30
0.0
 10
9.8041662776
 20
9.9170773508
 30
0.0
 10
9.8046726445
 20
9.9150980338
 30
0.0
 10
9.8053668817
 20
9.9122864575
 30
0.0
 10
9.8061445518
 20
9.9085675744
 30
0.0
 10
9.8065376448
 20
9.9055021401
 30
0.0
 10
9.8066598194
 20
9.9039237575
 30
0.0
  0
SPLINE
  5
350
100
AcDbEntity
  8
0
100
AcDbSpline
 62
9
  6
CONTINUOUS
 70
0
 71
3
 72
11
 73
7
 74
0
 42
0.0000001
 43
0.0000001
 44
0.0000000001
 40
0.0
 40
0.0
 40
0.0
 40
0.0
 40
0.244919698
 40
0.4933074749
 40
0.7450443184
 40
1.0
 40
1.0
 40
1.0
 40
1.0
 10
11.6420351816
 20
7.729997064
 30
0.0
 10
11.6197558503
 20
7.7597872395
 30
0.0
 10
11.5760460017
 20
7.8206687302
 30
0.0
 10
11.5134667864
 20
7.9149805009
 30
0.0
 10
11.453502218
 20
8.012768045
 30
0.0
 10
11.4155686384
 20
8.0797491942
 30
0.0
 10
11.3970486266
 20
8.1137574975
 30
0.0
  0
LINE
  5
351
100
AcDbEntity
  8
0
100
AcDbLine
 62
9
  6
CONTINUOUS
 10
11.6420847879
 20
7.6978918019
 11
11.6420551073
 21
7.7299970534
  0
SPLINE
  5
352
100
AcDbEntity
  8
0
100
AcDbSpline
 62
9
  6
CONTINUOUS
 70
0
 71
3
 72
11
 73
7
 74
0
 42
0.0000001
 43
0.0000001
 44
0.0000000001
 40
0.0
 40
0.0
 40
0.0
 40
0.0
 40
0.1972698803
 40
0.429056033
 40
0.6968108355
 40
1.0
 40
1.0
 40
1.0
 40
1.0
 10
10.3565027104
 20
9.4583320267
 30
0.0
 10
10.3568577254
 20
9.4592257395
 30
0.0
 10
10.3578948254
 20
9.461064495
 30
0.0
 10
10.3600603488
 20
9.4636944452
 30
0.0
 10
10.3629180524
 20
9.4663800907
 30
0.0
 10
10.3651286375
 20
9.4680778969
 30
0.0
 10
10.3663344516
 20
9.4689325441
 30
0.0
  0
SPLINE
  5
353
100
AcDbEntity
  8
0
100
AcDbSpline
 62
9
  6
CONTINUOUS
 70
0
 71
3
 72
42
 73
38
 74
0
 42
0.0000001
 43
0.0000001
 44
0.0000000001
 40
0.0
 40
0.0
 40
0.0
 40
0.0
 40
0.0000280213
 40
0.0000886673
 40
0.000185627
 40
0.0003196107
 40
0.0006994546
 40
0.0012289587
 40
0.001908271
 40
0.0027373956
 40
0.0037162809
 40
0.0048448493
 40
0.007550657
 40
0.0108540119
 40
0.0147540256
 40
0.01924871
 40
0.0243343768
 40
0.0300071822
 40
0.0362632771
 40
0.0430988091
 40
0.0584927635
 40
0.0761574833
 40
0.0960497638
 40
0.1181169059
 40
0.1423059282
 40
0.1685634475
 40
0.1968264736
 40
0.227022155
 40
0.2929181013
 40
0.3656277832
 40
0.4444453278
 40
0.5286212197
 40
0.6173248435
 40
0.7097094518
 40
0.8049174629
 40
0.9020403038
 40
1.0
 40
1.0
 40
1.0
 40
1.0
 10
10.6969192121
 20
9.5494698032
 30
0.0
 10
10.6969221526
 20
9.5494699189
 30
0.0
 10
10.6969280443
 20
9.5494797524
 30
0.0
 10
10.6969328603
 20
9.5494971468
 30
0.0
 10
10.6969392241
 20
9.5495279044
 30
0.0
 10
10.696948179
 20
9.5495909863
 30
0.0
 10
10.696959012
 20
9.5497003811
 30
0.0
 10
10.6969711106
 20
9.549866627
 30
0.0
 10
10.6969834023
 20
9.550080364
 30
0.0
 10
10.696995756
 20
9.550341267
 30
0.0
 10
10.6970081547
 20
9.5506494227
 30
0.0
 10
10.6970257887
 20
9.5511545954
 30
0.0
 10
10.6970472071
 20
9.5519038923
 30
0.0
 10
10.6970717048
 20
9.5529442532
 30
0.0
 10
10.6970961789
 20
9.554172525
 30
0.0
 10
10.6971206002
 20
9.5555880045
 30
0.0
 10
10.6971449285
 20
9.5571896859
 30
0.0
 10
10.6971691364
 20
9.5589763687
 30
0.0
 10
10.6971932013
 20
9.5609468367
 30
0.0
 10
10.6972263966
 20
9.563938169
 30
0.0
 10
10.6972668183
 20
9.56812761
 30
0.0
 10
10.6973128228
 20
9.5736882562
 30
0.0
 10
10.6973578882
 20
9.5799497392
 30
0.0
 10
10.6974019021
 20
9.5868964178
 30
0.0
 10
10.6974447327
 20
9.5945115838
 30
0.0
 10
10.6974862513
 20
9.6027774489
 30
0.0
 10
10.6975263535
 20
9.6116741387
 30
0.0
 10
10.6975793661
 20
9.6247335836
 30
0.0
 10
10.697640598
 20
9.6424607575
 30
0.0
 10
10.69770508
 20
9.6652941457
 30
0.0
 10
10.6977619032
 20
9.690047294
 30
0.0
 10
10.6978104407
 20
9.7164801242
 30
0.0
 10
10.6978502207
 20
9.7443377645
 30
0.0
 10
10.6978807701
 20
9.7733539948
 30
0.0
 10
10.697901961
 20
9.8032544081
 30
0.0
 10
10.6979136263
 20
9.8337403146
 30
0.0
 10
10.6979147105
 20
9.8542276107
 30
0.0
 10
10.6979134815
 20
9.8645152012
 30
0.0
  0
SPLINE
  5
354
100
AcDbEntity
  8
0
100
AcDbSpline
 62
9
  6
CONTINUOUS
 70
0
 71
3
 72
14
 73
10
 74
0
 42
0.0000001
 43
0.0000001
 44
0.0000000001
 40
0.0
 40
0.0
 40
0.0
 40
0.0
 40
0.1282880153
 40
0.2561493327
 40
0.3831893476
 40
0.5091940369
 40
0.6339796667
 40
0.7574375613
 40
1.0
 40
1.0
 40
1.0
 40
1.0
 10
11.0063799979
 20
9.1144701617
 30
0.0
 10
11.0167812811
 20
9.0695371945
 30
0.0
 10
11.0390729767
 20
8.9801629999
 30
0.0
 10
11.0773870355
 20
8.8478049432
 30
0.0
 10
11.1202644684
 20
8.7177179169
 30
0.0
 10
11.1674736335
 20
8.5903197275
 30
0.0
 10
11.2188217697
 20
8.4659201366
 30
0.0
 10
11.2921669911
 20
8.3054068411
 30
0.0
 10
11.3535965684
 20
8.1888434663
 30
0.0
 10
11.3972686622
 20
8.1133628772
 30
0.0
  0
SPLINE
  5
355
100
AcDbEntity
  8
0
100
AcDbSpline
 62
9
  6
CONTINUOUS
 70
0
 71
3
 72
24
 73
20
 74
0
 42
0.0000001
 43
0.0000001
 44
0.0000000001
 40
0.0
 40
0.0
 40
0.0
 40
0.0
 40
0.2065877015
 40
0.4046534978
 40
0.5858655233
 40
0.6667350351
 40
0.7391504031
 40
0.8018161143
 40
0.8543849614
 40
0.8969353552
 40
0.9296798153
 40
0.9425475979
 40
0.9532999803
 40
0.9622738868
 40
0.9699365297
 40
0.9769056983
 40
0.9838745714
 40
0.991441114
 40
1.0
 40
1.0
 40
1.0
 40
1.0
 10
11.6420344945
 20
7.7300005165
 30
0.0
 10
11.6397479058
 20
7.7303514046
 30
0.0
 10
11.6352626602
 20
7.7309983696
 30
0.0
 10
11.6287487691
 20
7.7317842751
 30
0.0
 10
11.6236149933
 20
7.7322417331
 30
0.0
 10
11.6198747016
 20
7.7324485086
 30
0.0
 10
11.6174569353
 20
7.7325145155
 30
0.0
 10
11.6153551978
 20
7.7324907153
 30
0.0
 10
11.6135904685
 20
7.7323811772
 30
0.0
 10
11.612170176
 20
7.7321930944
 30
0.0
 10
11.6112055396
 20
7.731964914
 30
0.0
 10
11.6106177537
 20
7.7317315591
 30
0.0
 10
11.6102976917
 20
7.7315533014
 30
0.0
 10
11.6100586262
 20
7.7313577315
 30
0.0
 10
11.6098985422
 20
7.7311430383
 30
0.0
 10
11.6098192346
 20
7.7309098908
 30
0.0
 10
11.6098201547
 20
7.7306651712
 30
0.0
 10
11.6098934291
 20
7.7304145693
 30
0.0
 10
11.6099794806
 20
7.7302545959
 30
0.0
 10
11.6100307126
 20
7.7301735963
 30
0.0
  0
SPLINE
  5
356
100
AcDbEntity
  8
0
100
AcDbSpline
 62
9
  6
CONTINUOUS
 70
0
 71
3
 72
14
 73
10
 74
0
 42
0.0000001
 43
0.0000001
 44
0.0000000001
 40
0.0
 40
0.0
 40
0.0
 40
0.0
 40
0.0916627327
 40
0.1946916569
 40
0.3083718936
 40
0.4319259217
 40
0.5644151963
 40
0.704359871
 40
1.0
 40
1.0
 40
1.0
 40
1.0
 10
10.9917532687
 20
9.1144715718
 30
0.0
 10
10.9899141056
 20
9.1148852443
 30
0.0
 10
10.9859720659
 20
9.1156073038
 30
0.0
 10
10.9796753084
 20
9.1163837301
 30
0.0
 10
10.9726944942
 20
9.1169041002
 30
0.0
 10
10.9650930585
 20
9.1171537846
 30
0.0
 10
10.9569476736
 20
9.1171200835
 30
0.0
 10
10.9452709335
 20
9.1167038925
 30
0.0
 10
10.936334509
 20
9.116007079
 30
0.0
 10
10.9302856309
 20
9.1153921259
 30
0.0
  0
SPLINE
  5
357
100
AcDbEntity
  8
0
100
AcDbSpline
 62
9
  6
CONTINUOUS
 70
0
 71
3
 72
13
 73
9
 74
0
 42
0.0000001
 43
0.0000001
 44
0.0000000001
 40
0.0
 40
0.0
 40
0.0
 40
0.0
 40
0.1250672136
 40
0.2501710555
 40
0.3752762571
 40
0.5003592569
 40
0.7503772564
 40
1.0
 40
1.0
 40
1.0
 40
1.0
 10
10.9230259466
 20
9.3128947268
 30
0.0
 10
10.9264197581
 20
9.3048194889
 30
0.0
 10
10.9330750009
 20
9.2886102032
 30
0.0
 10
10.9426452241
 20
9.2641296439
 30
0.0
 10
10.9517836355
 20
9.2394832743
 30
0.0
 10
10.9633931263
 20
9.2064279665
 30
0.0
 10
10.976924868
 20
9.1648120853
 30
0.0
 10
10.9869147063
 20
9.1312716802
 30
0.0
 10
10.9917532687
 20
9.1144715718
 30
0.0
  0
LINE
  5
358
100
AcDbEntity
  8
0
100
AcDbLine
 62
9
  6
CONTINUOUS
 10
10.7099835036
 20
7.697968644
 11
10.7099834653
 21
7.7316952869
  0
LINE
  5
359
100
AcDbEntity
  8
0
100
AcDbLine
 62
9
  6
CONTINUOUS
 10
11.521755759
 20
7.7314857427
 11
11.5217803384
 21
7.697891804
  0
SPLINE
  5
35A
100
AcDbEntity
  8
0
100
AcDbSpline
 62
9
  6
CONTINUOUS
 70
0
 71
3
 72
45
 73
41
 74
0
 42
0.0000001
 43
0.0000001
 44
0.0000000001
 40
0.0
 40
0.0
 40
0.0
 40
0.0
 40
0.000016391
 40
0.0000232469
 40
0.0000419348
 40
0.0000762184
 40
0.0001264718
 40
0.0001927995
 40
0.000373826
 40
0.0009297509
 40
0.0017444356
 40
0.0028179851
 40
0.0041503111
 40
0.0057403423
 40
0.0075865794
 40
0.0096875166
 40
0.0120416457
 40
0.0175034381
 40
0.0239598678
 40
0.0313988371
 40
0.0398082088
 40
0.0491721024
 40
0.0706712463
 40
0.0957080263
 40
0.1240911068
 40
0.1555886045
 40
0.189934157
 40
0.2268591261
 40
0.2660667544
 40
0.3072315577
 40
0.3500263152
 40
0.4391180162
 40
0.5304658828
 40
0.6211307367
 40
0.70818626
 40
0.7888206434
 40
0.8604433361
 40
0.9207325308
 40
0.9677555288
 40
1.0
 40
1.0
 40
1.0
 40
1.0
 10
10.7901034933
 20
9.5998237025
 30
0.0
 10
10.790102691
 20
9.5998209777
 30
0.0
 10
10.7901023346
 20
9.59981485
 30
0.0
 10
10.7900936639
 20
9.5998168744
 30
0.0
 10
10.790093051
 20
9.5998291979
 30
0.0
 10
10.7900883996
 20
9.5998453677
 30
0.0
 10
10.7900857749
 20
9.5998719844
 30
0.0
 10
10.7900803953
 20
9.5999229502
 30
0.0
 10
10.7900713279
 20
9.6000622323
 30
0.0
 10
10.7900597125
 20
9.6003305812
 30
0.0
 10
10.7900470686
 20
9.6007541114
 30
0.0
 10
10.7900343085
 20
9.6013120103
 30
0.0
 10
10.7900216869
 20
9.6020043878
 30
0.0
 10
10.7900092042
 20
9.6028306565
 30
0.0
 10
10.7899969055
 20
9.603790147
 30
0.0
 10
10.7899847988
 20
9.6048820593
 30
0.0
 10
10.7899680929
 20
9.6066005138
 30
0.0
 10
10.7899482299
 20
9.6090737522
 30
0.0
 10
10.7899261791
 20
9.612428171
 30
0.0
 10
10.7899049579
 20
9.6162934026
 30
0.0
 10
10.7898845817
 20
9.6206624915
 30
0.0
 10
10.7898573049
 20
9.627468121
 30
0.0
 10
10.7898262844
 20
9.6371551914
 30
0.0
 10
10.7897937415
 20
9.6501381861
 30
0.0
 10
10.7897644681
 20
9.66485385
 30
0.0
 10
10.7897383941
 20
9.681182679
 30
0.0
 10
10.7897154585
 20
9.6989917743
 30
0.0
 10
10.7896956032
 20
9.7181369956
 30
0.0
 10
10.7896787608
 20
9.7384639574
 30
0.0
 10
10.7896648682
 20
9.7598081223
 30
0.0
 10
10.7896500059
 20
9.7897969125
 30
0.0
 10
10.7896389318
 20
9.828482143
 30
0.0
 10
10.7896366081
 20
9.8754629888
 30
0.0
 10
10.7896450795
 20
9.9220909761
 30
0.0
 10
10.7896644674
 20
9.9668623744
 30
0.0
 10
10.7896948075
 20
10.0083338694
 30
0.0
 10
10.7897366478
 20
10.0451668978
 30
0.0
 10
10.7897893458
 20
10.0761752534
 30
0.0
 10
10.7898552562
 20
10.1003595278
 30
0.0
 10
10.7899142222
 20
10.1140960328
 30
0.0
 10
10.7899538758
 20
10.1196836745
 30
0.0
  0
SPLINE
  5
35B
100
AcDbEntity
  8
0
100
AcDbSpline
 62
9
  6
CONTINUOUS
 70
0
 71
3
 72
26
 73
22
 74
0
 42
0.0000001
 43
0.0000001
 44
0.0000000001
 40
0.0
 40
0.0
 40
0.0
 40
0.0
 40
0.0325669917
 40
0.065137519
 40
0.0976917463
 40
0.1302137282
 40
0.1626913949
 40
0.1951093056
 40
0.2597025735
 40
0.3239326236
 40
0.3877609337
 40
0.451155406
 40
0.5140913709
 40
0.5765534908
 40
0.6385277858
 40
0.7000037073
 40
0.7609795499
 40
0.8214594113
 40
0.8814532516
 40
0.9409671574
 40
1.0
 40
1.0
 40
1.0
 40
1.0
 10
10.9302850227
 20
9.1153903333
 30
0.0
 10
10.9313432087
 20
9.1040117112
 30
0.0
 10
10.9336643517
 20
9.0812716412
 30
0.0
 10
10.9377993824
 20
9.0472398782
 30
0.0
 10
10.9426293397
 20
9.0133151771
 30
0.0
 10
10.9481883245
 20
8.9795355577
 30
0.0
 10
10.9543809272
 20
8.9459155626
 30
0.0
 10
10.9633562393
 20
8.9013718124
 30
0.0
 10
10.9756921808
 20
8.8461460097
 30
0.0
 10
10.9921317252
 20
8.7805670808
 30
0.0
 10
11.0100516796
 20
8.7158140422
 30
0.0
 10
11.029329941
 20
8.6519271864
 30
0.0
 10
11.049886321
 20
8.5889443018
 30
0.0
 10
11.0716840467
 20
8.5269081223
 30
0.0
 10
11.0946989936
 20
8.4658602683
 30
0.0
 10
11.1189127253
 20
8.4058398206
 30
0.0
 10
11.1443012596
 20
8.3468772365
 30
0.0
 10
11.1708524986
 20
8.2890004231
 30
0.0
 10
11.1985752745
 20
8.232245512
 30
0.0
 10
11.227446185
 20
8.1766380059
 30
0.0
 10
11.2475034273
 20
8.140189569
 30
0.0
 10
11.2577081178
 20
8.1221629997
 30
0.0
  0
SPLINE
  5
35C
100
AcDbEntity
  8
0
100
AcDbSpline
 62
9
  6
CONTINUOUS
 70
0
 71
3
 72
9
 73
5
 74
0
 42
0.0000001
 43
0.0000001
 44
0.0000000001
 40
0.0
 40
0.0
 40
0.0
 40
0.0
 40
0.4988450602
 40
1.0
 40
1.0
 40
1.0
 40
1.0
 10
10.9230249541
 20
9.3128914014
 30
0.0
 10
10.9231451961
 20
9.2800213981
 30
0.0
 10
10.9237927732
 20
9.2141211868
 30
0.0
 10
10.9275335434
 20
9.1482984841
 30
0.0
 10
10.9302862462
 20
9.1153909875
 30
0.0
  0
SPLINE
  5
35D
100
AcDbEntity
  8
0
100
AcDbSpline
 62
9
  6
CONTINUOUS
 70
0
 71
3
 72
13
 73
9
 74
0
 42
0.0000001
 43
0.0000001
 44
0.0000000001
 40
0.0
 40
0.0
 40
0.0
 40
0.0
 40
0.2501678893
 40
0.3752730018
 40
0.5003569976
 40
0.6253991603
 40
0.75037551
 40
1.0
 40
1.0
 40
1.0
 40
1.0
 10
10.4969410262
 20
9.3128945158
 30
0.0
 10
10.4900914864
 20
9.2967676898
 30
0.0
 10
10.4803419871
 20
9.272350064
 30
0.0
 10
10.4682042854
 20
9.2394746938
 30
0.0
 10
10.4594918691
 20
9.2146793183
 30
0.0
 10
10.4511588275
 20
9.1897636571
 30
0.0
 10
10.4405428005
 20
9.1564179688
 30
0.0
 10
10.4330622427
 20
9.1312681568
 30
0.0
 10
10.4282156922
 20
9.1144702565
 30
0.0
  0
SPLINE
  5
35E
100
AcDbEntity
  8
0
100
AcDbSpline
 62
9
  6
CONTINUOUS
 70
0
 71
3
 72
14
 73
10
 74
0
 42
0.0000001
 43
0.0000001
 44
0.0000000001
 40
0.0
 40
0.0
 40
0.0
 40
0.0
 40
0.2956402021
 40
0.4355848893
 40
0.5680741633
 40
0.6916281805
 40
0.8053083977
 40
0.908337296
 40
1.0
 40
1.0
 40
1.0
 40
1.0
 10
10.4896817837
 20
9.1153913319
 30
0.0
 10
10.4836329872
 20
9.1160062721
 30
0.0
 10
10.4746966834
 20
9.1167030682
 30
0.0
 10
10.4630201021
 20
9.11711924
 30
0.0
 10
10.4548748295
 20
9.1171529294
 30
0.0
 10
10.4472734996
 20
9.1169032359
 30
0.0
 10
10.4402927838
 20
9.1163828592
 30
0.0
 10
10.4339961165
 20
9.1156064288
 30
0.0
 10
10.4300541343
 20
9.1148843679
 30
0.0
 10
10.4282149986
 20
9.1144706952
 30
0.0
  0
SPLINE
  5
35F
100
AcDbEntity
  8
0
100
AcDbSpline
 62
9
  6
CONTINUOUS
 70
0
 71
3
 72
9
 73
5
 74
0
 42
0.0000001
 43
0.0000001
 44
0.0000000001
 40
0.0
 40
0.0
 40
0.0
 40
0.0
 40
0.2460907258
 40
1.0
 40
1.0
 40
1.0
 40
1.0
 10
11.3616598671
 20
8.1139953245
 30
0.0
 10
11.3614283579
 20
8.1144160087
 30
0.0
 10
11.3604457606
 20
8.116102179
 30
0.0
 10
11.3592960103
 20
8.1176903771
 30
0.0
 10
11.3583514791
 20
8.1188181373
 30
0.0
  0
SPLINE
  5
360
100
AcDbEntity
  8
0
100
AcDbSpline
 62
9
  6
CONTINUOUS
 70
0
 71
3
 72
21
 73
17
 74
0
 42
0.0000001
 43
0.0000001
 44
0.0000000001
 40
0.0
 40
0.0
 40
0.0
 40
0.0
 40
0.0417431989
 40
0.0856473224
 40
0.132246892
 40
0.1820148812
 40
0.2351616067
 40
0.2917682119
 40
0.3518533273
 40
0.4153788678
 40
0.4820995795
 40
0.551610447
 40
0.6970874443
 40
0.7721139362
 40
0.8479756869
 40
1.0
 40
1.0
 40
1.0
 40
1.0
 10
11.3583514791
 20
8.1188181373
 30
0.0
 10
11.357402126
 20
8.1199516546
 30
0.0
 10
11.3552867317
 20
8.1221416709
 30
0.0
 10
11.3516010082
 20
8.1250530858
 30
0.0
 10
11.3473306952
 20
8.1276180614
 30
0.0
 10
11.3424891343
 20
8.1297910192
 30
0.0
 10
11.3371129363
 20
8.1315586843
 30
0.0
 10
11.3312403425
 20
8.1328988776
 30
0.0
 10
11.3249123776
 20
8.1337900801
 30
0.0
 10
11.3181774707
 20
8.1342056248
 30
0.0
 10
11.3110971372
 20
8.1341534016
 30
0.0
 10
11.3011375371
 20
8.133471014
 30
0.0
 10
11.2909625472
 20
8.1319051546
 30
0.0
 10
11.2807266231
 20
8.1295661457
 30
0.0
 10
11.2703798903
 20
8.1267164306
 30
0.0
 10
11.2627333258
 20
8.1240975769
 30
0.0
 10
11.2577081681
 20
8.1221628086
 30
0.0
  0
SPLINE
  5
361
100
AcDbEntity
  8
0
100
AcDbSpline
 62
9
  6
CONTINUOUS
 70
0
 71
3
 72
21
 73
17
 74
0
 42
0.0000001
 43
0.0000001
 44
0.0000000001
 40
0.0
 40
0.0
 40
0.0
 40
0.0
 40
0.1517724717
 40
0.2275157526
 40
0.302436549
 40
0.447762439
 40
0.5172377293
 40
0.5839551701
 40
0.6475116262
 40
0.7076543149
 40
0.764341019
 40
0.8175877081
 40
0.8674704991
 40
0.9141843673
 40
0.9581844331
 40
1.0
 40
1.0
 40
1.0
 40
1.0
 10
10.1622589188
 20
8.1221630424
 30
0.0
 10
10.1572576665
 20
8.1240885834
 30
0.0
 10
10.1496477949
 20
8.1266963236
 30
0.0
 10
10.1393508554
 20
8.1295377961
 30
0.0
 10
10.1291614545
 20
8.1318743187
 30
0.0
 10
10.1190304633
 20
8.1334457953
 30
0.0
 10
10.1091097947
 20
8.1341432018
 30
0.0
 10
10.1020519747
 20
8.1342112564
 30
0.0
 10
10.0953338997
 20
8.1338168258
 30
0.0
 10
10.0890166183
 20
8.1329505501
 30
0.0
 10
10.0831484143
 20
8.1316383994
 30
0.0
 10
10.077769875
 20
8.129901649
 30
0.0
 10
10.0729188547
 20
8.1277625564
 30
0.0
 10
10.0686318863
 20
8.1252338119
 30
0.0
 10
10.0649239393
 20
8.1223585562
 30
0.0
 10
10.0627891858
 20
8.1201925488
 30
0.0
 10
10.0618292754
 20
8.11907064
 30
0.0
  0
SPLINE
  5
362
100
AcDbEntity
  8
0
100
AcDbSpline
 62
9
  6
CONTINUOUS
 70
0
 71
3
 72
25
 73
21
 74
0
 42
0.0000001
 43
0.0000001
 44
0.0000000001
 40
0.0
 40
0.0
 40
0.0
 40
0.0
 40
0.0325647964
 40
0.0651369464
 40
0.0976944691
 40
0.1302180956
 40
0.162695514
 40
0.195112526
 40
0.2597056594
 40
0.3239368797
 40
0.3877662236
 40
0.4511618356
 40
0.5140983983
 40
0.5765605602
 40
0.6385351698
 40
0.7000120858
 40
0.7609889328
 40
0.821468918
 40
0.8814617494
 40
1.0
 40
1.0
 40
1.0
 40
1.0
 10
10.4896815308
 20
9.1153916107
 30
0.0
 10
10.4886463111
 20
9.1040117268
 30
0.0
 10
10.4863437383
 20
9.0812697817
 30
0.0
 10
10.4821904405
 20
9.0472393417
 30
0.0
 10
10.4773328843
 20
9.0133165636
 30
0.0
 10
10.4717679307
 20
8.9795366304
 30
0.0
 10
10.4655795076
 20
8.9459159494
 30
0.0
 10
10.4566136606
 20
8.9013710509
 30
0.0
 10
10.4442770064
 20
8.8461456225
 30
0.0
 10
10.4278332824
 20
8.7805675204
 30
0.0
 10
10.4099164329
 20
8.7158128951
 30
0.0
 10
10.3906380947
 20
8.6519254812
 30
0.0
 10
10.3700803132
 20
8.5889428651
 30
0.0
 10
10.3482814196
 20
8.5269072131
 30
0.0
 10
10.3252669435
 20
8.4658591754
 30
0.0
 10
10.301054702
 20
8.4058376645
 30
0.0
 10
10.2756646438
 20
8.3468755337
 30
0.0
 10
10.2491103418
 20
8.2889999247
 30
0.0
 10
10.2123048175
 20
8.2136332597
 30
0.0
 10
10.1827614422
 20
8.158353679
 30
0.0
 10
10.1622589188
 20
8.1221630424
 30
0.0
  0
SPLINE
  5
363
100
AcDbEntity
  8
0
100
AcDbSpline
 62
9
  6
CONTINUOUS
 70
0
 71
3
 72
24
 73
20
 74
0
 42
0.0000001
 43
0.0000001
 44
0.0000000001
 40
0.0
 40
0.0
 40
0.0
 40
0.0
 40
0.0041365021
 40
0.0100760784
 40
0.0178283844
 40
0.0273590516
 40
0.0515740517
 40
0.0828106009
 40
0.1217233661
 40
0.1689103317
 40
0.2245221649
 40
0.2882178342
 40
0.3595844968
 40
0.4379001952
 40
0.5223037014
 40
0.6118434787
 40
0.7054379609
 40
0.8020038405
 40
1.0
 40
1.0
 40
1.0
 40
1.0
 10
11.6103007828
 20
7.7299729285
 30
0.0
 10
11.6102265568
 20
7.7300707219
 30
0.0
 10
11.6099951369
 20
7.7302674899
 30
0.0
 10
11.6095427841
 20
7.7305417725
 30
0.0
 10
11.6089170317
 20
7.7308344164
 30
0.0
 10
11.6077626522
 20
7.7312660151
 30
0.0
 10
11.6058890771
 20
7.7317456664
 30
0.0
 10
11.6031212188
 20
7.7321850552
 30
0.0
 10
11.5996566228
 20
7.7325483557
 30
0.0
 10
11.5954610614
 20
7.732850882
 30
0.0
 10
11.590525184
 20
7.7330959076
 30
0.0
 10
11.584867999
 20
7.7332618494
 30
0.0
 10
11.578534969
 20
7.7333304902
 30
0.0
 10
11.5715871091
 20
7.7333050819
 30
0.0
 10
11.5641007225
 20
7.733192263
 30
0.0
 10
11.5561624159
 20
7.7329982573
 30
0.0
 10
11.5478651112
 20
7.7327297876
 30
0.0
 10
11.5363533354
 20
7.7322787729
 30
0.0
 10
11.527621203
 20
7.7318382458
 30
0.0
 10
11.5217552217
 20
7.7314856048
 30
0.0
  0
SPLINE
  5
364
100
AcDbEntity
  8
0
100
AcDbSpline
 62
9
  6
CONTINUOUS
 70
0
 71
3
 72
9
 73
5
 74
0
 42
0.0000001
 43
0.0000001
 44
0.0000000001
 40
0.0
 40
0.0
 40
0.0
 40
0.0
 40
0.5011577508
 40
1.0
 40
1.0
 40
1.0
 40
1.0
 10
10.4896822981
 20
9.115390635
 30
0.0
 10
10.4924359668
 20
9.1482982683
 30
0.0
 10
10.4961751011
 20
9.2141212629
 30
0.0
 10
10.4968183395
 20
9.2800214859
 30
0.0
 10
10.4969418216
 20
9.3128913234
 30
0.0
  0
SPLINE
  5
365
100
AcDbEntity
  8
0
100
AcDbSpline
 62
9
  6
CONTINUOUS
 70
0
 71
3
 72
10
 73
6
 74
0
 42
0.0000001
 43
0.0000001
 44
0.0000000001
 40
0.0
 40
0.0
 40
0.0
 40
0.0
 40
0.2517748278
 40
0.5021660662
 40
1.0
 40
1.0
 40
1.0
 40
1.0
 10
10.4272656409
 20
9.3128915895
 30
0.0
 10
10.4210706757
 20
9.2965809519
 30
0.0
 10
10.4092641041
 20
9.2638392234
 30
0.0
 10
10.3874406757
 20
9.1980624072
 30
0.0
 10
10.3723912576
 20
9.1484378462
 30
0.0
 10
10.3624889652
 20
9.1153906597
 30
0.0
  0
SPLINE
  5
366
100
AcDbEntity
  8
0
100
AcDbSpline
 62
9
  6
CONTINUOUS
 70
0
 71
3
 72
17
 73
13
 74
0
 42
0.0000001
 43
0.0000001
 44
0.0000000001
 40
0.0
 40
0.0
 40
0.0
 40
0.0
 40
0.1285228235
 40
0.1924094738
 40
0.2560262034
 40
0.3193945348
 40
0.3825208604
 40
0.5080409829
 40
0.6325854508
 40
0.7561331466
 40
0.8786278637
 40
1.0
 40
1.0
 40
1.0
 40
1.0
 10
10.3624908076
 20
9.1153900055
 30
0.0
 10
10.3526460383
 20
9.0821974126
 30
0.0
 10
10.3380097563
 20
9.0324746543
 30
0.0
 10
10.3179447789
 20
8.9664882671
 30
0.0
 10
10.3025406814
 20
8.9174314495
 30
0.0
 10
10.2865895172
 20
8.8687646018
 30
0.0
 10
10.2645661816
 20
8.804545989
 30
0.0
 10
10.2354791213
 20
8.7253360389
 30
0.0
 10
10.1978832384
 20
8.6319597115
 30
0.0
 10
10.1576762285
 20
8.5405662087
 30
0.0
 10
10.1149375642
 20
8.451276493
 30
0.0
 10
10.0846819435
 20
8.3929501477
 30
0.0
 10
10.0691653647
 20
8.3641711229
 30
0.0
  0
LINE
  5
367
100
AcDbEntity
  8
0
100
AcDbLine
 62
9
  6
CONTINUOUS
 10
9.8981871875
 20
7.697891804
 11
9.8982118456
 21
7.7314857355
  0
SPLINE
  5
368
100
AcDbEntity
  8
0
100
AcDbSpline
 62
9
  6
CONTINUOUS
 70
0
 71
3
 72
24
 73
20
 74
0
 42
0.0000001
 43
0.0000001
 44
0.0000000001
 40
0.0
 40
0.0
 40
0.0
 40
0.0
 40
0.1980019801
 40
0.2945600709
 40
0.3881261685
 40
0.4776499022
 40
0.5620856518
 40
0.6404578665
 40
0.7118370804
 40
0.7754576037
 40
0.8310114795
 40
0.8782895289
 40
0.9173424593
 40
0.9484839453
 40
0.9721142408
 40
0.9813152237
 40
0.9889157385
 40
0.9950683708
 40
1.0
 40
1.0
 40
1.0
 40
1.0
 10
9.8982120997
 20
7.7314855621
 30
0.0
 10
9.8923458744
 20
7.7318450332
 30
0.0
 10
9.8836127703
 20
7.7322816198
 30
0.0
 10
9.8721008042
 20
7.7327281263
 30
0.0
 10
9.8638044811
 20
7.7329998802
 30
0.0
 10
9.855865959
 20
7.7331974964
 30
0.0
 10
9.8483767158
 20
7.7333067874
 30
0.0
 10
9.8414252511
 20
7.7333245731
 30
0.0
 10
9.835091949
 20
7.7332541614
 30
0.0
 10
9.8294376938
 20
7.7330968344
 30
0.0
 10
9.8245022093
 20
7.7328588382
 30
0.0
 10
9.8203018665
 20
7.7325448978
 30
0.0
 10
9.8168347429
 20
7.7321626063
 30
0.0
 10
9.8140839885
 20
7.7317223297
 30
0.0
 10
9.8122310167
 20
7.7312898418
 30
0.0
 10
9.8110954763
 20
7.730898078
 30
0.0
 10
9.8104733194
 20
7.7306167033
 30
0.0
 10
9.8100007237
 20
7.7303230352
 30
0.0
 10
9.8097583432
 20
7.7300942691
 30
0.0
 10
9.8096699094
 20
7.7299776169
 30
0.0
  0
SPLINE
  5
369
100
AcDbEntity
  8
0
100
AcDbSpline
 62
9
  6
CONTINUOUS
 70
0
 71
3
 72
13
 73
9
 74
0
 42
0.0000001
 43
0.0000001
 44
0.0000000001
 40
0.0
 40
0.0
 40
0.0
 40
0.0
 40
0.2457320981
 40
0.3698329436
 40
0.4946984239
 40
0.620237337
 40
0.7463606106
 40
1.0
 40
1.0
 40
1.0
 40
1.0
 10
10.4272675915
 20
9.312894728
 30
0.0
 10
10.4261965443
 20
9.2966370163
 30
0.0
 10
10.4248084377
 20
9.2721544289
 30
0.0
 10
10.422988522
 20
9.2394047303
 30
0.0
 10
10.4215406151
 20
9.214615816
 30
0.0
 10
10.4199473271
 20
9.189701252
 30
0.0
 10
10.4175272345
 20
9.156285267
 30
0.0
 10
10.4153093021
 20
9.1311999751
 30
0.0
 10
10.4135862809
 20
9.1144712382
 30
0.0
  0
SPLINE
  5
36A
100
AcDbEntity
  8
0
100
AcDbSpline
 62
9
  6
CONTINUOUS
 70
0
 71
3
 72
14
 73
10
 74
0
 42
0.0000001
 43
0.0000001
 44
0.0000000001
 40
0.0
 40
0.0
 40
0.0
 40
0.0
 40
0.3187523464
 40
0.4645861351
 40
0.5989702792
 40
0.7203419642
 40
0.8279405942
 40
0.9212721805
 40
1.0
 40
1.0
 40
1.0
 40
1.0
 10
10.4135862809
 20
9.1144712382
 30
0.0
 10
10.4081807766
 20
9.1152120245
 30
0.0
 10
10.4002767462
 20
9.1161265176
 30
0.0
 10
10.3900500746
 20
9.1168707931
 30
0.0
 10
10.3831798914
 20
9.1171429473
 30
0.0
 10
10.3769584321
 20
9.1171335132
 30
0.0
 10
10.3714457962
 20
9.1168521664
 30
0.0
 10
10.3666864339
 20
9.11631165
 30
0.0
 10
10.3637912059
 20
9.1157389773
 30
0.0
 10
10.3624891259
 20
9.115391798
 30
0.0
  0
SPLINE
  5
36B
100
AcDbEntity
  8
0
100
AcDbSpline
 62
9
  6
CONTINUOUS
 70
0
 71
3
 72
9
 73
5
 74
0
 42
0.0000001
 43
0.0000001
 44
0.0000000001
 40
0.0
 40
0.0
 40
0.0
 40
0.0
 40
0.2511606362
 40
1.0
 40
1.0
 40
1.0
 40
1.0
 10
10.4596657274
 20
9.312891952
 30
0.0
 10
10.4563594114
 20
9.2961598795
 30
0.0
 10
10.4425807263
 20
9.2296624409
 30
0.0
 10
10.4265419524
 20
9.1636439976
 30
0.0
 10
10.4135874131
 20
9.114470192
 30
0.0
  0
SPLINE
  5
36C
100
AcDbEntity
  8
0
100
AcDbSpline
 62
9
  6
CONTINUOUS
 70
0
 71
3
 72
23
 73
19
 74
0
 42
0.0000001
 43
0.0000001
 44
0.0000000001
 40
0.0
 40
0.0
 40
0.0
 40
0.0
 40
0.0086932139
 40
0.0163599685
 40
0.0233778259
 40
0.0303331438
 40
0.0466576509
 40
0.057275047
 40
0.0699975861
 40
0.1024667068
 40
0.144785986
 40
0.1971761412
 40
0.2597185925
 40
0.3320859705
 40
0.412985915
 40
0.5944489441
 40
0.7929306373
 40
1.0
 40
1.0
 40
1.0
 40
1.0
 10
9.8099190335
 20
7.7301467899
 30
0.0
 10
9.809972423
 20
7.7302283267
 30
0.0
 10
9.8100626889
 20
7.7303891744
 30
0.0
 10
9.8101429198
 20
7.7306411972
 30
0.0
 10
9.8101512276
 20
7.7308874669
 30
0.0
 10
9.810049708
 20
7.7312184661
 30
0.0
 10
9.8097634525
 20
7.7314978492
 30
0.0
 10
9.8093781952
 20
7.7317176828
 30
0.0
 10
9.8087966619
 20
7.7319548025
 30
0.0
 10
9.8078393623
 20
7.7321853668
 30
0.0
 10
9.8064252906
 20
7.7323767116
 30
0.0
 10
9.8046646691
 20
7.7324888889
 30
0.0
 10
9.8025643611
 20
7.7325151317
 30
0.0
 10
9.8001452627
 20
7.7324508178
 30
0.0
 10
9.7963978278
 20
7.732245385
 30
0.0
 10
9.7912500682
 20
7.731787849
 30
0.0
 10
9.7847156099
 20
7.7310000384
 30
0.0
 10
9.780215094
 20
7.7303508622
 30
0.0
 10
9.7779204719
 20
7.729998673
 30
0.0
  0
SPLINE
  5
36D
100
AcDbEntity
  8
0
100
AcDbSpline
 62
9
  6
CONTINUOUS
 70
0
 71
3
 72
14
 73
10
 74
0
 42
0.0000001
 43
0.0000001
 44
0.0000000001
 40
0.0
 40
0.0
 40
0.0
 40
0.0
 40
0.2425685752
 40
0.3660273707
 40
0.4908141504
 40
0.6168200381
 40
0.7438583358
 40
0.8717151665
 40
1.0
 40
1.0
 40
1.0
 40
1.0
 10
10.0230733821
 20
8.1140112817
 30
0.0
 10
10.0666986131
 20
8.1894504014
 30
0.0
 10
10.1280633239
 20
8.3059453439
 30
0.0
 10
10.2013346065
 20
8.466358628
 30
0.0
 10
10.2526322745
 20
8.5906774764
 30
0.0
 10
10.2997958784
 20
8.7179904585
 30
0.0
 10
10.3426341522
 20
8.8479865974
 30
0.0
 10
10.3809165974
 20
8.9802490223
 30
0.0
 10
10.4031891058
 20
9.0695580715
 30
0.0
 10
10.4135842984
 20
9.114457853
 30
0.0
  0
SPLINE
  5
36E
100
AcDbEntity
  8
0
100
AcDbSpline
 62
9
  6
CONTINUOUS
 70
0
 71
3
 72
14
 73
10
 74
0
 42
0.0000001
 43
0.0000001
 44
0.0000000001
 40
0.0
 40
0.0
 40
0.0
 40
0.0
 40
0.1287991966
 40
0.2571289016
 40
0.3844691296
 40
0.5105726986
 40
0.6352475117
 40
0.7584086939
 40
1.0
 40
1.0
 40
1.0
 40
1.0
 10
10.428215059
 20
9.1144704959
 30
0.0
 10
10.4185698758
 20
9.069838514
 30
0.0
 10
10.3974219316
 20
8.9811384629
 30
0.0
 10
10.3610279945
 20
8.8497589019
 30
0.0
 10
10.3206006445
 20
8.7205638245
 30
0.0
 10
10.2763429757
 20
8.594003681
 30
0.0
 10
10.2284052647
 20
8.4703730716
 30
0.0
 10
10.1600256246
 20
8.3108781722
 30
0.0
 10
10.1025378237
 20
8.1948592977
 30
0.0
 10
10.0614425331
 20
8.1197124876
 30
0.0
  0
SPLINE
  5
36F
100
AcDbEntity
  8
0
100
AcDbSpline
 62
9
  6
CONTINUOUS
 70
0
 71
3
 72
22
 73
18
 74
0
 42
0.0000001
 43
0.0000001
 44
0.0000000001
 40
0.0
 40
0.0
 40
0.0
 40
0.0
 40
0.0358639236
 40
0.0735826655
 40
0.1140636411
 40
0.1581880869
 40
0.2066960979
 40
0.259907375
 40
0.3179229566
 40
0.380741199
 40
0.4482213843
 40
0.5198790515
 40
0.5950904297
 40
0.6731814434
 40
0.7534517611
 40
0.8351853976
 40
1.0
 40
1.0
 40
1.0
 40
1.0
 10
11.4958238361
 20
8.1223827821
 30
0.0
 10
11.4951233409
 20
8.1234369919
 30
0.0
 10
11.4934765742
 20
8.1254676181
 30
0.0
 10
11.4904003769
 20
8.1280950666
 30
0.0
 10
11.4866727089
 20
8.1303109178
 30
0.0
 10
11.4822961176
 20
8.1320640964
 30
0.0
 10
11.4772881461
 20
8.1333100427
 30
0.0
 10
11.4716885519
 20
8.134044093
 30
0.0
 10
11.4655412057
 20
8.1342498479
 30
0.0
 10
11.4588967953
 20
8.1339096831
 30
0.0
 10
11.4518204553
 20
8.1330108272
 30
0.0
 10
11.4443868559
 20
8.1315845383
 30
0.0
 10
11.4366809206
 20
8.1296584167
 30
0.0
 10
11.4287904954
 20
8.1272613664
 30
0.0
 10
11.4208034516
 20
8.1244229255
 30
0.0
 10
11.4101026859
 20
8.1201122116
 30
0.0
 10
11.4022193179
 20
8.1164059791
 30
0.0
 10
11.3970420282
 20
8.1137546415
 30
0.0
  0
LINE
  5
370
100
AcDbEntity
  8
0
100
AcDbLine
 62
9
  6
CONTINUOUS
 10
9.7778823492
 20
7.697891802
 11
9.777911991
 21
7.7299970322
  0
SPLINE
  5
371
100
AcDbEntity
  8
0
100
AcDbSpline
 62
9
  6
CONTINUOUS
 70
0
 71
3
 72
21
 73
17
 74
0
 42
0.0000001
 43
0.0000001
 44
0.0000000001
 40
0.0
 40
0.0
 40
0.0
 40
0.0
 40
0.0626708981
 40
0.1253348525
 40
0.1879902203
 40
0.250629695
 40
0.3132463011
 40
0.3758385381
 40
0.438404436
 40
0.5009387952
 40
0.5634393817
 40
0.6259098857
 40
0.7506745452
 40
0.8130664645
 40
0.8754389159
 40
1.0
 40
1.0
 40
1.0
 40
1.0
 10
11.8289787654
 20
9.7049868662
 30
0.0
 10
11.8249132305
 20
9.7064888387
 30
0.0
 10
11.8168916301
 20
9.7097980747
 30
0.0
 10
11.8052708578
 20
9.7156532807
 30
0.0
 10
11.7941245107
 20
9.7223647785
 30
0.0
 10
11.7835150558
 20
9.7298903117
 30
0.0
 10
11.7735047281
 20
9.738189806
 30
0.0
 10
11.7641569142
 20
9.7472216685
 30
0.0
 10
11.7555213806
 20
9.7569290838
 30
0.0
 10
11.7476470171
 20
9.7672553493
 30
0.0
 10
11.7405839923
 20
9.7781463269
 30
0.0
 10
11.7323157989
 20
9.793323708
 30
0.0
 10
11.7258065195
 20
9.8093995797
 30
0.0
 10
11.7212165924
 20
9.8260495239
 30
0.0
 10
11.7179219494
 20
9.8429868233
 30
0.0
 10
11.7169167559
 20
9.8559423526
 30
0.0
 10
11.7169150848
 20
9.8645565777
 30
0.0
  0
SPLINE
  5
372
100
AcDbEntity
  8
0
100
AcDbSpline
 62
9
  6
CONTINUOUS
 70
0
 71
3
 72
20
 73
16
 74
0
 42
0.0000001
 43
0.0000001
 44
0.0000000001
 40
0.0
 40
0.0
 40
0.0
 40
0.0
 40
0.0625909442
 40
0.1251784336
 40
0.1877632783
 40
0.2503420229
 40
0.3129122227
 40
0.3754759808
 40
0.4380319867
 40
0.5005749288
 40
0.5631012065
 40
0.6256126481
 40
0.7504990807
 40
0.8753003255
 40
1.0
 40
1.0
 40
1.0
 40
1.0
 10
12.1253914604
 20
9.897777562
 30
0.0
 10
12.1245738607
 20
9.9035511428
 30
0.0
 10
12.1225106099
 20
9.9150421048
 30
0.0
 10
12.1181452215
 20
9.931997025
 30
0.0
 10
12.1125438004
 20
9.9485842429
 30
0.0
 10
12.1057393348
 20
9.9647133817
 30
0.0
 10
12.0977624747
 20
9.9802941257
 30
0.0
 10
12.0886558483
 20
9.9952399605
 30
0.0
 10
12.0784792003
 20
10.0094754765
 30
0.0
 10
12.0672894024
 20
10.0229244996
 30
0.0
 10
12.0551402285
 20
10.0355094237
 30
0.0
 10
12.0377682729
 20
10.0510377481
 30
0.0
 10
12.0140019271
 20
10.0680039934
 30
0.0
 10
11.9828473386
 20
10.0839422694
 30
0.0
 10
11.9607476687
 20
10.0914545698
 30
0.0
 10
11.9495052185
 20
10.0943824171
 30
0.0
  0
SPLINE
  5
373
100
AcDbEntity
  8
0
100
AcDbSpline
 62
9
  6
CONTINUOUS
 70
0
 71
3
 72
22
 73
18
 74
0
 42
0.0000001
 43
0.0000001
 44
0.0000000001
 40
0.0
 40
0.0
 40
0.0
 40
0.0
 40
0.0620749011
 40
0.1242087928
 40
0.1864068563
 40
0.2486679367
 40
0.3109904459
 40
0.3733785841
 40
0.435832306
 40
0.4983437719
 40
0.5609080304
 40
0.6235266995
 40
0.6861976161
 40
0.7489175092
 40
0.8116887561
 40
0.8744996574
 40
1.0
 40
1.0
 40
1.0
 40
1.0
 10
11.809168248
 20
9.6127409294
 30
0.0
 10
11.8026065761
 20
9.6148615629
 30
0.0
 10
11.7896353187
 20
9.6196142512
 30
0.0
 10
11.7707852553
 20
9.6282348849
 30
0.0
 10
11.7526457127
 20
9.6383098977
 30
0.0
 10
11.7353248562
 20
9.6497722436
 30
0.0
 10
11.7189298648
 20
9.662558958
 30
0.0
 10
11.7035731643
 20
9.6766076703
 30
0.0
 10
11.6893491593
 20
9.6918305949
 30
0.0
 10
11.6763442647
 20
9.7081324506
 30
0.0
 10
11.6646487551
 20
9.725420514
 30
0.0
 10
11.6543497409
 20
9.7435955654
 30
0.0
 10
11.6455058948
 20
9.7625404523
 30
0.0
 10
11.6381769781
 20
9.7821391515
 30
0.0
 10
11.6324290952
 20
9.8022774532
 30
0.0
 10
11.6269257859
 20
9.829641375
 30
0.0
 10
11.6252428758
 20
9.8506093555
 30
0.0
 10
11.6252410719
 20
9.8645510679
 30
0.0
  0
SPLINE
  5
374
100
AcDbEntity
  8
0
100
AcDbSpline
 62
9
  6
CONTINUOUS
 70
0
 71
3
 72
21
 73
17
 74
0
 42
0.0000001
 43
0.0000001
 44
0.0000000001
 40
0.0
 40
0.0
 40
0.0
 40
0.0
 40
0.0624567295
 40
0.1249149578
 40
0.1873797591
 40
0.2498514673
 40
0.3123285925
 40
0.3748139129
 40
0.4373104803
 40
0.4998154871
 40
0.5623258022
 40
0.6248447164
 40
0.7498305471
 40
0.8123913292
 40
0.8749655124
 40
1.0
 40
1.0
 40
1.0
 40
1.0
 10
9.3602325369
 20
9.8804098476
 30
0.0
 10
9.3606384655
 20
9.8847310588
 30
0.0
 10
9.361781682
 20
9.8933462355
 30
0.0
 10
9.3644874387
 20
9.9060959828
 30
0.0
 10
9.3681660323
 20
9.9186015133
 30
0.0
 10
9.3727897498
 20
9.9307903498
 30
0.0
 10
9.3783333455
 20
9.9425911579
 30
0.0
 10
9.384771111
 20
9.9539308978
 30
0.0
 10
9.3920579204
 20
9.9647467721
 30
0.0
 10
9.4001479136
 20
9.9749776758
 30
0.0
 10
9.4089983194
 20
9.9845621297
 30
0.0
 10
9.4217376759
 20
9.996394584
 30
0.0
 10
9.4357973545
 20
10.0067432377
 30
0.0
 10
9.4508954633
 20
10.0153832882
 30
0.0
 10
9.466607528
 20
10.0228520896
 30
0.0
 10
9.4790003748
 20
10.0271055347
 30
0.0
 10
9.4874086554
 20
10.0292958498
 30
0.0
  0
SPLINE
  5
375
100
AcDbEntity
  8
0
100
AcDbSpline
 62
9
  6
CONTINUOUS
 70
0
 71
3
 72
20
 73
16
 74
0
 42
0.0000001
 43
0.0000001
 44
0.0000000001
 40
0.0
 40
0.0
 40
0.0
 40
0.0
 40
0.0624119724
 40
0.1248340437
 40
0.1872691713
 40
0.2497169575
 40
0.3121794055
 40
0.3746613213
 40
0.43716067
 40
0.4996738327
 40
0.5622017872
 40
0.6247470736
 40
0.7497865205
 40
0.8748729498
 40
1.0
 40
1.0
 40
1.0
 40
1.0
 10
9.620176448
 20
9.6441596222
 30
0.0
 10
9.6256431005
 20
9.6463431453
 30
0.0
 10
9.6364213584
 20
9.6511135715
 30
0.0
 10
9.6520144986
 20
9.6594425685
 30
0.0
 10
9.6669578099
 20
9.6688957819
 30
0.0
 10
9.6811704705
 20
9.6794217195
 30
0.0
 10
9.6945713921
 20
9.6909706841
 30
0.0
 10
9.7070817279
 20
9.7034856649
 30
0.0
 10
9.7186376603
 20
9.7168931462
 30
0.0
 10
9.7291737962
 20
9.7311213554
 30
0.0
 10
9.7386222817
 20
9.7461006725
 30
0.0
 10
9.7496898974
 20
9.7669533034
 30
0.0
 10
9.7605752745
 20
9.794492959
 30
0.0
 10
9.7685151802
 20
9.8291116766
 30
0.0
 10
9.7703068347
 20
9.852749279
 30
0.0
 10
9.7703082168
 20
9.8645510678
 30
0.0
  0
ENDSEC
  0
SECTION
  2
OBJECTS
  0
DICTIONARY
  5
C
100
AcDbDictionary
280
0
281
1
  3
ACAD_GROUP
350
D
  3
ACAD_MLINESTYLE
350
17
  3
ACAD_LAYOUT
350
1A
  3
ACAD_PLOTSETTINGS
350
19
  3
ACAD_PLOTSTYLENAME
350
E
  0
DICTIONARY
  5
D
102
{ACAD_REACTORS
330
C
102
}
100
AcDbDictionary
280
0
281
1
  0
ACDBDICTIONARYWDFLT
  5
E
102
{ACAD_REACTORS
330
C
102
}
100
AcDbDictionary
281
1
  3
Normal
350
F
100
AcDbDictionaryWithDefault
340
F
  0
DICTIONARY
  5
17
102
{ACAD_REACTORS
330
C
102
}
100
AcDbDictionary
280
0
281
1
  3
Standard
350
18
  0
DICTIONARY
  5
19
102
{ACAD_REACTORS
330
C
102
}
100
AcDbDictionary
281
1
  0
DICTIONARY
  5
1A
102
{ACAD_REACTORS
330
C
102
}
100
AcDbDictionary
281
1
  3
Model
350
376
  3
Layout1
350
377
  0
ACDBPLACEHOLDER
  5
F
102
{ACAD_REACTORS
330
E
102
}
  0
MLINESTYLE
  5
18
102
{ACAD_REACTORS
330
17
102
}
100
AcDbMlineStyle
  2
STANDARD
 70
0
  3

 62
256
 51
90.0
 52
90.0
 71
2
 49
0.5
 62
256
  6
BYLAYER
 49
-0.5
 62
256
  6
BYLAYER
  0
LAYOUT
  5
376
102
{ACAD_REACTORS
330
1A
102
}
100
AcDbPlotSettings
  1

  2
none_device
  4
ANSI_C_(22.00_x_17.00_Inches)
  6

 40
0.0
 41
0.0
 42
0.0
 43
0.0
 44
558.8
 45
431.8
 46
0.0
 47
0.0
 48
0.0
 49
0.0
140
0.0
141
0.0
142
1.0
143
1.0
 70
1024
 72
0
 73
0
 74
0
  7

 75
0
147
1.0
148
0.0
149
0.0
100
AcDbLayout
  1
Model
 70
0
 71
0
 10
0.0
 20
0.0
 11
22.0
 21
17.0
 12
0.0
 22
0.0
 32
0.0
 14
0.0
 24
0.0
 34
0.0
 15
0.0
 25
0.0
 35
0.0
146
0.0
 13
0.0
 23
0.0
 33
0.0
 16
1.0
 26
0.0
 36
0.0
 17
0.0
 27
1.0
 37
0.0
 76
0
330
202
345
0
346
0
  0
LAYOUT
  5
377
102
{ACAD_REACTORS
330
1A
102
}
100
AcDbPlotSettings
  1

  2
none_device
  4
ANSI_C_(22.00_x_17.00_Inches)
  6

 40
0.0
 41
0.0
 42
0.0
 43
0.0
 44
558.8
 45
431.8
 46
0.0
 47
0.0
 48
0.0
 49
0.0
140
0.0
141
0.0
142
1.0
143
1.0
 70
0
 72
0
 73
0
 74
0
  7

 75
0
147
1.0
148
0.0
149
0.0
100
AcDbLayout
  1
Layout1
 70
0
 71
1
 10
0.0
 20
0.0
 11
22.0
 21
17.0
 12
0.0
 22
0.0
 32
0.0
 14
0.0
 24
0.0
 34
0.0
 15
0.0
 25
0.0
 35
0.0
146
0.0
 13
0.0
 23
0.0
 33
0.0
 16
1.0
 26
0.0
 36
0.0
 17
0.0
 27
1.0
 37
0.0
 76
0
330
203
345
0
346
0
  0
ENDSEC
  0
EOF
