999
DXF file: E:\BT Custom\CADOUTPUT\_TOP.dxf
999
Pro/ENGINEER 2018400 by Parametric Technology Corporation
  0
SECTION
  2
HEADER
  9
$ACADVER
  1
AC1018
  9
$DWGCODEPAGE
  3
ANSI_1252
  9
$EXTMAX
 10
22.0
 20
17.0
 30
0.0
  9
$EXTMIN
 10
0.0
 20
0.0
 30
0.0
  9
$LIMMIN
 10
0.0
 20
0.0
  9
$LIMMAX
 10
22.0
 20
17.0
  9
$VIEWCTR
 10
11.0
 20
8.5
  9
$VIEWSIZE
 40
17.0
  9
$CLAYER
  8
0
  9
$LTSCALE
 40
1.21
  9
$CELTYPE
  6
BYLAYER
  9
$DIMSCALE
 40
1.0
  9
$DIMASZ
 40
0.1
  9
$DIMEXO
 40
0.0625
  9
$DIMDLI
 40
0.836
  9
$DIMEXE
 40
0.125
  9
$DIMCEN
 40
0.198
  9
$DIMLFAC
 40
1.0
  9
$DIMBLK
  1
_FILLED
  9
$DIMALT
 70
1
  9
$DIMALTD
 70
2
  9
$DIMALTTD
 70
2
  9
$DIMALTF
 40
25.4
  9
$DIMTXT
 40
0.08
  9
$DIMTOL
 70
1
  9
$DIMLIM
 70
0
  9
$DIMTFAC
 40
1.0
  9
$DIMTP
 40
0.001
  9
$DIMTM
 40
0.001
  9
$DIMGAP
 40
0.09
  9
$DIMDSEP
 70
46
  9
$AUNITS
 70
0
  9
$PDMODE
 70
3
  9
$PDSIZE
 40
0.06
  9
$HANDSEED
  5
37B
  9
$TILEMODE
 70
1
  9
$MEASUREMENT
 70
0
  9
$INSUNITS
 70
1
  0
ENDSEC
  0
SECTION
  2
CLASSES
  0
CLASS
  1
ACDBDICTIONARYWDFLT
  2
AcDbDictionaryWithDefault
  3
AutoCAD 2000
 90
0
 91
1
280
0
281
0
  0
CLASS
  1
ACDBPLACEHOLDER
  2
AcDbPlaceHolder
  3
AutoCAD 2000
 90
0
 91
1
280
0
281
0
  0
CLASS
  1
LAYOUT
  2
AcDbLayout
  3
AutoCAD 2000
 90
0
 91
0
280
0
281
0
  0
ENDSEC
  0
SECTION
  2
TABLES
  0
TABLE
  2
VPORT
  5
8
100
AcDbSymbolTable
 70
2
  0
VPORT
  5
1F4
100
AcDbSymbolTableRecord
100
AcDbViewportTableRecord
  2
*ACTIVE
 70
0
 10
0.0
 20
0.0
 11
1.0
 21
1.0
 12
11.0
 22
8.5
 13
0.0
 23
0.0
 14
1.0
 24
1.0
 15
0.0
 25
0.0
 16
0.0
 26
0.0
 36
1.0
 17
0.0
 27
0.0
 37
0.0
 40
17.0
 41
1.2941176471
 42
50.0
 43
0.0
 44
0.0
 50
0.0
 51
0.0
 71
0
 72
100
 73
1
 74
1
 75
0
 76
0
 77
0
 78
0
  0
ENDTAB
  0
TABLE
  2
LTYPE
  5
5
100
AcDbSymbolTable
 70
6
  0
LTYPE
  5
14
100
AcDbSymbolTableRecord
100
AcDbLinetypeTableRecord
  2
BYBLOCK
 70
0
  3

 72
65
 73
0
 40
0.0
  0
LTYPE
  5
15
100
AcDbSymbolTableRecord
100
AcDbLinetypeTableRecord
  2
BYLAYER
 70
0
  3

 72
65
 73
0
 40
0.0
  0
LTYPE
  5
16
100
AcDbSymbolTableRecord
100
AcDbLinetypeTableRecord
  2
CONTINUOUS
 70
64
  3
Solid line
 72
65
 73
0
 40
0.0
  0
LTYPE
  5
1F5
100
AcDbSymbolTableRecord
100
AcDbLinetypeTableRecord
  2
CENTER
 70
64
  3
____ _ ____ _ ____ _ ____ _ ____ _ ____ _ ____
 72
65
 73
4
 40
0.6
 49
0.375
 74
0
 49
-0.075
 74
0
 49
0.075
 74
0
 49
-0.075
 74
0
  0
LTYPE
  5
1F6
100
AcDbSymbolTableRecord
100
AcDbLinetypeTableRecord
  2
HIDDEN
 70
64
  3
- - - - - - - - - - - - - - - - - - - -
 72
65
 73
2
 40
0.2
 49
0.1
 74
0
 49
-0.1
 74
0
  0
LTYPE
  5
1F7
100
AcDbSymbolTableRecord
100
AcDbLinetypeTableRecord
  2
PHANTOM
 70
64
  3
_____ _ _ _____ _ _ _____ _ _ _____
 72
65
 73
6
 40
0.8
 49
0.45
 74
0
 49
-0.05
 74
0
 49
0.1
 74
0
 49
-0.05
 74
0
 49
0.1
 74
0
 49
-0.05
 74
0
  0
LTYPE
  5
1F8
100
AcDbSymbolTableRecord
100
AcDbLinetypeTableRecord
  2
DOT
 70
64
  3
. . . . . . . . . . . . . . . . . . . .
 72
65
 73
2
 40
0.2
 49
0.1
 74
0
 49
-0.1
 74
0
  0
LTYPE
  5
1F9
100
AcDbSymbolTableRecord
100
AcDbLinetypeTableRecord
  2
DASHED
 70
64
  3
- - - - - - - - - - - - - - - - - - - -
 72
65
 73
2
 40
0.2
 49
0.1
 74
0
 49
-0.1
 74
0
  0
ENDTAB
  0
TABLE
  2
LAYER
  5
2
100
AcDbSymbolTable
 70
36
  0
LAYER
  5
10
100
AcDbSymbolTableRecord
100
AcDbLayerTableRecord
  2
0
 70
0
 62
7
  6
CONTINUOUS
370
-3
390
F
  0
LAYER
  5
1FA
100
AcDbSymbolTableRecord
100
AcDbLayerTableRecord
  2
DEFAULT_1
 70
0
 62
7
  6
CENTER
370
-3
390
F
  0
LAYER
  5
1FB
100
AcDbSymbolTableRecord
100
AcDbLayerTableRecord
  2
DEFAULT_2
 70
0
 62
8
  6
HIDDEN
370
-3
390
F
  0
LAYER
  5
1FC
100
AcDbSymbolTableRecord
100
AcDbLayerTableRecord
  2
DEFAULT_3
 70
0
 62
7
  6
PHANTOM
370
-3
390
F
  0
LAYER
  5
1FD
100
AcDbSymbolTableRecord
100
AcDbLayerTableRecord
  2
ALL_FEATURES
 70
0
 62
7
  6
CONTINUOUS
370
-3
390
F
  0
LAYER
  5
1FE
100
AcDbSymbolTableRecord
100
AcDbLayerTableRecord
  2
AXES_FEATURES
 70
0
 62
7
  6
CONTINUOUS
370
-3
390
F
  0
LAYER
  5
1FF
100
AcDbSymbolTableRecord
100
AcDbLayerTableRecord
  2
DIMENSIONS
 70
0
 62
7
  6
CONTINUOUS
370
-3
390
F
  0
ENDTAB
  0
TABLE
  2
STYLE
  5
3
100
AcDbSymbolTable
 70
1
  0
STYLE
  5
11
100
AcDbSymbolTableRecord
100
AcDbTextStyleTableRecord
  2
STANDARD
 70
0
 40
0.0
 41
0.8
 50
0.0
 71
0
 42
0.2
  3
txt
  4

  0
STYLE
  5
200
100
AcDbSymbolTableRecord
100
AcDbTextStyleTableRecord
  2
TEXTSTYLE_1
 70
0
 40
0.0
 41
0.8
 50
0.0
 71
0
 42
0.2
  3
gdt
  4

  0
ENDTAB
  0
TABLE
  2
VIEW
  5
6
100
AcDbSymbolTable
 70
0
  0
ENDTAB
  0
TABLE
  2
UCS
  5
7
100
AcDbSymbolTable
 70
0
  0
ENDTAB
  0
TABLE
  2
APPID
  5
9
100
AcDbSymbolTable
 70
1
  0
APPID
  5
201
100
AcDbSymbolTableRecord
100
AcDbRegAppTableRecord
  2
ACAD
 70
0
  0
ENDTAB
  0
TABLE
  2
BLOCK_RECORD
  5
1
100
AcDbSymbolTable
 70
0
  0
BLOCK_RECORD
  5
202
100
AcDbSymbolTableRecord
100
AcDbBlockTableRecord
  2
*Model_Space
  0
BLOCK_RECORD
  5
203
100
AcDbSymbolTableRecord
100
AcDbBlockTableRecord
  2
*Paper_Space
  0
BLOCK_RECORD
  5
204
100
AcDbSymbolTableRecord
100
AcDbBlockTableRecord
  2
_FILLED
  0
ENDTAB
  0
TABLE
  2
DIMSTYLE
  5
A
100
AcDbSymbolTable
 70
1
100
AcDbDimStyleTable
 71
0
  0
DIMSTYLE
105
205
100
AcDbSymbolTableRecord
100
AcDbDimStyleTableRecord
  2
STANDARD
 70
0
  3

  4

 40
1.0
 41
0.1
 42
0.0625
 43
0.38
 44
0.125
 45
0.0
 46
0.0
 47
0.001
 48
0.001
140
0.08
141
0.09
142
0.0
143
25.4
144
1.0
145
0.0
146
1.0
147
0.09
 71
1.0
 72
0.0
 73
1
 74
1
 75
0
 76
0
 77
0
 78
4
 79
1
170
1
171
2
172
0
173
0
174
0
175
0
176
0
177
0
178
0
270
2
179
3
271
3
272
3
273
2
274
2
275
0
280
0
281
0
282
0
283
1
284
4
285
0
286
0
287
3
288
0
340
11
278
46
341
204
342
204
343
204
344
204
  0
ENDTAB
  0
ENDSEC
  0
SECTION
  2
BLOCKS
  0
BLOCK
  5
20
100
AcDbEntity
  8
0
100
AcDbBlockBegin
  2
*Model_Space
 70
0
 10
0.0
 20
0.0
 30
0.0
  3
*Model_Space
  1

  0
ENDBLK
  5
21
100
AcDbEntity
  8
0
100
AcDbBlockEnd
  0
BLOCK
  5
1C
100
AcDbEntity
  8
0
100
AcDbBlockBegin
  2
*Paper_Space
 70
0
 10
0.0
 20
0.0
 30
0.0
  3
*Paper_Space
  1

  0
ENDBLK
  5
1D
100
AcDbEntity
  8
0
100
AcDbBlockEnd
  0
BLOCK
  5
206
100
AcDbEntity
  8
0
100
AcDbBlockBegin
  2
_FILLED
 70
64
 10
0.0
 20
0.0
  3
_FILLED
  1

  0
SOLID
  5
207
100
AcDbEntity
  8
0
  6
BYBLOCK
 62
0
100
AcDbTrace
 10
0.0
 20
0.0
 11
-1.0
 21
0.2
 12
-1.0
 22
-0.2
 13
-1.0
 23
-0.2
  0
ENDBLK
  5
208
100
AcDbEntity
  8
0
  6
BYBLOCK
 62
0
100
AcDbBlockEnd
  0
ENDSEC
  0
SECTION
  2
ENTITIES
  0
LWPOLYLINE
  5
209
100
AcDbEntity
  8
0
100
AcDbPolyline
 62
7
  6
CONTINUOUS
 90
6
 70
0
 10
9.5473667327
 20
7.470444012
 10
9.5488534518
 20
7.4563058585
 10
9.5562928854
 20
7.4364520509
 10
9.5693320075
 20
7.4197391484
 10
9.5867788151
 20
7.4076942078
 10
9.6006729541
 20
7.4026773401
  0
LINE
  5
20A
100
AcDbEntity
  8
0
100
AcDbLine
 62
7
  6
CONTINUOUS
 10
9.5473654467
 20
7.4704439289
 11
9.5473669008
 21
7.4944018728
  0
LWPOLYLINE
  5
20B
100
AcDbEntity
  8
0
100
AcDbPolyline
 62
7
  6
CONTINUOUS
 90
6
 70
0
 10
11.059206212
 20
5.982380244
 10
11.0733443575
 20
5.9838669668
 10
11.0931981578
 20
5.9913064027
 10
11.1099110542
 20
6.0043455238
 10
11.121955991
 20
6.0217923281
 10
11.1269728576
 20
6.035686463
  0
LINE
  5
20C
100
AcDbEntity
  8
0
100
AcDbLine
 62
7
  6
CONTINUOUS
 10
11.0592062952
 20
5.982378969
 11
11.0352483279
 21
5.9823804229
  0
LWPOLYLINE
  5
20D
100
AcDbEntity
  8
0
100
AcDbPolyline
 62
7
  6
CONTINUOUS
 90
5
 70
0
 10
9.6342293036
 20
7.6016752482
 10
9.6268762741
 20
7.5828757413
 10
9.618548462
 20
7.5717045773
 10
9.6068922961
 20
7.564067063
 10
9.6006767816
 20
7.5619870359
  0
LWPOLYLINE
  5
20E
100
AcDbEntity
  8
0
100
AcDbPolyline
 62
7
  6
CONTINUOUS
 90
6
 70
0
 10
10.9467760092
 20
8.9027747042
 10
10.9279749197
 20
8.8954206221
 10
10.9120744809
 20
8.8844828829
 10
10.8997679476
 20
8.8696234541
 10
10.8919840133
 20
8.8519636335
 10
10.8893183383
 20
8.8328302876
  0
LWPOLYLINE
  5
20F
100
AcDbEntity
  8
0
100
AcDbPolyline
 62
7
  6
CONTINUOUS
 90
5
 70
0
 10
10.9279749505
 20
6.0692428258
 10
10.9467744574
 20
6.0618897963
 10
10.9579456214
 20
6.0535619841
 10
10.9655831357
 20
6.0419058182
 10
10.9676631628
 20
6.0356903038
  0
LWPOLYLINE
  5
210
100
AcDbEntity
  8
0
100
AcDbPolyline
 62
7
  6
CONTINUOUS
 90
6
 70
0
 10
9.6268754945
 20
7.3817895313
 10
9.6342295766
 20
7.3629884418
 10
9.6451673158
 20
7.347088003
 10
9.6600267446
 20
7.3347814698
 10
9.6776865651
 20
7.3269975354
 10
9.6968199111
 20
7.3243318604
  0
LWPOLYLINE
  5
211
100
AcDbEntity
  8
0
100
AcDbPolyline
 62
7
  6
CONTINUOUS
 90
7
 70
0
 10
9.9486488386
 20
6.6705685213
 10
9.9507913929
 20
6.6489292791
 10
9.9599651634
 20
6.6238735185
 10
9.9756267688
 20
6.6036318405
 10
9.9969515641
 20
6.5888761818
 10
10.0233432256
 20
6.580152614
 10
10.0476358318
 20
6.5779536503
  0
LWPOLYLINE
  5
212
100
AcDbEntity
  8
0
100
AcDbPolyline
 62
7
  6
CONTINUOUS
 90
7
 70
0
 10
11.859081674
 20
6.3836623611
 10
11.8807209148
 20
6.3858049128
 10
11.905776677
 20
6.3949786813
 10
11.9260183574
 20
6.4106402868
 10
11.9407740178
 20
6.4319650842
 10
11.949497584
 20
6.4583567497
 10
11.9516965466
 20
6.4826493586
  0
LWPOLYLINE
  5
213
100
AcDbEntity
  8
0
100
AcDbPolyline
 62
7
  6
CONTINUOUS
 90
7
 70
0
 10
10.1429401281
 20
6.482649456
 10
10.1450311368
 20
6.4589327983
 10
10.1536133977
 20
6.4324786723
 10
10.168242897
 20
6.411042026
 10
10.1883864996
 20
6.3952429306
 10
10.2133655821
 20
6.3859212497
 10
10.235555476
 20
6.3836623616
  0
LINE
  5
214
100
AcDbEntity
  8
0
100
AcDbLine
 62
9
  6
CONTINUOUS
 10
10.0476358145
 20
6.5779611728
 11
10.0476281178
 21
6.5820164352
  0
LINE
  5
215
100
AcDbEntity
  8
0
100
AcDbLine
 62
9
  6
CONTINUOUS
 10
9.9548096089
 20
7.6403318604
 11
9.953978888
 21
8.2941034731
  0
LINE
  5
216
100
AcDbEntity
  8
0
100
AcDbLine
 62
7
  6
CONTINUOUS
 10
9.948733823
 20
8.294094628
 11
9.9493266519
 21
7.6403318604
  0
LINE
  5
217
100
AcDbEntity
  8
0
100
AcDbLine
 62
7
  6
CONTINUOUS
 10
9.9493275628
 20
7.3243318604
 11
9.9487347064
 21
6.6705684383
  0
LINE
  5
218
100
AcDbEntity
  8
0
100
AcDbLine
 62
9
  6
CONTINUOUS
 10
9.9539788469
 20
6.6705600861
 11
9.9548096008
 21
7.3243318604
  0
LINE
  5
219
100
AcDbEntity
  8
0
100
AcDbLine
 62
9
  6
CONTINUOUS
 10
10.0476361022
 20
8.3867025216
 11
10.0476283098
 21
8.3826472072
  0
LWPOLYLINE
  5
21A
100
AcDbEntity
  8
0
100
AcDbPolyline
 62
7
  6
CONTINUOUS
 90
5
 70
0
 10
10.1430300686
 20
8.4125052889
 10
10.1410682967
 20
8.4021369713
 10
10.1360914689
 20
8.3940627299
 10
10.1282135931
 20
8.3888526246
 10
10.1179515522
 20
8.3866616272
  0
LWPOLYLINE
  5
21B
100
AcDbEntity
  8
0
100
AcDbPolyline
 62
7
  6
CONTINUOUS
 90
7
 70
0
 10
12.0470005543
 20
6.5779537306
 10
12.0707173938
 20
6.5800448151
 10
12.0971718241
 20
6.5886272171
 10
12.1186086316
 20
6.6032570222
 10
12.1344076135
 20
6.623400892
 10
12.143728991
 20
6.6483799156
 10
12.1459877693
 20
6.6705691762
  0
LINE
  5
21C
100
AcDbEntity
  8
0
100
AcDbLine
 62
9
  6
CONTINUOUS
 10
11.9516890254
 20
6.4826493411
 11
11.9476337617
 21
6.482641645
  0
LINE
  5
21D
100
AcDbEntity
  8
0
100
AcDbLine
 62
7
  6
CONTINUOUS
 10
10.2355554769
 20
6.3836623617
 11
10.8893183383
 21
6.3843543333
  0
LINE
  5
21E
100
AcDbEntity
  8
0
100
AcDbLine
 62
7
  6
CONTINUOUS
 10
11.2053183383
 20
6.3843544115
 11
11.8590816529
 21
6.383662361
  0
LINE
  5
21F
100
AcDbEntity
  8
0
100
AcDbLine
 62
9
  6
CONTINUOUS
 10
10.1429476506
 20
6.4826494386
 11
10.1470029341
 21
6.4826416515
  0
LWPOLYLINE
  5
220
100
AcDbEntity
  8
0
100
AcDbPolyline
 62
7
  6
CONTINUOUS
 90
5
 70
0
 10
10.1171449098
 20
6.5780435907
 10
10.1275132274
 20
6.5760818189
 10
10.1355874688
 20
6.571104991
 10
10.1407975741
 20
6.5632271152
 10
10.1429885715
 20
6.5529650743
  0
LINE
  5
221
100
AcDbEntity
  8
0
100
AcDbLine
 62
7
  6
CONTINUOUS
 10
10.1429885715
 20
6.5529650743
 11
10.1430674519
 21
6.5502678476
  0
LINE
  5
222
100
AcDbEntity
  8
0
100
AcDbLine
 62
9
  6
CONTINUOUS
 10
10.1152544595
 20
6.5780734779
 11
10.1152467038
 21
6.582148413
  0
LINE
  5
223
100
AcDbEntity
  8
0
100
AcDbLine
 62
9
  6
CONTINUOUS
 10
10.1471348907
 20
8.4144034949
 11
10.1470029148
 21
8.4820220758
  0
LINE
  5
224
100
AcDbEntity
  8
0
100
AcDbLine
 62
7
  6
CONTINUOUS
 10
10.1429476448
 20
8.4820143798
 11
10.1430599557
 21
8.4143957392
  0
LINE
  5
225
100
AcDbEntity
  8
0
100
AcDbLine
 62
7
  6
CONTINUOUS
 10
10.1430599556
 20
6.5502678565
 11
10.1429476445
 21
6.4826494385
  0
LINE
  5
226
100
AcDbEntity
  8
0
100
AcDbLine
 62
9
  6
CONTINUOUS
 10
10.1152543344
 20
8.3865902532
 11
10.115246712
 21
8.3825153065
  0
LINE
  5
227
100
AcDbEntity
  8
0
100
AcDbLine
 62
9
  6
CONTINUOUS
 10
10.1470029341
 20
6.4826416515
 11
10.1471349069
 21
6.5502602341
  0
LINE
  5
228
100
AcDbEntity
  8
0
100
AcDbLine
 62
7
  6
CONTINUOUS
 10
10.1430674462
 20
8.4143957632
 11
10.1430300686
 21
8.4125052889
  0
LINE
  5
229
100
AcDbEntity
  8
0
100
AcDbLine
 62
7
  6
CONTINUOUS
 10
11.9766851244
 20
6.5780020937
 11
11.9793823511
 21
6.578080974
  0
LINE
  5
22A
100
AcDbEntity
  8
0
100
AcDbLine
 62
9
  6
CONTINUOUS
 10
11.9515767209
 20
6.5502679816
 11
11.9475017859
 21
6.5502602259
  0
LINE
  5
22B
100
AcDbEntity
  8
0
100
AcDbLine
 62
9
  6
CONTINUOUS
 10
10.1152467038
 20
6.582148413
 11
10.0476281178
 21
6.5820164352
  0
LINE
  5
22C
100
AcDbEntity
  8
0
100
AcDbLine
 62
7
  6
CONTINUOUS
 10
10.0476358144
 20
6.5779611664
 11
10.1152544595
 21
6.5780734779
  0
LINE
  5
22D
100
AcDbEntity
  8
0
100
AcDbLine
 62
7
  6
CONTINUOUS
 10
11.9793823422
 20
6.5780734676
 11
12.0470005743
 21
6.5779611931
  0
LINE
  5
22E
100
AcDbEntity
  8
0
100
AcDbLine
 62
9
  6
CONTINUOUS
 10
10.1430599556
 20
6.5502678565
 11
10.1471349069
 21
6.5502602341
  0
LINE
  5
22F
100
AcDbEntity
  8
0
100
AcDbLine
 62
9
  6
CONTINUOUS
 10
12.0470083667
 20
6.5820165137
 11
11.9793899646
 21
6.5821484143
  0
LINE
  5
230
100
AcDbEntity
  8
0
100
AcDbLine
 62
7
  6
CONTINUOUS
 10
10.1152544355
 20
6.5780809683
 11
10.1171449098
 21
6.5780435907
  0
LINE
  5
231
100
AcDbEntity
  8
0
100
AcDbLine
 62
9
  6
CONTINUOUS
 10
10.2355554769
 20
6.3836623617
 11
10.2355465204
 21
6.3889941408
  0
LINE
  5
232
100
AcDbEntity
  8
0
100
AcDbLine
 62
9
  6
CONTINUOUS
 10
10.2355550026
 20
8.5810013597
 11
10.2355460714
 21
8.5756713274
  0
LINE
  5
233
100
AcDbEntity
  8
0
100
AcDbLine
 62
9
  6
CONTINUOUS
 10
12.1459026528
 20
6.6705690924
 11
12.1405773605
 21
6.6705601888
  0
LINE
  5
234
100
AcDbEntity
  8
0
100
AcDbLine
 62
9
  6
CONTINUOUS
 10
9.9540588894
 20
6.6705600274
 11
9.9487349103
 21
6.6705684374
  0
LWPOLYLINE
  5
235
100
AcDbEntity
  8
0
100
AcDbPolyline
 62
7
  6
CONTINUOUS
 90
6
 70
0
 10
9.6006729751
 20
7.5619861466
 10
9.5868102115
 20
7.5569843174
 10
9.5693827961
 20
7.544971584
 10
9.5563442552
 20
7.5283015811
 10
9.5488827423
 20
7.5084925394
 10
9.5473684677
 20
7.4944018344
  0
LWPOLYLINE
  5
236
100
AcDbEntity
  8
0
100
AcDbPolyline
 62
7
  6
CONTINUOUS
 90
6
 70
0
 10
10.9676640521
 20
6.0356864972
 10
10.9726658814
 20
6.0218237333
 10
10.9846786152
 20
6.0043963176
 10
11.0013486186
 20
5.9913577768
 10
11.0211576608
 20
5.9838962641
 10
11.0352483662
 20
5.9823819898
  0
LWPOLYLINE
  5
237
100
AcDbEntity
  8
0
100
AcDbPolyline
 62
7
  6
CONTINUOUS
 90
4
 70
0
 10
10.9676629771
 20
8.9289726612
 10
10.9655833455
 20
8.922758392
 10
10.9579464
 20
8.911102564
 10
10.9467760092
 20
8.9027747042
  0
LWPOLYLINE
  5
238
100
AcDbEntity
  8
0
100
AcDbPolyline
 62
7
  6
CONTINUOUS
 90
4
 70
0
 10
9.6006775375
 20
7.4026764992
 10
9.6068918067
 20
7.4005968676
 10
9.6185476347
 20
7.3929599221
 10
9.6268754945
 20
7.3817895313
  0
LWPOLYLINE
  5
239
100
AcDbEntity
  8
0
100
AcDbPolyline
 62
7
  6
CONTINUOUS
 90
5
 70
0
 10
12.3978168503
 20
7.3243318604
 10
12.4169502758
 20
7.326997543
 10
12.4346101521
 20
7.3347814906
 10
12.4494696162
 20
7.3470880337
 10
12.4604073729
 20
7.3629884726
  0
LWPOLYLINE
  5
23A
100
AcDbEntity
  8
0
100
AcDbPolyline
 62
7
  6
CONTINUOUS
 90
5
 70
0
 10
10.8893183383
 20
6.1318333484
 10
10.8919840209
 20
6.1126999229
 10
10.8997679685
 20
6.0950400466
 10
10.9120745116
 20
6.0801805825
 10
10.9279749505
 20
6.0692428258
  0
LINE
  5
23B
100
AcDbEntity
  8
0
100
AcDbLine
 62
7
  6
CONTINUOUS
 10
10.8893183383
 20
8.8328155433
 11
10.8893183383
 21
7.9583318604
  0
LINE
  5
23C
100
AcDbEntity
  8
0
100
AcDbLine
 62
7
  6
CONTINUOUS
 10
10.8893183383
 20
7.0063318604
 11
10.8893183383
 21
6.1318396968
  0
LINE
  5
23D
100
AcDbEntity
  8
0
100
AcDbLine
 62
7
  6
CONTINUOUS
 10
9.6968346554
 20
7.3243318604
 11
10.5713183383
 21
7.3243318604
  0
LINE
  5
23E
100
AcDbEntity
  8
0
100
AcDbLine
 62
7
  6
CONTINUOUS
 10
11.5233183383
 20
7.3243318604
 11
12.3978105019
 21
7.3243318604
  0
LINE
  5
23F
100
AcDbEntity
  8
0
100
AcDbLine
 62
9
  6
CONTINUOUS
 10
10.9398562202
 20
7.0105179576
 11
10.9399092491
 21
6.9997364262
  0
LINE
  5
240
100
AcDbEntity
  8
0
100
AcDbLine
 62
9
  6
CONTINUOUS
 10
10.9399090718
 20
6.0645782524
 11
10.9399092492
 21
6.9997364261
  0
LINE
  5
241
100
AcDbEntity
  8
0
100
AcDbLine
 62
9
  6
CONTINUOUS
 10
10.939909249
 20
7.9649272943
 11
10.9399089598
 21
8.9000854361
  0
LINE
  5
242
100
AcDbEntity
  8
0
100
AcDbLine
 62
9
  6
CONTINUOUS
 10
10.9673428845
 20
7.9568010276
 11
10.9673428486
 21
8.7288227897
  0
LINE
  5
243
100
AcDbEntity
  8
0
100
AcDbLine
 62
9
  6
CONTINUOUS
 10
10.9673427324
 20
6.2358410047
 11
10.9673428912
 21
7.0078638455
  0
LINE
  5
244
100
AcDbEntity
  8
0
100
AcDbLine
 62
9
  6
CONTINUOUS
 10
11.0345977743
 20
6.217758122
 11
11.0345825141
 21
7.0029585866
  0
LINE
  5
245
100
AcDbEntity
  8
0
100
AcDbLine
 62
9
  6
CONTINUOUS
 10
11.0600389023
 20
8.7469055988
 11
11.0600541624
 21
7.9617051385
  0
LINE
  5
246
100
AcDbEntity
  8
0
100
AcDbLine
 62
9
  6
CONTINUOUS
 10
11.0345824378
 20
7.9617044122
 11
11.0345977748
 21
8.7469055988
  0
LINE
  5
247
100
AcDbEntity
  8
0
100
AcDbLine
 62
9
  6
CONTINUOUS
 10
11.0600542388
 20
7.0029593086
 11
11.0600389017
 21
6.217758122
  0
LINE
  5
248
100
AcDbEntity
  8
0
100
AcDbLine
 62
9
  6
CONTINUOUS
 10
10.9399092485
 20
7.9649272944
 11
10.9398561471
 21
7.9541456826
  0
LINE
  5
249
100
AcDbEntity
  8
0
100
AcDbLine
 62
9
  6
CONTINUOUS
 10
11.5191322411
 20
7.3748697423
 11
11.5299137725
 21
7.3749227712
  0
LINE
  5
24A
100
AcDbEntity
  8
0
100
AcDbLine
 62
9
  6
CONTINUOUS
 10
12.4650719463
 20
7.3749225939
 11
11.5299137726
 21
7.3749227713
  0
LINE
  5
24B
100
AcDbEntity
  8
0
100
AcDbLine
 62
9
  6
CONTINUOUS
 10
10.5647229043
 20
7.3749227711
 11
9.6295647626
 21
7.3749224819
  0
LINE
  5
24C
100
AcDbEntity
  8
0
100
AcDbLine
 62
9
  6
CONTINUOUS
 10
10.5728492334
 20
7.4023564066
 11
9.8008274089
 21
7.4023563707
  0
LINE
  5
24D
100
AcDbEntity
  8
0
100
AcDbLine
 62
9
  6
CONTINUOUS
 10
12.293809194
 20
7.4023562545
 11
11.5217863532
 21
7.4023564133
  0
LINE
  5
24E
100
AcDbEntity
  8
0
100
AcDbLine
 62
9
  6
CONTINUOUS
 10
12.3118920767
 20
7.4696112964
 11
11.5266916121
 21
7.4695960362
  0
LINE
  5
24F
100
AcDbEntity
  8
0
100
AcDbLine
 62
9
  6
CONTINUOUS
 10
9.7827445999
 20
7.4950524244
 11
10.5679450645
 21
7.4950676846
  0
LINE
  5
250
100
AcDbEntity
  8
0
100
AcDbLine
 62
9
  6
CONTINUOUS
 10
10.5679457855
 20
7.4695959599
 11
9.7827445999
 21
7.4696112969
  0
LINE
  5
251
100
AcDbEntity
  8
0
100
AcDbLine
 62
9
  6
CONTINUOUS
 10
11.5266917625
 20
7.4950676762
 11
12.3118920767
 21
7.4950524239
  0
LINE
  5
252
100
AcDbEntity
  8
0
100
AcDbLine
 62
9
  6
CONTINUOUS
 10
10.5647229043
 20
7.3749227711
 11
10.5755044372
 21
7.3748696692
  0
LINE
  5
253
100
AcDbEntity
  8
0
100
AcDbLine
 62
9
  6
CONTINUOUS
 10
11.1547804563
 20
7.954145763
 11
11.1547274274
 21
7.9649272947
  0
LINE
  5
254
100
AcDbEntity
  8
0
100
AcDbLine
 62
9
  6
CONTINUOUS
 10
11.1272939442
 20
8.7288227161
 11
11.1272937853
 21
7.9567998763
  0
LINE
  5
255
100
AcDbEntity
  8
0
100
AcDbLine
 62
9
  6
CONTINUOUS
 10
11.1272937921
 20
7.0078626932
 11
11.127293828
 21
6.2358409311
  0
LINE
  5
256
100
AcDbEntity
  8
0
100
AcDbLine
 62
9
  6
CONTINUOUS
 10
11.1547277167
 20
6.0645782847
 11
11.1547274276
 21
6.9997364265
  0
LINE
  5
257
100
AcDbEntity
  8
0
100
AcDbLine
 62
9
  6
CONTINUOUS
 10
11.1547274274
 20
7.9649272947
 11
11.1547276048
 21
8.9000854684
  0
LINE
  5
258
100
AcDbEntity
  8
0
100
AcDbLine
 62
7
  6
CONTINUOUS
 10
11.2053183383
 20
6.1318481775
 11
11.2053183383
 21
7.0063318604
  0
LINE
  5
259
100
AcDbEntity
  8
0
100
AcDbLine
 62
7
  6
CONTINUOUS
 10
11.2053183383
 20
7.9583318604
 11
11.2053183383
 21
8.832824024
  0
LINE
  5
25A
100
AcDbEntity
  8
0
100
AcDbLine
 62
9
  6
CONTINUOUS
 10
11.1547274276
 20
6.9997364264
 11
11.1547805295
 21
7.0105179593
  0
LINE
  5
25B
100
AcDbEntity
  8
0
100
AcDbLine
 62
9
  6
CONTINUOUS
 10
10.5755044354
 20
7.5897939785
 11
10.5647229044
 21
7.589740964
  0
LINE
  5
25C
100
AcDbEntity
  8
0
100
AcDbLine
 62
9
  6
CONTINUOUS
 10
9.8008274826
 20
7.5623074663
 11
10.5728503234
 21
7.5623073075
  0
LINE
  5
25D
100
AcDbEntity
  8
0
100
AcDbLine
 62
9
  6
CONTINUOUS
 10
11.5217863584
 20
7.5623073034
 11
12.2938092669
 21
7.5623073509
  0
LINE
  5
25E
100
AcDbEntity
  8
0
100
AcDbLine
 62
9
  6
CONTINUOUS
 10
12.465071914
 20
7.5897412389
 11
11.5299137722
 21
7.5897409497
  0
LINE
  5
25F
100
AcDbEntity
  8
0
100
AcDbLine
 62
9
  6
CONTINUOUS
 10
10.564722904
 20
7.5897409495
 11
9.6295647303
 21
7.5897411269
  0
LINE
  5
260
100
AcDbEntity
  8
0
100
AcDbLine
 62
7
  6
CONTINUOUS
 10
12.3978020211
 20
7.6403318604
 11
11.5233183383
 21
7.6403318604
  0
LINE
  5
261
100
AcDbEntity
  8
0
100
AcDbLine
 62
7
  6
CONTINUOUS
 10
10.5713183383
 20
7.6403318604
 11
9.6968261747
 21
7.6403318604
  0
LINE
  5
262
100
AcDbEntity
  8
0
100
AcDbLine
 62
9
  6
CONTINUOUS
 10
11.5299137723
 20
7.5897409497
 11
11.5191322413
 21
7.5897939788
  0
LWPOLYLINE
  5
263
100
AcDbEntity
  8
0
100
AcDbPolyline
 62
7
  6
CONTINUOUS
 90
5
 70
0
 10
9.6968198263
 20
7.6403318604
 10
9.6776864007
 20
7.6376661778
 10
9.6600265245
 20
7.6298822302
 10
9.6451670603
 20
7.6175756871
 10
9.6342293036
 20
7.6016752482
  0
LWPOLYLINE
  5
264
100
AcDbEntity
  8
0
100
AcDbPolyline
 62
7
  6
CONTINUOUS
 90
5
 70
0
 10
11.2053183383
 20
8.8328303724
 10
11.2026526557
 20
8.851963798
 10
11.1948687081
 20
8.8696236742
 10
11.1825621649
 20
8.8844831383
 10
11.1666617261
 20
8.895420895
  0
LWPOLYLINE
  5
265
100
AcDbEntity
  8
0
100
AcDbPolyline
 62
7
  6
CONTINUOUS
 90
4
 70
0
 10
11.126973695
 20
6.0356910415
 10
11.1290533311
 20
6.0419053287
 10
11.1366902765
 20
6.0535611568
 10
11.1478606674
 20
6.0618890166
  0
LWPOLYLINE
  5
266
100
AcDbEntity
  8
0
100
AcDbPolyline
 62
7
  6
CONTINUOUS
 90
6
 70
0
 10
12.4939636948
 20
7.4026775741
 10
12.5078264588
 20
7.4076794033
 10
12.5252538745
 20
7.4196921372
 10
12.5382924155
 20
7.4363621413
 10
12.545753928
 20
7.4561711848
 10
12.5472682018
 20
7.4702618912
  0
LWPOLYLINE
  5
267
100
AcDbEntity
  8
0
100
AcDbPolyline
 62
7
  6
CONTINUOUS
 90
4
 70
0
 10
12.4939591391
 20
7.5619872216
 10
12.4877448699
 20
7.5640668532
 10
12.4760890419
 20
7.5717037987
 10
12.467761182
 20
7.5828741895
  0
LWPOLYLINE
  5
268
100
AcDbEntity
  8
0
100
AcDbPolyline
 62
7
  6
CONTINUOUS
 90
6
 70
0
 10
11.1269726245
 20
8.9289772236
 10
11.1219707951
 20
8.9428399875
 10
11.1099580614
 20
8.9602674032
 10
11.093288058
 20
8.973305944
 10
11.0734790158
 20
8.9807674567
 10
11.0593883104
 20
8.982281731
  0
LINE
  5
269
100
AcDbEntity
  8
0
100
AcDbLine
 62
9
  6
CONTINUOUS
 10
11.8590811996
 20
8.5810013591
 11
11.8590901561
 21
8.5756695801
  0
LINE
  5
26A
100
AcDbEntity
  8
0
100
AcDbLine
 62
9
  6
CONTINUOUS
 10
11.859081674
 20
6.3836623611
 11
11.8590906052
 21
6.3889923934
  0
LINE
  5
26B
100
AcDbEntity
  8
0
100
AcDbLine
 62
9
  6
CONTINUOUS
 10
9.9487340238
 20
8.2940946285
 11
9.9540593161
 21
8.2941035321
  0
LINE
  5
26C
100
AcDbEntity
  8
0
100
AcDbLine
 62
9
  6
CONTINUOUS
 10
12.1405777872
 20
8.2941036934
 11
12.1459017663
 21
8.2940952834
  0
LWPOLYLINE
  5
26D
100
AcDbEntity
  8
0
100
AcDbPolyline
 62
7
  6
CONTINUOUS
 90
7
 70
0
 10
11.9516965484
 20
8.4820142649
 10
11.9496055397
 20
8.5057309227
 10
11.9410232788
 20
8.5321850487
 10
11.9263937794
 20
8.553621695
 10
11.9062501767
 20
8.5694207903
 10
11.8812710942
 20
8.5787424711
 10
11.8590812006
 20
8.5810013592
  0
LINE
  5
26E
100
AcDbEntity
  8
0
100
AcDbLine
 62
7
  6
CONTINUOUS
 10
11.951648105
 20
8.4116986465
 11
11.9515692247
 21
8.4143958732
  0
LINE
  5
26F
100
AcDbEntity
  8
0
100
AcDbLine
 62
9
  6
CONTINUOUS
 10
11.9475017859
 20
6.5502602259
 11
11.9476337617
 21
6.482641645
  0
LINE
  5
270
100
AcDbEntity
  8
0
100
AcDbLine
 62
9
  6
CONTINUOUS
 10
11.9793822171
 20
8.3865902429
 11
11.9793899727
 21
8.3825153078
  0
LINE
  5
271
100
AcDbEntity
  8
0
100
AcDbLine
 62
9
  6
CONTINUOUS
 10
12.047000862
 20
8.386702548
 11
12.0470085586
 21
8.3826472855
  0
LINE
  5
272
100
AcDbEntity
  8
0
100
AcDbLine
 62
7
  6
CONTINUOUS
 10
11.9516890317
 20
6.4826493411
 11
11.9515767209
 21
6.5502679816
  0
LINE
  5
273
100
AcDbEntity
  8
0
100
AcDbLine
 62
7
  6
CONTINUOUS
 10
11.951576721
 20
8.4143958643
 11
11.9516890321
 21
8.4820142824
  0
LINE
  5
274
100
AcDbEntity
  8
0
100
AcDbLine
 62
9
  6
CONTINUOUS
 10
11.9476337425
 20
8.4820220693
 11
11.9475017696
 21
8.4144034867
  0
LINE
  5
275
100
AcDbEntity
  8
0
100
AcDbLine
 62
9
  6
CONTINUOUS
 10
11.9793823422
 20
6.5780734676
 11
11.9793899646
 21
6.5821484143
  0
LINE
  5
276
100
AcDbEntity
  8
0
100
AcDbLine
 62
9
  6
CONTINUOUS
 10
12.0470005742
 20
6.5779611992
 11
12.0470083667
 21
6.5820165137
  0
LINE
  5
277
100
AcDbEntity
  8
0
100
AcDbLine
 62
7
  6
CONTINUOUS
 10
11.9515692304
 20
6.5502679576
 11
11.951606608
 21
6.5521584319
  0
LWPOLYLINE
  5
278
100
AcDbEntity
  8
0
100
AcDbPolyline
 62
7
  6
CONTINUOUS
 90
7
 70
0
 10
10.0476361221
 20
8.3867099903
 10
10.0239192827
 20
8.3846189058
 10
9.9974648526
 20
8.3760365039
 10
9.9760280452
 20
8.361406699
 10
9.9602290633
 20
8.3412628292
 10
9.9509076855
 20
8.3162838056
 10
9.9486489072
 20
8.2940945447
  0
LINE
  5
279
100
AcDbEntity
  8
0
100
AcDbLine
 62
7
  6
CONTINUOUS
 10
10.1179515522
 20
8.3866616272
 11
10.1152543255
 21
8.3865827468
  0
LINE
  5
27A
100
AcDbEntity
  8
0
100
AcDbLine
 62
9
  6
CONTINUOUS
 10
11.9793899727
 20
8.3825153078
 11
12.0470085586
 21
8.3826472855
  0
LINE
  5
27B
100
AcDbEntity
  8
0
100
AcDbLine
 62
9
  6
CONTINUOUS
 10
10.1430599557
 20
8.4143957392
 11
10.1471348907
 21
8.4144034949
  0
LINE
  5
27C
100
AcDbEntity
  8
0
100
AcDbLine
 62
9
  6
CONTINUOUS
 10
10.1429476511
 20
8.4820143797
 11
10.1470029148
 21
8.4820220758
  0
LINE
  5
27D
100
AcDbEntity
  8
0
100
AcDbLine
 62
7
  6
CONTINUOUS
 10
12.0470008621
 20
8.3867025544
 11
11.9793822171
 21
8.3865902429
  0
LINE
  5
27E
100
AcDbEntity
  8
0
100
AcDbLine
 62
7
  6
CONTINUOUS
 10
10.1152543344
 20
8.3865902532
 11
10.0476361021
 21
8.3867025277
  0
LINE
  5
27F
100
AcDbEntity
  8
0
100
AcDbLine
 62
9
  6
CONTINUOUS
 10
10.0476283098
 20
8.3826472072
 11
10.115246712
 21
8.3825153065
  0
LINE
  5
280
100
AcDbEntity
  8
0
100
AcDbLine
 62
9
  6
CONTINUOUS
 10
11.951576721
 20
8.4143958643
 11
11.9475017696
 21
8.4144034867
  0
LINE
  5
281
100
AcDbEntity
  8
0
100
AcDbLine
 62
9
  6
CONTINUOUS
 10
11.951689026
 20
8.4820142823
 11
11.9476337425
 21
8.4820220693
  0
LINE
  5
282
100
AcDbEntity
  8
0
100
AcDbLine
 62
7
  6
CONTINUOUS
 10
11.979382241
 20
8.3865827525
 11
11.9774917668
 21
8.3866201301
  0
LINE
  5
283
100
AcDbEntity
  8
0
100
AcDbLine
 62
9
  6
CONTINUOUS
 10
12.1398270677
 20
7.3243318604
 11
12.1406577885
 21
6.6705602478
  0
LINE
  5
284
100
AcDbEntity
  8
0
100
AcDbLine
 62
7
  6
CONTINUOUS
 10
12.1459028536
 20
6.6705690929
 11
12.1453100247
 21
7.3243318604
  0
LINE
  5
285
100
AcDbEntity
  8
0
100
AcDbLine
 62
7
  6
CONTINUOUS
 10
12.1453091138
 20
7.6403318604
 11
12.1459019701
 21
8.2940952825
  0
LINE
  5
286
100
AcDbEntity
  8
0
100
AcDbLine
 62
9
  6
CONTINUOUS
 10
12.1406578296
 20
8.2941036347
 11
12.1398270758
 21
7.6403318604
  0
LWPOLYLINE
  5
287
100
AcDbEntity
  8
0
100
AcDbPolyline
 62
7
  6
CONTINUOUS
 90
5
 70
0
 10
11.951606608
 20
6.5521584319
 10
11.9535683798
 20
6.5625267495
 10
11.9585452077
 20
6.5706009909
 10
11.9664230835
 20
6.5758110962
 10
11.9766851244
 20
6.5780020937
  0
LINE
  5
288
100
AcDbEntity
  8
0
100
AcDbLine
 62
7
  6
CONTINUOUS
 10
11.8590811996
 20
8.5810013591
 11
11.2053183383
 21
8.5803093875
  0
LINE
  5
289
100
AcDbEntity
  8
0
100
AcDbLine
 62
7
  6
CONTINUOUS
 10
10.8893183383
 20
8.5803093093
 11
10.2355550237
 21
8.5810013598
  0
LWPOLYLINE
  5
28A
100
AcDbEntity
  8
0
100
AcDbPolyline
 62
7
  6
CONTINUOUS
 90
5
 70
0
 10
11.9774917668
 20
8.3866201301
 10
11.9671234492
 20
8.3885819019
 10
11.9590492078
 20
8.3935587298
 10
11.9538391024
 20
8.4014366056
 10
11.951648105
 20
8.4116986465
  0
LWPOLYLINE
  5
28B
100
AcDbEntity
  8
0
100
AcDbPolyline
 62
7
  6
CONTINUOUS
 90
7
 70
0
 10
12.145987838
 20
8.2940951995
 10
12.1438452837
 20
8.3157344417
 10
12.1346715132
 20
8.3407902023
 10
12.1190099078
 20
8.3610318804
 10
12.0976851125
 20
8.3757875391
 10
12.071293451
 20
8.3845111068
 10
12.0470008447
 20
8.3867100705
  0
LWPOLYLINE
  5
28C
100
AcDbEntity
  8
0
100
AcDbPolyline
 62
7
  6
CONTINUOUS
 90
7
 70
0
 10
10.2355550026
 20
8.5810013597
 10
10.2139157619
 20
8.578858808
 10
10.1888599996
 20
8.5696850396
 10
10.1686183192
 20
8.5540234341
 10
10.1538626589
 20
8.5326986367
 10
10.1451390926
 20
8.5063069711
 10
10.1429401299
 20
8.4820143623
  0
LWPOLYLINE
  5
28D
100
AcDbEntity
  8
0
100
AcDbPolyline
 62
7
  6
CONTINUOUS
 90
5
 70
0
 10
12.4604073729
 20
7.3629884726
 10
12.4677604024
 20
7.3817879795
 10
12.4760882146
 20
7.3929591436
 10
12.4877443805
 20
7.4005966578
 10
12.4939599439
 20
7.402676697
  0
LWPOLYLINE
  5
28E
100
AcDbEntity
  8
0
100
AcDbPolyline
 62
7
  6
CONTINUOUS
 90
6
 70
0
 10
11.1478606674
 20
6.0618890166
 10
11.1666617569
 20
6.0692430987
 10
11.1825621957
 20
6.0801808379
 10
11.1948687289
 20
6.0950402667
 10
11.2026526633
 20
6.1127000873
 10
11.2053183383
 20
6.1318334332
  0
LWPOLYLINE
  5
28F
100
AcDbEntity
  8
0
100
AcDbPolyline
 62
7
  6
CONTINUOUS
 90
5
 70
0
 10
11.1666617261
 20
8.895420895
 10
11.1478622192
 20
8.9027739246
 10
11.1366910551
 20
8.9111017367
 10
11.1290535409
 20
8.9227579026
 10
11.1269735138
 20
8.9289734171
  0
LWPOLYLINE
  5
290
100
AcDbEntity
  8
0
100
AcDbPolyline
 62
7
  6
CONTINUOUS
 90
6
 70
0
 10
12.467761182
 20
7.5828741895
 10
12.4604071
 20
7.601675279
 10
12.4494693608
 20
7.6175757178
 10
12.434609932
 20
7.629882251
 10
12.4169501114
 20
7.6376661854
 10
12.3978167655
 20
7.6403318604
  0
LWPOLYLINE
  5
291
100
AcDbEntity
  8
0
100
AcDbPolyline
 62
7
  6
CONTINUOUS
 90
6
 70
0
 10
12.5472699439
 20
7.494219709
 10
12.5457832247
 20
7.5083578624
 10
12.5383437911
 20
7.52821167
 10
12.525304669
 20
7.5449245725
 10
12.5078578615
 20
7.556969513
 10
12.4939637225
 20
7.5619863807
  0
LINE
  5
292
100
AcDbEntity
  8
0
100
AcDbLine
 62
7
  6
CONTINUOUS
 10
12.5472712299
 20
7.4942197921
 11
12.5472697758
 21
7.4702618529
  0
LWPOLYLINE
  5
293
100
AcDbEntity
  8
0
100
AcDbPolyline
 62
7
  6
CONTINUOUS
 90
6
 70
0
 10
11.0354304669
 20
8.9822834659
 10
11.0212923191
 20
8.9807967432
 10
11.0014385172
 20
8.9733573068
 10
10.9847256202
 20
8.9603181847
 10
10.9726806838
 20
8.9428713797
 10
10.9676638179
 20
8.9289772446
  0
LINE
  5
294
100
AcDbEntity
  8
0
100
AcDbLine
 62
7
  6
CONTINUOUS
 10
11.0354303834
 20
8.9822847518
 11
11.0593883486
 21
8.9822832979
  0
ARC
  5
295
100
AcDbEntity
  8
0
100
AcDbCircle
 62
9
  6
CONTINUOUS
 10
-74.3555507737
 20
-64.3676399279
 40
111.6977204891
100
AcDbArc
 50
40.5635070143
 51
40.7713595994
  0
ARC
  5
296
100
AcDbEntity
  8
0
100
AcDbCircle
 62
9
  6
CONTINUOUS
 10
-45.8517735757
 20
-60.5211479299
 40
88.7572262065
100
AcDbArc
 50
49.2028809202
 51
49.4644520873
  0
ARC
  5
297
100
AcDbEntity
  8
0
100
AcDbCircle
 62
9
  6
CONTINUOUS
 10
-40.4079256646
 20
-44.848230769
 40
73.413309996
100
AcDbArc
 50
44.4719104701
 51
44.7441808958
  0
ARC
  5
298
100
AcDbEntity
  8
0
100
AcDbCircle
 62
9
  6
CONTINUOUS
 10
-39.9196394265
 20
-42.5856344291
 40
71.4680776463
100
AcDbArc
 50
45.2493564794
 51
45.5290463528
  0
ARC
  5
299
100
AcDbEntity
  8
0
100
AcDbCircle
 62
9
  6
CONTINUOUS
 10
-9.5463906672
 20
-10.3451926922
 40
27.2977746053
100
AcDbArc
 50
38.0576451224
 51
38.8959090979
  0
ARC
  5
29A
100
AcDbEntity
  8
0
100
AcDbCircle
 62
9
  6
CONTINUOUS
 10
-6.6763045523
 20
-12.9785463157
 40
27.1291426041
100
AcDbArc
 50
51.0987353822
 51
51.9422005991
  0
ARC
  5
29B
100
AcDbEntity
  8
0
100
AcDbCircle
 62
9
  6
CONTINUOUS
 10
8.474852254
 20
6.2355857221
 40
2.6524416142
100
AcDbArc
 50
359.8866861145
 51
0.0055161754
  0
ARC
  5
29C
100
AcDbEntity
  8
0
100
AcDbCircle
 62
9
  6
CONTINUOUS
 10
9.8005613794
 20
4.9216638017
 40
2.6406435893
100
AcDbArc
 50
89.9942268277
 51
90.1135856305
  0
ARC
  5
29D
100
AcDbEntity
  8
0
100
AcDbCircle
 62
9
  6
CONTINUOUS
 10
11.0473183383
 20
7.4823318604
 40
1.2646377159
100
AcDbArc
 50
269.4236740019
 51
270.5812280147
  0
ARC
  5
29E
100
AcDbEntity
  8
0
100
AcDbCircle
 62
9
  6
CONTINUOUS
 10
11.0473183383
 20
7.4823318604
 40
1.2646377159
100
AcDbArc
 50
89.4236713699
 51
90.5763286048
  0
ARC
  5
29F
100
AcDbEntity
  8
0
100
AcDbCircle
 62
9
  6
CONTINUOUS
 10
11.0473183383
 20
7.4823318604
 40
1.2646377159
100
AcDbArc
 50
359.4236739969
 51
0.5763286048
  0
ARC
  5
2A0
100
AcDbEntity
  8
0
100
AcDbCircle
 62
9
  6
CONTINUOUS
 10
11.0473183383
 20
7.4823318604
 40
1.2646377159
100
AcDbArc
 50
179.4236713699
 51
180.5812261214
  0
ARC
  5
2A1
100
AcDbEntity
  8
0
100
AcDbCircle
 62
9
  6
CONTINUOUS
 10
10.567725243
 20
7.0027379317
 40
0.4668573062
100
AcDbArc
 50
0.0270803641
 51
89.9729336412
  0
ARC
  5
2A2
100
AcDbEntity
  8
0
100
AcDbCircle
 62
9
  6
CONTINUOUS
 10
10.4206757808
 20
7.1985062803
 40
0.4135355397
100
AcDbArc
 50
357.8623714083
 51
358.1873478463
  0
ARC
  5
2A3
100
AcDbEntity
  8
0
100
AcDbCircle
 62
9
  6
CONTINUOUS
 10
10.5727662662
 20
7.0077785035
 40
0.3945706702
100
AcDbArc
 50
0.0123930592
 51
89.9879514192
  0
ARC
  5
2A4
100
AcDbEntity
  8
0
100
AcDbCircle
 62
9
  6
CONTINUOUS
 10
10.5717291352
 20
7.0067352743
 40
0.3681501547
100
AcDbArc
 50
0.5887207965
 51
89.4124385381
  0
ARC
  5
2A5
100
AcDbEntity
  8
0
100
AcDbCircle
 62
7
  6
CONTINUOUS
 10
10.5713183383
 20
7.0063318604
 40
0.318
100
AcDbArc
 50
0.0
 51
90.0000000072
  0
ARC
  5
2A6
100
AcDbEntity
  8
0
100
AcDbCircle
 62
9
  6
CONTINUOUS
 10
-60.9013514613
 20
93.0001119005
 40
111.8491990919
100
AcDbArc
 50
310.563637129
 51
310.7712052917
  0
ARC
  5
2A7
100
AcDbEntity
  8
0
100
AcDbCircle
 62
9
  6
CONTINUOUS
 10
-56.8558998802
 20
64.2952906464
 40
88.6250472882
100
AcDbArc
 50
319.202684413
 51
319.4646455944
  0
ARC
  5
2A8
100
AcDbEntity
  8
0
100
AcDbCircle
 62
9
  6
CONTINUOUS
 10
-41.2831719443
 20
58.9375027753
 40
73.4132071558
100
AcDbArc
 50
314.4719101409
 51
314.7441809469
  0
ARC
  5
2A9
100
AcDbEntity
  8
0
100
AcDbCircle
 62
9
  6
CONTINUOUS
 10
-39.0206465047
 20
58.4492881833
 40
71.468075603
100
AcDbArc
 50
315.2493564829
 51
315.5290463642
  0
ARC
  5
2AA
100
AcDbEntity
  8
0
100
AcDbCircle
 62
9
  6
CONTINUOUS
 10
-9.5557067727
 20
25.3172930348
 40
27.3096951814
100
AcDbArc
 50
321.1042206959
 51
321.9421186565
  0
ARC
  5
2AB
100
AcDbEntity
  8
0
100
AcDbCircle
 62
9
  6
CONTINUOUS
 10
9.8005721999
 20
10.0547978571
 40
2.6524415265
100
AcDbArc
 50
269.886686112
 51
270.0055161769
  0
ARC
  5
2AC
100
AcDbEntity
  8
0
100
AcDbCircle
 62
9
  6
CONTINUOUS
 10
8.4866502011
 20
8.7290888192
 40
2.6406436677
100
AcDbArc
 50
359.9942268297
 51
0.113585629
  0
ARC
  5
2AD
100
AcDbEntity
  8
0
100
AcDbCircle
 62
9
  6
CONTINUOUS
 10
10.5677250569
 20
7.9619250467
 40
0.46685693
100
AcDbArc
 50
270.0270010208
 51
359.9729222285
  0
ARC
  5
2AE
100
AcDbEntity
  8
0
100
AcDbCircle
 62
9
  6
CONTINUOUS
 10
10.7634888587
 20
8.1089169164
 40
0.4134780481
100
AcDbArc
 50
267.8625935724
 51
268.187618945
  0
ARC
  5
2AF
100
AcDbEntity
  8
0
100
AcDbCircle
 62
9
  6
CONTINUOUS
 10
10.5727654834
 20
7.956884025
 40
0.3945701066
100
AcDbArc
 50
270.0123352875
 51
359.9879306865
  0
ARC
  5
2B0
100
AcDbEntity
  8
0
100
AcDbCircle
 62
9
  6
CONTINUOUS
 10
10.5717217721
 20
7.9579210877
 40
0.3681501819
100
AcDbArc
 50
270.5887176527
 51
359.412434736
  0
ARC
  5
2B1
100
AcDbEntity
  8
0
100
AcDbCircle
 62
7
  6
CONTINUOUS
 10
10.5713183383
 20
7.9583318604
 40
0.318
100
AcDbArc
 50
269.9999999893
 51
360.0
  0
ARC
  5
2B2
100
AcDbEntity
  8
0
100
AcDbCircle
 62
9
  6
CONTINUOUS
 10
82.9888385782
 20
-78.027126726
 40
111.8382281112
100
AcDbArc
 50
130.5636268678
 51
130.7712153918
  0
ARC
  5
2B3
100
AcDbEntity
  8
0
100
AcDbCircle
 62
9
  6
CONTINUOUS
 10
78.9407212383
 20
-49.3221950714
 40
88.6121075864
100
AcDbArc
 50
139.2026649805
 51
139.4646644184
  0
ARC
  5
2B4
100
AcDbEntity
  8
0
100
AcDbCircle
 62
9
  6
CONTINUOUS
 10
63.3778134836
 20
-43.9728439934
 40
73.4132140869
100
AcDbArc
 50
134.4719101486
 51
134.7441809287
  0
ARC
  5
2B5
100
AcDbEntity
  8
0
100
AcDbCircle
 62
9
  6
CONTINUOUS
 10
61.1152830837
 20
-43.4846243659
 40
71.4680754657
100
AcDbArc
 50
135.2493564828
 51
135.5290463647
  0
ARC
  5
2B6
100
AcDbEntity
  8
0
100
AcDbCircle
 62
9
  6
CONTINUOUS
 10
31.650531409
 20
-10.3527785579
 40
27.309935188
100
AcDbArc
 50
141.1042246153
 51
141.9421152078
  0
ARC
  5
2B7
100
AcDbEntity
  8
0
100
AcDbCircle
 62
9
  6
CONTINUOUS
 10
12.2940644767
 20
4.9098658676
 40
2.6524415227
100
AcDbArc
 50
89.8866861119
 51
90.0055161769
  0
ARC
  5
2B8
100
AcDbEntity
  8
0
100
AcDbCircle
 62
9
  6
CONTINUOUS
 10
13.607986397
 20
6.2355749016
 40
2.6406435893
100
AcDbArc
 50
179.9942268277
 51
180.1135856305
  0
ARC
  5
2B9
100
AcDbEntity
  8
0
100
AcDbCircle
 62
9
  6
CONTINUOUS
 10
11.5269116356
 20
7.0027386632
 40
0.4668569559
100
AcDbArc
 50
90.0270029778
 51
179.9729208842
  0
ARC
  5
2BA
100
AcDbEntity
  8
0
100
AcDbCircle
 62
9
  6
CONTINUOUS
 10
11.3311478179
 20
6.8557468046
 40
0.413478048
100
AcDbArc
 50
87.8625935723
 51
88.1876189417
  0
ARC
  5
2BB
100
AcDbEntity
  8
0
100
AcDbCircle
 62
9
  6
CONTINUOUS
 10
11.5218710323
 20
7.0077797125
 40
0.3945700325
100
AcDbArc
 50
90.0123119245
 51
179.9879330929
  0
ARC
  5
2BC
100
AcDbEntity
  8
0
100
AcDbCircle
 62
9
  6
CONTINUOUS
 10
11.5229149043
 20
7.0067426239
 40
0.3681501873
100
AcDbArc
 50
90.5887176169
 51
179.4124333086
  0
ARC
  5
2BD
100
AcDbEntity
  8
0
100
AcDbCircle
 62
7
  6
CONTINUOUS
 10
11.5233183383
 20
7.0063318604
 40
0.318
100
AcDbArc
 50
89.9999999893
 51
180.0000000072
  0
ARC
  5
2BE
100
AcDbEntity
  8
0
100
AcDbCircle
 62
9
  6
CONTINUOUS
 10
96.4508859399
 20
79.3329045011
 40
111.6986418514
100
AcDbArc
 50
220.5635081609
 51
220.7713590329
  0
ARC
  5
2BF
100
AcDbEntity
  8
0
100
AcDbCircle
 62
9
  6
CONTINUOUS
 10
67.9462479941
 20
75.4856226449
 40
88.756977107
100
AcDbArc
 50
229.2028804947
 51
229.4644523962
  0
ARC
  5
2C0
100
AcDbEntity
  8
0
100
AcDbCircle
 62
9
  6
CONTINUOUS
 10
62.5025647498
 20
59.8128968388
 40
73.4133133603
100
AcDbArc
 50
224.4719104614
 51
224.7441808746
  0
ARC
  5
2C1
100
AcDbEntity
  8
0
100
AcDbCircle
 62
9
  6
CONTINUOUS
 10
62.0142762359
 20
57.5502982839
 40
71.468077835
100
AcDbArc
 50
225.2493564794
 51
225.529046352
  0
ARC
  5
2C2
100
AcDbEntity
  8
0
100
AcDbCircle
 62
9
  6
CONTINUOUS
 10
31.6410271716
 20
25.3098569074
 40
27.2977747774
100
AcDbArc
 50
218.0576461622
 51
218.8959101305
  0
ARC
  5
2C3
100
AcDbEntity
  8
0
100
AcDbCircle
 62
9
  6
CONTINUOUS
 10
28.7709325769
 20
27.9431993578
 40
27.1291288617
100
AcDbArc
 50
231.0987354396
 51
231.9422010836
  0
ARC
  5
2C4
100
AcDbEntity
  8
0
100
AcDbCircle
 62
9
  6
CONTINUOUS
 10
13.6197843342
 20
8.7290779988
 40
2.6524415258
100
AcDbArc
 50
179.8866861119
 51
180.0055161769
  0
ARC
  5
2C5
100
AcDbEntity
  8
0
100
AcDbCircle
 62
9
  6
CONTINUOUS
 10
12.2940752972
 20
10.0429997753
 40
2.6406434455
100
AcDbArc
 50
269.9942268252
 51
270.1135856349
  0
ARC
  5
2C6
100
AcDbEntity
  8
0
100
AcDbCircle
 62
9
  6
CONTINUOUS
 10
11.5269121421
 20
7.9619261095
 40
0.4668580567
100
AcDbArc
 50
180.0271191243
 51
269.9729530713
  0
ARC
  5
2C7
100
AcDbEntity
  8
0
100
AcDbCircle
 62
9
  6
CONTINUOUS
 10
11.6726291265
 20
7.7662029099
 40
0.4122029986
100
AcDbArc
 50
177.845800265
 51
178.1878094474
  0
ARC
  5
2C8
100
AcDbEntity
  8
0
100
AcDbCircle
 62
9
  6
CONTINUOUS
 10
11.5218725154
 20
7.9568864417
 40
0.39457295
100
AcDbArc
 50
180.0125703621
 51
269.987490276
  0
ARC
  5
2C9
100
AcDbEntity
  8
0
100
AcDbCircle
 62
9
  6
CONTINUOUS
 10
11.5229345452
 20
7.9579477247
 40
0.3681753334
100
AcDbArc
 50
180.5916779155
 51
269.4082690016
  0
ARC
  5
2CA
100
AcDbEntity
  8
0
100
AcDbCircle
 62
7
  6
CONTINUOUS
 10
11.5233183383
 20
7.9583318604
 40
0.318
100
AcDbArc
 50
179.9999999893
 51
270.0000000072
  0
LINE
  5
2CB
100
AcDbEntity
  8
0
100
AcDbLine
 62
9
  6
CONTINUOUS
 10
11.0593883486
 20
8.9822832979
 11
11.0600388442
 21
8.7469055994
  0
SPLINE
  5
2CC
100
AcDbEntity
  8
0
100
AcDbSpline
 62
9
  6
CONTINUOUS
 70
0
 71
3
 72
19
 73
15
 74
0
 42
0.0000001
 43
0.0000001
 44
0.0000000001
 40
0.0
 40
0.0
 40
0.0
 40
0.0
 40
0.1901597589
 40
0.3675870284
 40
0.5277651025
 40
0.6674156284
 40
0.7287424094
 40
0.7840564719
 40
0.8332587555
 40
0.8764264778
 40
0.9138217984
 40
0.9460431426
 40
0.9741960078
 40
1.0
 40
1.0
 40
1.0
 40
1.0
 10
10.9399092348
 20
6.2428111311
 30
0.0
 10
10.9363896995
 20
6.2430678008
 30
0.0
 10
10.9295956941
 20
6.2437085302
 30
0.0
 10
10.9198957059
 20
6.2450939835
 30
0.0
 10
10.9112085596
 20
6.2468445797
 30
0.0
 10
10.9047404925
 20
6.2486354605
 30
0.0
 10
10.9002650833
 20
6.2502518761
 30
0.0
 10
10.897436956
 20
6.2514716104
 30
0.0
 10
10.8950061681
 20
6.2527443842
 30
0.0
 10
10.892985344
 20
6.2540627263
 30
0.0
 10
10.8913848419
 20
6.2554227936
 30
0.0
 10
10.8902152516
 20
6.2568253676
 30
0.0
 10
10.889488786
 20
6.2582696803
 30
0.0
 10
10.8893183382
 20
6.2592764323
 30
0.0
 10
10.8893183387
 20
6.2597552889
 30
0.0
  0
SPLINE
  5
2CD
100
AcDbEntity
  8
0
100
AcDbSpline
 62
9
  6
CONTINUOUS
 70
0
 71
3
 72
23
 73
19
 74
0
 42
0.0000001
 43
0.0000001
 44
0.0000000001
 40
0.0
 40
0.0
 40
0.0
 40
0.0
 40
0.1952502709
 40
0.3839671273
 40
0.5578471765
 40
0.6367388374
 40
0.7089618143
 40
0.7736544959
 40
0.8303837948
 40
0.8788363189
 40
0.9187294739
 40
0.9499628628
 40
0.9624793252
 40
0.9730548015
 40
0.9818260775
 40
0.9889946247
 40
0.9948813849
 40
1.0
 40
1.0
 40
1.0
 40
1.0
 10
10.9399092474
 20
6.9997364256
 30
0.0
 10
10.9365481236
 20
6.9998315471
 30
0.0
 10
10.9299396774
 20
7.0000715115
 30
0.0
 10
10.9203464455
 20
7.0005938091
 30
0.0
 10
10.9127650753
 20
7.0011803689
 30
0.0
 10
10.9071959259
 20
7.0017386867
 30
0.0
 10
10.9035049401
 20
7.0021754364
 30
0.0
 10
10.9002025202
 20
7.0026417471
 30
0.0
 10
10.8973177714
 20
7.0031306226
 30
0.0
 10
10.8948700056
 20
7.0036350453
 30
0.0
 10
10.8928749423
 20
7.0041485059
 30
0.0
 10
10.8915069392
 20
7.0046081374
 30
0.0
 10
10.8906521192
 20
7.0049902019
 30
0.0
 10
10.8901705305
 20
7.005254899
 30
0.0
 10
10.8897964298
 20
7.00551903
 30
0.0
 10
10.8895265363
 20
7.0057839401
 30
0.0
 10
10.8893586828
 20
7.0060530286
 30
0.0
 10
10.889318338
 20
7.0062437134
 30
0.0
 10
10.8893183383
 20
7.0063318628
 30
0.0
  0
SPLINE
  5
2CE
100
AcDbEntity
  8
0
100
AcDbSpline
 62
9
  6
CONTINUOUS
 70
0
 71
3
 72
24
 73
20
 74
0
 42
0.0000001
 43
0.0000001
 44
0.0000000001
 40
0.0
 40
0.0
 40
0.0
 40
0.0
 40
0.1960523895
 40
0.3854455146
 40
0.5598343169
 40
0.6389078224
 40
0.711259034
 40
0.7760210265
 40
0.8327563268
 40
0.8811451769
 40
0.9208932823
 40
0.9374668109
 40
0.9518858765
 40
0.9642266216
 40
0.974582703
 40
0.9830796481
 40
0.9899046495
 40
0.995367816
 40
1.0
 40
1.0
 40
1.0
 40
1.0
 10
10.9398562185
 20
7.010517956
 30
0.0
 10
10.9364967294
 20
7.0105115417
 30
0.0
 10
10.9298916383
 20
7.0105463979
 30
0.0
 10
10.9203002516
 20
7.010752981
 30
0.0
 10
10.9127175076
 20
7.0110720389
 30
0.0
 10
10.9071451832
 20
7.0114206911
 30
0.0
 10
10.9034518918
 20
7.0117114656
 30
0.0
 10
10.9001461228
 20
7.0120393327
 30
0.0
 10
10.8972568303
 20
7.012398606
 30
0.0
 10
10.8948040307
 20
7.0127840631
 30
0.0
 10
10.8930441723
 20
7.0131395867
 30
0.0
 10
10.8918704552
 20
7.0134437859
 30
0.0
 10
10.8911603351
 20
7.0136618593
 30
0.0
 10
10.8905635191
 20
7.0138829602
 30
0.0
 10
10.8900772591
 20
7.0141065654
 30
0.0
 10
10.8896982226
 20
7.0143323569
 30
0.0
 10
10.8894228099
 20
7.0145613987
 30
0.0
 10
10.8892473606
 20
7.0147974693
 30
0.0
 10
10.8892009741
 20
7.0149702764
 30
0.0
 10
10.889198798
 20
7.0150496223
 30
0.0
  0
SPLINE
  5
2CF
100
AcDbEntity
  8
0
100
AcDbSpline
 62
9
  6
CONTINUOUS
 70
0
 71
3
 72
24
 73
20
 74
0
 42
0.0000001
 43
0.0000001
 44
0.0000000001
 40
0.0
 40
0.0
 40
0.0
 40
0.0
 40
0.1959971425
 40
0.3853558492
 40
0.5597342852
 40
0.6388107144
 40
0.711169448
 40
0.7759428173
 40
0.8326920524
 40
0.8810959625
 40
0.9208588263
 40
0.9374391886
 40
0.9518645463
 40
0.9642109301
 40
0.9745718888
 40
0.983072851
 40
0.9899009386
 40
0.9953662788
 40
1.0
 40
1.0
 40
1.0
 40
1.0
 10
10.5755046768
 20
7.3748696664
 30
0.0
 10
10.5754982624
 20
7.3715111308
 30
0.0
 10
10.5755330919
 20
7.3649075895
 30
0.0
 10
10.5757395701
 20
7.3553179346
 30
0.0
 10
10.5760584985
 20
7.3477359189
 30
0.0
 10
10.5764070432
 20
7.3421635978
 30
0.0
 10
10.5766977602
 20
7.3384699343
 30
0.0
 10
10.5770255863
 20
7.3351636026
 30
0.0
 10
10.577384839
 20
7.3322736164
 30
0.0
 10
10.5777702988
 20
7.3298200636
 30
0.0
 10
10.5781258432
 20
7.3280595725
 30
0.0
 10
10.5784300762
 20
7.3268853731
 30
0.0
 10
10.5786481839
 20
7.3261749287
 30
0.0
 10
10.5788693254
 20
7.325577822
 30
0.0
 10
10.5790929772
 20
7.3250913106
 30
0.0
 10
10.5793188204
 20
7.3247120667
 30
0.0
 10
10.5795479188
 20
7.324436495
 30
0.0
 10
10.5797840536
 20
7.324260934
 30
0.0
 10
10.579956923
 20
7.3242145135
 30
0.0
 10
10.5800362951
 20
7.3242123366
 30
0.0
  0
SPLINE
  5
2D0
100
AcDbEntity
  8
0
100
AcDbSpline
 62
9
  6
CONTINUOUS
 70
0
 71
3
 72
23
 73
19
 74
0
 42
0.0000001
 43
0.0000001
 44
0.0000000001
 40
0.0
 40
0.0
 40
0.0
 40
0.0
 40
0.195250238
 40
0.3839670663
 40
0.5578470965
 40
0.6367387525
 40
0.7089617283
 40
0.7736544127
 40
0.8303837178
 40
0.8788362516
 40
0.9187294198
 40
0.9499628245
 40
0.9624792952
 40
0.9730547797
 40
0.9818260638
 40
0.9889946181
 40
0.9948813834
 40
1.0
 40
1.0
 40
1.0
 40
1.0
 10
10.564722904
 20
7.3749227698
 30
0.0
 10
10.5648180255
 20
7.3715616467
 30
0.0
 10
10.5650579898
 20
7.3649532017
 30
0.0
 10
10.5655802872
 20
7.3553599715
 30
0.0
 10
10.5661668468
 20
7.3477786023
 30
0.0
 10
10.5667251643
 20
7.3422094535
 30
0.0
 10
10.5671619139
 20
7.3385184678
 30
0.0
 10
10.5676282244
 20
7.3352160479
 30
0.0
 10
10.5681170998
 20
7.3323312988
 30
0.0
 10
10.5686215223
 20
7.3298835326
 30
0.0
 10
10.5691349828
 20
7.3278884685
 30
0.0
 10
10.5695946142
 20
7.3265204648
 30
0.0
 10
10.5699766785
 20
7.3256656441
 30
0.0
 10
10.5702413755
 20
7.3251840549
 30
0.0
 10
10.5705055065
 20
7.3248099537
 30
0.0
 10
10.5707704165
 20
7.3245400598
 30
0.0
 10
10.5710395049
 20
7.3243722057
 30
0.0
 10
10.5712301897
 20
7.3243318603
 30
0.0
 10
10.5713183391
 20
7.3243318604
 30
0.0
  0
LINE
  5
2D1
100
AcDbEntity
  8
0
100
AcDbLine
 62
9
  6
CONTINUOUS
 10
10.9676638222
 20
8.9289738212
 11
10.9673479516
 21
8.734323669
  0
SPLINE
  5
2D2
100
AcDbEntity
  8
0
100
AcDbSpline
 62
9
  6
CONTINUOUS
 70
0
 71
3
 72
26
 73
22
 74
0
 42
0.0000001
 43
0.0000001
 44
0.0000000001
 40
0.0
 40
0.0
 40
0.0
 40
0.0
 40
0.0194616956
 40
0.0393491126
 40
0.0598429997
 40
0.0810933763
 40
0.1031632117
 40
0.1260763687
 40
0.1498400584
 40
0.1744541706
 40
0.2262220605
 40
0.2813368179
 40
0.3397211484
 40
0.4012965169
 40
0.4659939373
 40
0.5337448737
 40
0.604478205
 40
0.678112856
 40
0.7545677825
 40
0.8337659393
 40
1.0
 40
1.0
 40
1.0
 40
1.0
 10
10.6998245032
 20
7.7026338187
 30
0.0
 10
10.6964196375
 20
7.7036765385
 30
0.0
 10
10.689603042
 20
7.7060119754
 30
0.0
 10
10.6794767984
 20
7.7101933488
 30
0.0
 10
10.6693078378
 20
7.7150806835
 30
0.0
 10
10.6590482922
 20
7.7206633433
 30
0.0
 10
10.6486330501
 20
7.7268635783
 30
0.0
 10
10.638011161
 20
7.7336036
 30
0.0
 10
10.627129553
 20
7.7407978953
 30
0.0
 10
10.6119968947
 20
7.7511317419
 30
0.0
 10
10.5923871025
 20
7.7650761418
 30
0.0
 10
10.5680305055
 20
7.7829986151
 30
0.0
 10
10.5424487387
 20
7.80227996
 30
0.0
 10
10.5156361453
 20
7.8228390309
 30
0.0
 10
10.4876161343
 20
7.8446384964
 30
0.0
 10
10.4584189992
 20
7.8676525269
 30
0.0
 10
10.4280816196
 20
7.8918604501
 30
0.0
 10
10.3966466244
 20
7.9172451024
 30
0.0
 10
10.364160969
 20
7.9437928897
 30
0.0
 10
10.3187897008
 20
7.9813464923
 30
0.0
 10
10.2844697313
 20
8.0103108765
 30
0.0
 10
10.2613340418
 20
8.0300564308
 30
0.0
  0
SPLINE
  5
2D3
100
AcDbEntity
  8
0
100
AcDbSpline
 62
9
  6
CONTINUOUS
 70
0
 71
3
 72
12
 73
8
 74
0
 42
0.0000001
 43
0.0000001
 44
0.0000000001
 40
0.0
 40
0.0
 40
0.0
 40
0.0
 40
0.2416234737
 40
0.485822942
 40
0.6102928949
 40
0.7370703605
 40
1.0
 40
1.0
 40
1.0
 40
1.0
 10
10.6998248827
 20
7.7026330514
 30
0.0
 10
10.7036143646
 20
7.7015749705
 30
0.0
 10
10.7113073099
 20
7.6997016836
 30
0.0
 10
10.7211062348
 20
7.6980039754
 30
0.0
 10
10.7291128548
 20
7.6970056349
 30
0.0
 10
10.7374500057
 20
7.6962250257
 30
0.0
 10
10.743789351
 20
7.6958863345
 30
0.0
 10
10.7480677286
 20
7.6957265425
 30
0.0
  0
SPLINE
  5
2D4
100
AcDbEntity
  8
0
100
AcDbSpline
 62
9
  6
CONTINUOUS
 70
0
 71
3
 72
21
 73
17
 74
0
 42
0.0000001
 43
0.0000001
 44
0.0000000001
 40
0.0
 40
0.0
 40
0.0
 40
0.0
 40
0.0624271031
 40
0.1249674264
 40
0.187515334
 40
0.2500673301
 40
0.3126135381
 40
0.3751853523
 40
0.5002036709
 40
0.5627787792
 40
0.6253520037
 40
0.6878689821
 40
0.7503410085
 40
0.8128166051
 40
0.8752806085
 40
1.0
 40
1.0
 40
1.0
 40
1.0
 10
9.9539789388
 20
8.29410325
 30
0.0
 10
9.9541421426
 20
8.2970652596
 30
0.0
 10
9.9546900193
 20
8.3029853233
 30
0.0
 10
9.9562303927
 20
8.311772282
 30
0.0
 10
9.9585536271
 20
8.3203948319
 30
0.0
 10
9.9617098542
 20
8.3287497661
 30
0.0
 10
9.9656885411
 20
8.3367497582
 30
0.0
 10
9.9720743443
 20
8.3467945942
 30
0.0
 10
9.9800228942
 20
8.3557774892
 30
0.0
 10
9.9892296648
 20
8.3633233702
 30
0.0
 10
9.9966726646
 20
8.3682634498
 30
0.0
 10
10.0045536077
 20
8.372454644
 30
0.0
 10
10.0127822907
 20
8.3758977634
 30
0.0
 10
10.0212738977
 20
8.3786178179
 30
0.0
 10
10.0328372686
 20
8.3813116906
 30
0.0
 10
10.0417097672
 20
8.3823505494
 30
0.0
 10
10.0476283255
 20
8.3826591543
 30
0.0
  0
LINE
  5
2D5
100
AcDbEntity
  8
0
100
AcDbLine
 62
9
  6
CONTINUOUS
 10
9.7827456918
 20
7.469503204
 11
9.5473654467
 21
7.4704439289
  0
SPLINE
  5
2D6
100
AcDbEntity
  8
0
100
AcDbSpline
 62
9
  6
CONTINUOUS
 70
0
 71
3
 72
17
 73
13
 74
0
 42
0.0000001
 43
0.0000001
 44
0.0000000001
 40
0.0
 40
0.0
 40
0.0
 40
0.0
 40
0.0413377204
 40
0.0859818566
 40
0.1337634054
 40
0.1845257342
 40
0.2945000025
 40
0.4152796074
 40
0.5464188176
 40
0.6877103665
 40
0.838986541
 40
1.0
 40
1.0
 40
1.0
 40
1.0
 10
10.7509219188
 20
7.7641002905
 30
0.0
 10
10.7455020833
 20
7.7691600365
 30
0.0
 10
10.7342994033
 20
7.7797596682
 30
0.0
 10
10.716967221
 20
7.7963498851
 30
0.0
 10
10.6984207445
 20
7.8141162524
 30
0.0
 10
10.6713917895
 20
7.839967104
 30
0.0
 10
10.6348030702
 20
7.8747657617
 30
0.0
 10
10.5876504203
 20
7.9193761207
 30
0.0
 10
10.5363237732
 20
7.9677478383
 30
0.0
 10
10.4810053337
 20
8.0198594558
 30
0.0
 10
10.4218488803
 20
8.0757114219
 30
0.0
 10
10.3811948747
 20
8.1142448039
 30
0.0
 10
10.3602597775
 20
8.1341392777
 30
0.0
  0
SPLINE
  5
2D7
100
AcDbEntity
  8
0
100
AcDbSpline
 62
9
  6
CONTINUOUS
 70
0
 71
3
 72
17
 73
13
 74
0
 42
0.0000001
 43
0.0000001
 44
0.0000000001
 40
0.0
 40
0.0
 40
0.0
 40
0.0
 40
0.1610067263
 40
0.3122768085
 40
0.4535651058
 40
0.5847036298
 40
0.7054841657
 40
0.8154610013
 40
0.8662254236
 40
0.9140101444
 40
0.9586586504
 40
1.0
 40
1.0
 40
1.0
 40
1.0
 10
10.3956520173
 20
8.1692419665
 30
0.0
 10
10.4155376657
 20
8.1483156032
 30
0.0
 10
10.4540543029
 20
8.1076788346
 30
0.0
 10
10.509882767
 20
8.0485475607
 30
0.0
 10
10.5619729325
 20
7.9932518864
 30
0.0
 10
10.6103254437
 20
7.9419454749
 30
0.0
 10
10.6549187087
 20
7.894810623
 30
0.0
 10
10.6897044241
 20
7.8582352435
 30
0.0
 10
10.7155461164
 20
7.8312156615
 30
0.0
 10
10.7333070062
 20
7.8126753418
 30
0.0
 10
10.7498930465
 20
7.7953492755
 30
0.0
 10
10.7604894592
 20
7.7841498009
 30
0.0
 10
10.7655471067
 20
7.7787310511
 30
0.0
  0
SPLINE
  5
2D8
100
AcDbEntity
  8
0
100
AcDbSpline
 62
9
  6
CONTINUOUS
 70
0
 71
3
 72
18
 73
14
 74
0
 42
0.0000001
 43
0.0000001
 44
0.0000000001
 40
0.0
 40
0.0
 40
0.0
 40
0.0
 40
0.0298039294
 40
0.064655452
 40
0.1048530613
 40
0.1506214034
 40
0.2020567785
 40
0.2588783213
 40
0.3870427836
 40
0.5312958523
 40
0.6857232904
 40
0.8439371694
 40
1.0
 40
1.0
 40
1.0
 40
1.0
 10
9.7953264626
 20
7.5623021925
 30
0.0
 10
9.7948651855
 20
7.5617906572
 30
0.0
 10
9.7939517064
 20
7.5606018321
 30
0.0
 10
9.7926939953
 20
7.5585267043
 30
0.0
 10
9.7914584176
 20
7.5560194001
 30
0.0
 10
9.7902598743
 20
7.5530764524
 30
0.0
 10
9.7891146415
 20
7.5497041917
 30
0.0
 10
9.7876091641
 20
7.5444500399
 30
0.0
 10
9.7859786235
 20
7.5370096958
 30
0.0
 10
9.7844906174
 20
7.5272528894
 30
0.0
 10
9.783429073
 20
7.5167428937
 30
0.0
 10
9.7828353983
 20
7.5059237611
 30
0.0
 10
9.7827272167
 20
7.4986591594
 30
0.0
 10
9.7827445959
 20
7.4950524283
 30
0.0
  0
LINE
  5
2D9
100
AcDbEntity
  8
0
100
AcDbLine
 62
9
  6
CONTINUOUS
 10
11.1269728534
 20
6.0356898922
 11
11.127288723
 21
6.23034005
  0
SPLINE
  5
2DA
100
AcDbEntity
  8
0
100
AcDbSpline
 62
9
  6
CONTINUOUS
 70
0
 71
3
 72
15
 73
11
 74
0
 42
0.0000001
 43
0.0000001
 44
0.0000000001
 40
0.0
 40
0.0
 40
0.0
 40
0.0
 40
0.1307635669
 40
0.257413288
 40
0.3802660783
 40
0.4999793348
 40
0.6196934896
 40
0.7425519717
 40
0.8692185359
 40
1.0
 40
1.0
 40
1.0
 40
1.0
 10
10.1152673302
 20
8.3825006199
 30
0.0
 10
10.1175902992
 20
8.3822262222
 30
0.0
 10
10.122209831
 20
8.3819933532
 30
0.0
 10
10.129003764
 20
8.3828693466
 30
0.0
 10
10.1352466761
 20
8.3852234888
 30
0.0
 10
10.1405699665
 20
8.3890873441
 30
0.0
 10
10.1444315029
 20
8.3944124264
 30
0.0
 10
10.1467832512
 20
8.4006566609
 30
0.0
 10
10.1476570226
 20
8.4074515697
 30
0.0
 10
10.1474230897
 20
8.4120716494
 30
0.0
 10
10.1471481586
 20
8.4143948776
 30
0.0
  0
LINE
  5
2DB
100
AcDbEntity
  8
0
100
AcDbLine
 62
9
  6
CONTINUOUS
 10
10.7964215995
 20
7.7336119409
 11
10.7958131355
 21
7.7346098521
  0
SPLINE
  5
2DC
100
AcDbEntity
  8
0
100
AcDbSpline
 62
9
  6
CONTINUOUS
 70
0
 71
3
 72
10
 73
6
 74
0
 42
0.0000001
 43
0.0000001
 44
0.0000000001
 40
0.0
 40
0.0
 40
0.0
 40
0.0
 40
0.2209598478
 40
0.4619860853
 40
1.0
 40
1.0
 40
1.0
 40
1.0
 10
10.7958131355
 20
7.7346098521
 30
0.0
 10
10.793756205
 20
7.7379723166
 30
0.0
 10
10.7893537207
 20
7.7449407126
 30
0.0
 10
10.7794500544
 20
7.7597796025
 30
0.0
 10
10.7713186389
 20
7.7710576667
 30
0.0
 10
10.7655495732
 20
7.7787279364
 30
0.0
  0
SPLINE
  5
2DD
100
AcDbEntity
  8
0
100
AcDbSpline
 62
9
  6
CONTINUOUS
 70
0
 71
3
 72
11
 73
7
 74
0
 42
0.0000001
 43
0.0000001
 44
0.0000000001
 40
0.0
 40
0.0
 40
0.0
 40
0.0
 40
0.2476469537
 40
0.4996991784
 40
0.7519094178
 40
1.0
 40
1.0
 40
1.0
 40
1.0
 10
10.7655484928
 20
7.7787290687
 30
0.0
 10
10.7690402511
 20
7.7844599895
 30
0.0
 10
10.777079145
 20
7.7954440095
 30
0.0
 10
10.7916591261
 20
7.809806692
 30
0.0
 10
10.8084542507
 20
7.821523079
 30
0.0
 10
10.8207343014
 20
7.8274310748
 30
0.0
 10
10.8270160678
 20
7.8298262236
 30
0.0
  0
LINE
  5
2DE
100
AcDbEntity
  8
0
100
AcDbLine
 62
9
  6
CONTINUOUS
 10
10.8245629758
 20
7.7665158017
 11
10.8232483838
 21
7.766708539
  0
SPLINE
  5
2DF
100
AcDbEntity
  8
0
100
AcDbSpline
 62
9
  6
CONTINUOUS
 70
0
 71
3
 72
12
 73
8
 74
0
 42
0.0000001
 43
0.0000001
 44
0.0000000001
 40
0.0
 40
0.0
 40
0.0
 40
0.0
 40
0.276399027
 40
0.4067209739
 40
0.5323370331
 40
0.7717733232
 40
1.0
 40
1.0
 40
1.0
 40
1.0
 10
10.8232483838
 20
7.766708539
 30
0.0
 10
10.8178664967
 20
7.7674959533
 30
0.0
 10
10.809942394
 20
7.7686243201
 30
0.0
 10
10.7996001672
 20
7.770294679
 30
0.0
 10
10.790006637
 20
7.7720274334
 30
0.0
 10
10.77859827
 20
7.7745428077
 30
0.0
 10
10.7697774158
 20
7.7772167165
 30
0.0
 10
10.7655484928
 20
7.7787290687
 30
0.0
  0
SPLINE
  5
2E0
100
AcDbEntity
  8
0
100
AcDbSpline
 62
9
  6
CONTINUOUS
 70
0
 71
3
 72
12
 73
8
 74
0
 42
0.0000001
 43
0.0000001
 44
0.0000000001
 40
0.0
 40
0.0
 40
0.0
 40
0.0
 40
0.2781391484
 40
0.4104646659
 40
0.5381743088
 40
0.7791401547
 40
1.0
 40
1.0
 40
1.0
 40
1.0
 10
11.3290862015
 20
7.7787279246
 30
0.0
 10
11.3261165855
 20
7.7747598562
 30
0.0
 10
11.3217762546
 20
7.7688720061
 30
0.0
 10
11.3162144264
 20
7.7610594904
 30
0.0
 10
11.3111303968
 20
7.7537208005
 30
0.0
 10
11.3053020615
 20
7.7449798755
 30
0.0
 10
11.3008957822
 20
7.7380278978
 30
0.0
 10
11.2988507036
 20
7.7346654231
 30
0.0
  0
LINE
  5
2E1
100
AcDbEntity
  8
0
100
AcDbLine
 62
9
  6
CONTINUOUS
 10
11.2988507036
 20
7.7346654231
 11
11.2982138623
 21
7.7336136487
  0
LINE
  5
2E2
100
AcDbEntity
  8
0
100
AcDbLine
 62
9
  6
CONTINUOUS
 10
11.270130089
 20
7.7664702404
 11
11.2704869375
 21
7.7665225519
  0
SPLINE
  5
2E3
100
AcDbEntity
  8
0
100
AcDbSpline
 62
9
  6
CONTINUOUS
 70
0
 71
3
 72
13
 73
9
 74
0
 42
0.0000001
 43
0.0000001
 44
0.0000000001
 40
0.0
 40
0.0
 40
0.0
 40
0.0
 40
0.2763095867
 40
0.4067265378
 40
0.5325346827
 40
0.6541304272
 40
0.772043055
 40
1.0
 40
1.0
 40
1.0
 40
1.0
 10
11.2704869375
 20
7.7665225519
 30
0.0
 10
11.2759504825
 20
7.7673237697
 30
0.0
 10
11.2839903718
 20
7.7685208505
 30
0.0
 10
11.2944973334
 20
7.7702160241
 30
0.0
 10
11.3019312676
 20
7.7715411025
 30
0.0
 10
11.3090853789
 20
7.7730038866
 30
0.0
 10
11.3181686686
 20
7.775192412
 30
0.0
 10
11.3247934942
 20
7.7772025565
 30
0.0
 10
11.3290862015
 20
7.7787279246
 30
0.0
  0
SPLINE
  5
2E4
100
AcDbEntity
  8
0
100
AcDbSpline
 62
9
  6
CONTINUOUS
 70
0
 71
3
 72
23
 73
19
 74
0
 42
0.0000001
 43
0.0000001
 44
0.0000000001
 40
0.0
 40
0.0
 40
0.0
 40
0.0
 40
0.1952502721
 40
0.3839671296
 40
0.5578471796
 40
0.6367388407
 40
0.7089618176
 40
0.7736544992
 40
0.8303837978
 40
0.8788363216
 40
0.918729476
 40
0.9499628644
 40
0.9624793265
 40
0.9730548024
 40
0.9818260781
 40
0.988994625
 40
0.994881385
 40
1.0
 40
1.0
 40
1.0
 40
1.0
 10
10.5647229034
 20
7.5897409513
 30
0.0
 10
10.564818025
 20
7.5931020751
 30
0.0
 10
10.5650579894
 20
7.5997105213
 30
0.0
 10
10.565580287
 20
7.6093037533
 30
0.0
 10
10.5661668468
 20
7.6168851236
 30
0.0
 10
10.5667251646
 20
7.622454273
 30
0.0
 10
10.5671619143
 20
7.6261452588
 30
0.0
 10
10.567628225
 20
7.6294476787
 30
0.0
 10
10.5681171005
 20
7.6323324275
 30
0.0
 10
10.5686215233
 20
7.6347801932
 30
0.0
 10
10.5691349838
 20
7.6367752566
 30
0.0
 10
10.5695946154
 20
7.6381432597
 30
0.0
 10
10.5699766798
 20
7.6389980796
 30
0.0
 10
10.5702413769
 20
7.6394796683
 30
0.0
 10
10.570505508
 20
7.639853769
 30
0.0
 10
10.5707704181
 20
7.6401236624
 30
0.0
 10
10.5710395065
 20
7.6402915159
 30
0.0
 10
10.5712301914
 20
7.6403318607
 30
0.0
 10
10.5713183407
 20
7.6403318604
 30
0.0
  0
SPLINE
  5
2E5
100
AcDbEntity
  8
0
100
AcDbSpline
 62
9
  6
CONTINUOUS
 70
0
 71
3
 72
19
 73
15
 74
0
 42
0.0000001
 43
0.0000001
 44
0.0000000001
 40
0.0
 40
0.0
 40
0.0
 40
0.0
 40
0.1901597597
 40
0.3675870298
 40
0.5277651042
 40
0.6674156301
 40
0.728742411
 40
0.7840564733
 40
0.8332587567
 40
0.8764264786
 40
0.9138217988
 40
0.9460431428
 40
0.9741960078
 40
1.0
 40
1.0
 40
1.0
 40
1.0
 10
9.807797609
 20
7.589740964
 30
0.0
 10
9.8080542787
 20
7.5932604994
 30
0.0
 10
9.8086950081
 20
7.6000545048
 30
0.0
 10
9.8100804614
 20
7.609754493
 30
0.0
 10
9.8118310576
 20
7.6184416394
 30
0.0
 10
9.8136219385
 20
7.6249097065
 30
0.0
 10
9.8152383541
 20
7.6293851157
 30
0.0
 10
9.8164580884
 20
7.6322132429
 30
0.0
 10
9.8177308622
 20
7.6346440308
 30
0.0
 10
9.8190492043
 20
7.6366648548
 30
0.0
 10
9.8204092716
 20
7.638265357
 30
0.0
 10
9.8218118456
 20
7.6394349472
 30
0.0
 10
9.8232561584
 20
7.6401614127
 30
0.0
 10
9.8242629104
 20
7.6403318605
 30
0.0
 10
9.8247417669
 20
7.64033186
 30
0.0
  0
SPLINE
  5
2E6
100
AcDbEntity
  8
0
100
AcDbSpline
 62
9
  6
CONTINUOUS
 70
0
 71
3
 72
15
 73
11
 74
0
 42
0.0000001
 43
0.0000001
 44
0.0000000001
 40
0.0
 40
0.0
 40
0.0
 40
0.0
 40
0.3336391254
 40
0.4884895758
 40
0.6294276647
 40
0.7525621576
 40
0.8561364199
 40
0.9389634841
 40
0.972262192
 40
1.0
 40
1.0
 40
1.0
 40
1.0
 10
10.5755044348
 20
7.5897939804
 30
0.0
 10
10.5754197653
 20
7.5867179001
 30
0.0
 10
10.5752381997
 20
7.5822152544
 30
0.0
 10
10.5748677893
 20
7.5764214764
 30
0.0
 10
10.5745479409
 20
7.5725705963
 30
0.0
 10
10.5741809756
 20
7.5691990594
 30
0.0
 10
10.5737801905
 20
7.5663719802
 30
0.0
 10
10.5734099097
 20
7.5643783514
 30
0.0
 10
10.5730943359
 20
7.5630892279
 30
0.0
 10
10.572933355
 20
7.5625493087
 30
0.0
 10
10.5728503199
 20
7.5623073254
 30
0.0
  0
SPLINE
  5
2E7
100
AcDbEntity
  8
0
100
AcDbSpline
 62
9
  6
CONTINUOUS
 70
0
 71
3
 72
15
 73
11
 74
0
 42
0.0000001
 43
0.0000001
 44
0.0000000001
 40
0.0
 40
0.0
 40
0.0
 40
0.0
 40
0.3336392796
 40
0.4884896893
 40
0.6294277097
 40
0.7525621336
 40
0.856136347
 40
0.9389634103
 40
0.9722621442
 40
1.0
 40
1.0
 40
1.0
 40
1.0
 10
10.9398561341
 20
7.9541457667
 30
0.0
 10
10.9429321983
 20
7.9542304368
 30
0.0
 10
10.9474348194
 20
7.9544120029
 30
0.0
 10
10.9532285646
 20
7.9547824133
 30
0.0
 10
10.9570794211
 20
7.955102261
 30
0.0
 10
10.960450937
 20
7.9554692252
 30
0.0
 10
10.9632779989
 20
7.9558700087
 30
0.0
 10
10.965271616
 20
7.9562402881
 30
0.0
 10
10.9665607328
 20
7.9565558604
 30
0.0
 10
10.9671006495
 20
7.9567168406
 30
0.0
 10
10.9673426319
 20
7.9567998753
 30
0.0
  0
SPLINE
  5
2E8
100
AcDbEntity
  8
0
100
AcDbSpline
 62
9
  6
CONTINUOUS
 70
0
 71
3
 72
14
 73
10
 74
0
 42
0.0000001
 43
0.0000001
 44
0.0000000001
 40
0.0
 40
0.0
 40
0.0
 40
0.0
 40
0.3219185849
 40
0.472812869
 40
0.611584216
 40
0.734820654
 40
0.841079511
 40
0.9295699433
 40
1.0
 40
1.0
 40
1.0
 40
1.0
 10
10.9399095796
 20
8.7218536714
 30
0.0
 10
10.9429740231
 20
8.7220764313
 30
0.0
 10
10.9474669946
 20
8.7225543309
 30
0.0
 10
10.9532249243
 20
8.7235213979
 30
0.0
 10
10.9570774218
 20
8.7243619282
 30
0.0
 10
10.9604591674
 20
8.7253298544
 30
0.0
 10
10.9633075404
 20
8.7263907402
 30
0.0
 10
10.9655818834
 20
8.7275095089
 30
0.0
 10
10.9668434337
 20
8.7283725008
 30
0.0
 10
10.9673427061
 20
8.7288226116
 30
0.0
  0
SPLINE
  5
2E9
100
AcDbEntity
  8
0
100
AcDbSpline
 62
9
  6
CONTINUOUS
 70
0
 71
3
 72
11
 73
7
 74
0
 42
0.0000001
 43
0.0000001
 44
0.0000000001
 40
0.0
 40
0.0
 40
0.0
 40
0.0
 40
0.2480905171
 40
0.5003007293
 40
0.7523529753
 40
1.0
 40
1.0
 40
1.0
 40
1.0
 10
11.2676201724
 20
7.8298250049
 30
0.0
 10
11.2739018553
 20
7.8274298701
 30
0.0
 10
11.2861817414
 20
7.8215219179
 30
0.0
 10
11.3029766355
 20
7.8098056366
 30
0.0
 10
11.3175564121
 20
7.7954430964
 30
0.0
 10
11.3255951888
 20
7.7844591913
 30
0.0
 10
11.3290868948
 20
7.7787283313
 30
0.0
  0
SPLINE
  5
2EA
100
AcDbEntity
  8
0
100
AcDbSpline
 62
9
  6
CONTINUOUS
 70
0
 71
3
 72
20
 73
16
 74
0
 42
0.0000001
 43
0.0000001
 44
0.0000000001
 40
0.0
 40
0.0
 40
0.0
 40
0.0
 40
0.1818576384
 40
0.3584684957
 40
0.5225910989
 40
0.5978397847
 40
0.6674494144
 40
0.7307431362
 40
0.7874465456
 40
0.8374335203
 40
0.8806855854
 40
0.9174704243
 40
0.9486839991
 40
0.9756325384
 40
1.0
 40
1.0
 40
1.0
 40
1.0
 10
10.9399094159
 20
8.7218571822
 30
0.0
 10
10.9365432261
 20
8.7216123548
 30
0.0
 10
10.9299168179
 20
8.7209934783
 30
0.0
 10
10.9203081458
 20
8.7196476751
 30
0.0
 10
10.9127305863
 20
8.7181380426
 30
0.0
 10
10.9071765271
 20
8.7167060234
 30
0.0
 10
10.9034794443
 20
8.7155806087
 30
0.0
 10
10.9001703887
 20
8.7143779293
 30
0.0
 10
10.8972767825
 20
8.7131149084
 30
0.0
 10
10.894816788
 20
8.711806867
 30
0.0
 10
10.8928035366
 20
8.7104670035
 30
0.0
 10
10.8912465028
 20
8.7090990469
 30
0.0
 10
10.890139037
 20
8.7077132038
 30
0.0
 10
10.8894719191
 20
8.7063166102
 30
0.0
 10
10.8893183733
 20
8.7053595531
 30
0.0
 10
10.8893183383
 20
8.7049073193
 30
0.0
  0
SPLINE
  5
2EB
100
AcDbEntity
  8
0
100
AcDbSpline
 62
9
  6
CONTINUOUS
 70
0
 71
3
 72
24
 73
20
 74
0
 42
0.0000001
 43
0.0000001
 44
0.0000000001
 40
0.0
 40
0.0
 40
0.0
 40
0.0
 40
0.1960523895
 40
0.3854455146
 40
0.5598343169
 40
0.6389078224
 40
0.711259034
 40
0.7760210265
 40
0.8327563268
 40
0.8811451769
 40
0.9208932823
 40
0.9374668109
 40
0.9518858765
 40
0.9642266216
 40
0.974582703
 40
0.9830796481
 40
0.9899046495
 40
0.995367816
 40
1.0
 40
1.0
 40
1.0
 40
1.0
 10
10.5755044339
 20
7.5897939802
 30
0.0
 10
10.5754980195
 20
7.5931534693
 30
0.0
 10
10.5755328758
 20
7.5997585604
 30
0.0
 10
10.5757394589
 20
7.6093499471
 30
0.0
 10
10.5760585168
 20
7.6169326911
 30
0.0
 10
10.576407169
 20
7.6225050155
 30
0.0
 10
10.5766979435
 20
7.6261983069
 30
0.0
 10
10.5770258106
 20
7.6295040759
 30
0.0
 10
10.5773850839
 20
7.6323933684
 30
0.0
 10
10.577770541
 20
7.634846168
 30
0.0
 10
10.5781260646
 20
7.6366060264
 30
0.0
 10
10.5784302638
 20
7.6377797434
 30
0.0
 10
10.5786483372
 20
7.6384898636
 30
0.0
 10
10.5788694381
 20
7.6390866796
 30
0.0
 10
10.5790930433
 20
7.6395729396
 30
0.0
 10
10.5793188348
 20
7.6399519761
 30
0.0
 10
10.5795478766
 20
7.6402273888
 30
0.0
 10
10.5797839471
 20
7.6404028381
 30
0.0
 10
10.5799567543
 20
7.6404492246
 30
0.0
 10
10.5800361002
 20
7.6404514007
 30
0.0
  0
SPLINE
  5
2EC
100
AcDbEntity
  8
0
100
AcDbSpline
 62
9
  6
CONTINUOUS
 70
0
 71
3
 72
17
 73
13
 74
0
 42
0.0000001
 43
0.0000001
 44
0.0000000001
 40
0.0
 40
0.0
 40
0.0
 40
0.0
 40
0.1169156363
 40
0.2417834389
 40
0.3066225371
 40
0.3725523141
 40
0.5058150404
 40
0.6382127892
 40
0.7031011056
 40
0.7665325375
 40
0.8876568687
 40
1.0
 40
1.0
 40
1.0
 40
1.0
 10
11.5950429092
 20
8.2683161582
 30
0.0
 10
11.6007133678
 20
8.2669062837
 30
0.0
 10
11.6122481686
 20
8.2631764783
 30
0.0
 10
11.626152336
 20
8.2566314906
 30
0.0
 10
11.6371386036
 20
8.2500944703
 30
0.0
 10
11.64803434
 20
8.2426382103
 30
0.0
 10
11.6608091974
 20
8.2320055993
 30
0.0
 10
11.6720474686
 20
8.2198288728
 30
0.0
 10
11.6799224533
 20
8.2094381821
 30
0.0
 10
11.6867873538
 20
8.1990220623
 30
0.0
 10
11.6936775384
 20
8.1858274165
 30
0.0
 10
11.6976339356
 20
8.1748031684
 30
0.0
 10
11.6991257346
 20
8.1693903995
 30
0.0
  0
SPLINE
  5
2ED
100
AcDbEntity
  8
0
100
AcDbSpline
 62
9
  6
CONTINUOUS
 70
0
 71
3
 72
26
 73
22
 74
0
 42
0.0000001
 43
0.0000001
 44
0.0000000001
 40
0.0
 40
0.0
 40
0.0
 40
0.0
 40
0.0194617046
 40
0.0393491254
 40
0.0598429911
 40
0.0810933451
 40
0.103163177
 40
0.1260763418
 40
0.1498400407
 40
0.1744541582
 40
0.2262220491
 40
0.2813368096
 40
0.3397211479
 40
0.4012965184
 40
0.4659939456
 40
0.5337448881
 40
0.6044782223
 40
0.6781128779
 40
0.7545678032
 40
0.8337659463
 40
1.0
 40
1.0
 40
1.0
 40
1.0
 10
11.2676204275
 20
7.8298257985
 30
0.0
 10
11.2686632125
 20
7.8332306448
 30
0.0
 10
11.270998713
 20
7.8400472156
 30
0.0
 10
11.275180057
 20
7.8501734642
 30
0.0
 10
11.2800673044
 20
7.8603424546
 30
0.0
 10
11.2856499049
 20
7.8706020194
 30
0.0
 10
11.2918501175
 20
7.8810172672
 30
0.0
 10
11.2985901467
 20
7.8916391501
 30
0.0
 10
11.3057844634
 20
7.902520744
 30
0.0
 10
11.3161183077
 20
7.9176534005
 30
0.0
 10
11.3300626998
 20
7.9372631914
 30
0.0
 10
11.3479851607
 20
7.9616197889
 30
0.0
 10
11.3672665077
 20
7.9872015448
 30
0.0
 10
11.3878255672
 20
8.0140141379
 30
0.0
 10
11.4096250329
 20
8.0420341386
 30
0.0
 10
11.4326390597
 20
8.071231266
 30
0.0
 10
11.4568469755
 20
8.1015686396
 30
0.0
 10
11.4822316232
 20
8.1330036242
 30
0.0
 10
11.5087794038
 20
8.1654892662
 30
0.0
 10
11.5463329829
 20
8.2108605255
 30
0.0
 10
11.5752973568
 20
8.2451804811
 30
0.0
 10
11.5950429092
 20
8.2683161582
 30
0.0
  0
SPLINE
  5
2EE
100
AcDbEntity
  8
0
100
AcDbSpline
 62
9
  6
CONTINUOUS
 70
0
 71
3
 72
27
 73
23
 74
0
 42
0.0000001
 43
0.0000001
 44
0.0000000001
 40
0.0
 40
0.0
 40
0.0
 40
0.0
 40
0.0194683165
 40
0.039352406
 40
0.0598381047
 40
0.081085155
 40
0.1031566065
 40
0.126073458
 40
0.1498391823
 40
0.1744532126
 40
0.2262191049
 40
0.2813343301
 40
0.3397188312
 40
0.4012932679
 40
0.4659897058
 40
0.5337407359
 40
0.6044749639
 40
0.6781087855
 40
0.7545628232
 40
0.8337654467
 40
0.9156199671
 40
1.0
 40
1.0
 40
1.0
 40
1.0
 10
10.827016676
 20
7.829824542
 30
0.0
 10
10.8259509645
 20
7.8332235439
 30
0.0
 10
10.8235978793
 20
7.8400335171
 30
0.0
 10
10.8194349021
 20
7.8501658635
 30
0.0
 10
10.8145739617
 20
7.8603446708
 30
0.0
 10
10.8089969303
 20
7.8706055636
 30
0.0
 10
10.8027926816
 20
7.8810188465
 30
0.0
 10
10.7960459918
 20
7.8916380503
 30
0.0
 10
10.7888499455
 20
7.9025196727
 30
0.0
 10
10.778516935
 20
7.9176528413
 30
0.0
 10
10.7645755091
 20
7.9372643477
 30
0.0
 10
10.7466503631
 20
7.96161862
 30
0.0
 10
10.727369455
 20
7.9872005471
 30
0.0
 10
10.7068115993
 20
8.0140135936
 30
0.0
 10
10.6850129157
 20
8.042033706
 30
0.0
 10
10.661998304
 20
8.0712302979
 30
0.0
 10
10.6377895898
 20
8.1015669826
 30
0.0
 10
10.6124065558
 20
8.1330029896
 30
0.0
 10
10.5858603701
 20
8.1654904851
 30
0.0
 10
10.5581466378
 20
8.1989653109
 30
0.0
 10
10.5292892032
 20
8.233374776
 30
0.0
 10
10.5096120432
 20
8.2565689328
 30
0.0
 10
10.4995937092
 20
8.2683163262
 30
0.0
  0
LINE
  5
2EF
100
AcDbEntity
  8
0
100
AcDbLine
 62
9
  6
CONTINUOUS
 10
10.8340063345
 20
7.7792380609
 11
10.8339581481
 21
7.7806802043
  0
SPLINE
  5
2F0
100
AcDbEntity
  8
0
100
AcDbSpline
 62
9
  6
CONTINUOUS
 70
0
 71
3
 72
12
 73
8
 74
0
 42
0.0000001
 43
0.0000001
 44
0.0000000001
 40
0.0
 40
0.0
 40
0.0
 40
0.0
 40
0.2634012144
 40
0.3902432907
 40
0.5147022535
 40
0.7587126517
 40
1.0
 40
1.0
 40
1.0
 40
1.0
 10
10.8339581481
 20
7.7806802043
 30
0.0
 10
10.833804753
 20
7.7850459202
 30
0.0
 10
10.8334753212
 20
7.7915122541
 30
0.0
 10
10.8327014259
 20
7.8000144028
 30
0.0
 10
10.8317036308
 20
7.8081692999
 30
0.0
 10
10.8299925549
 20
7.8181438591
 30
0.0
 10
10.8280914366
 20
7.8259720955
 30
0.0
 10
10.8270154541
 20
7.8298263843
 30
0.0
  0
SPLINE
  5
2F1
100
AcDbEntity
  8
0
100
AcDbSpline
 62
9
  6
CONTINUOUS
 70
0
 71
3
 72
24
 73
20
 74
0
 42
0.0000001
 43
0.0000001
 44
0.0000000001
 40
0.0
 40
0.0
 40
0.0
 40
0.0
 40
0.1959971425
 40
0.3853558492
 40
0.5597342852
 40
0.6388107144
 40
0.711169448
 40
0.7759428173
 40
0.8326920524
 40
0.8810959625
 40
0.9208588263
 40
0.9374391886
 40
0.9518645463
 40
0.9642109301
 40
0.9745718888
 40
0.983072851
 40
0.9899009386
 40
0.9953662788
 40
1.0
 40
1.0
 40
1.0
 40
1.0
 10
10.9398561443
 20
7.9541455219
 30
0.0
 10
10.9364976087
 20
7.9541519363
 30
0.0
 10
10.9298940674
 20
7.9541171068
 30
0.0
 10
10.9203044125
 20
7.9539106286
 30
0.0
 10
10.9127223968
 20
7.9535917002
 30
0.0
 10
10.9071500757
 20
7.9532431555
 30
0.0
 10
10.9034564122
 20
7.9529524385
 30
0.0
 10
10.9001500805
 20
7.9526246123
 30
0.0
 10
10.8972600943
 20
7.9522653597
 30
0.0
 10
10.8948065414
 20
7.9518798999
 30
0.0
 10
10.8930460503
 20
7.9515243555
 30
0.0
 10
10.891871851
 20
7.9512201225
 30
0.0
 10
10.8911614066
 20
7.9510020148
 30
0.0
 10
10.8905642999
 20
7.9507808732
 30
0.0
 10
10.8900777885
 20
7.9505572215
 30
0.0
 10
10.8896985446
 20
7.9503313783
 30
0.0
 10
10.8894229728
 20
7.9501022799
 30
0.0
 10
10.8892474119
 20
7.9498661451
 30
0.0
 10
10.8892009914
 20
7.9496932757
 30
0.0
 10
10.8891988145
 20
7.9496139036
 30
0.0
  0
LINE
  5
2F2
100
AcDbEntity
  8
0
100
AcDbLine
 62
9
  6
CONTINUOUS
 10
11.0344896786
 20
8.7469045068
 11
11.0354303834
 21
8.9822847518
  0
SPLINE
  5
2F3
100
AcDbEntity
  8
0
100
AcDbSpline
 62
9
  6
CONTINUOUS
 70
0
 71
3
 72
12
 73
8
 74
0
 42
0.0000001
 43
0.0000001
 44
0.0000000001
 40
0.0
 40
0.0
 40
0.0
 40
0.0
 40
0.2416652093
 40
0.4858916685
 40
0.6103638048
 40
0.7371325139
 40
1.0
 40
1.0
 40
1.0
 40
1.0
 10
11.2676196562
 20
7.8298254136
 30
0.0
 10
11.2665638837
 20
7.826044175
 30
0.0
 10
11.2646941857
 20
7.8183683718
 30
0.0
 10
11.2629981494
 20
7.8085917172
 30
0.0
 10
11.261999657
 20
7.8006038786
 30
0.0
 10
11.2612180562
 20
7.7922876929
 30
0.0
 10
11.2608780801
 20
7.7859644922
 30
0.0
 10
11.2607174388
 20
7.781697217
 30
0.0
  0
LINE
  5
2F4
100
AcDbEntity
  8
0
100
AcDbLine
 62
9
  6
CONTINUOUS
 10
10.2355428576
 20
8.5756695864
 11
10.8893182853
 21
8.5747450155
  0
LINE
  5
2F5
100
AcDbEntity
  8
0
100
AcDbLine
 62
9
  6
CONTINUOUS
 10
11.2053183907
 20
8.5747450826
 11
11.8590899471
 21
8.5756695796
  0
SPLINE
  5
2F6
100
AcDbEntity
  8
0
100
AcDbSpline
 62
9
  6
CONTINUOUS
 70
0
 71
3
 72
21
 73
17
 74
0
 42
0.0000001
 43
0.0000001
 44
0.0000000001
 40
0.0
 40
0.0
 40
0.0
 40
0.0
 40
0.0624271131
 40
0.1249674402
 40
0.1875153443
 40
0.2500673352
 40
0.3126135446
 40
0.3751853616
 40
0.5002036653
 40
0.5627787639
 40
0.6253519847
 40
0.6878689644
 40
0.75034099
 40
0.8128165803
 40
0.8752805834
 40
1.0
 40
1.0
 40
1.0
 40
1.0
 10
11.8590900405
 20
8.5756713701
 30
0.0
 10
11.8620520462
 20
8.5755081682
 30
0.0
 10
11.8679721019
 20
8.5749602944
 30
0.0
 10
11.8767590476
 20
8.5734199207
 30
0.0
 10
11.8853815815
 20
8.5710966778
 30
0.0
 10
11.8937364949
 20
8.5679404341
 30
0.0
 10
11.9017364639
 20
8.5639617312
 30
0.0
 10
11.9117812718
 20
8.5575759191
 30
0.0
 10
11.9207641466
 20
8.5496273765
 30
0.0
 10
11.9283100109
 20
8.5404206172
 30
0.0
 10
11.9332500831
 20
8.5329776296
 30
0.0
 10
11.9374412789
 20
8.5250967031
 30
0.0
 10
11.9408844069
 20
8.5168680387
 30
0.0
 10
11.9436044668
 20
8.5083764475
 30
0.0
 10
11.94629833
 20
8.4968130914
 30
0.0
 10
11.9473371755
 20
8.487940604
 30
0.0
 10
11.9476457805
 20
8.4820220534
 30
0.0
  0
LINE
  5
2F7
100
AcDbEntity
  8
0
100
AcDbLine
 62
9
  6
CONTINUOUS
 10
9.5473669008
 20
7.4944018728
 11
9.7827445993
 21
7.4950523659
  0
SPLINE
  5
2F8
100
AcDbEntity
  8
0
100
AcDbSpline
 62
9
  6
CONTINUOUS
 70
0
 71
3
 72
17
 73
13
 74
0
 42
0.0000001
 43
0.0000001
 44
0.0000000001
 40
0.0
 40
0.0
 40
0.0
 40
0.0
 40
0.0413325603
 40
0.0859724325
 40
0.1337504989
 40
0.1845100227
 40
0.294480672
 40
0.4152591789
 40
0.546399793
 40
0.6876954099
 40
0.8389780383
 40
1.0
 40
1.0
 40
1.0
 40
1.0
 10
11.3290868338
 20
7.7787283691
 30
0.0
 10
11.3341488872
 20
7.7841506745
 30
0.0
 10
11.3447535477
 20
7.7953585987
 30
0.0
 10
11.3613518366
 20
7.8126991364
 30
0.0
 10
11.3791272068
 20
7.8312550214
 30
0.0
 10
11.4049917841
 20
7.8582984451
 30
0.0
 10
11.4398095833
 20
7.8949075669
 30
0.0
 10
11.4844452661
 20
7.9420873353
 30
0.0
 10
11.5328454893
 20
7.9934444802
 30
0.0
 10
11.5849889074
 20
8.0487965399
 30
0.0
 10
11.640875917
 20
8.1079895838
 30
0.0
 10
11.6794338323
 20
8.1486688561
 30
0.0
 10
11.6993411052
 20
8.1696170335
 30
0.0
  0
SPLINE
  5
2F9
100
AcDbEntity
  8
0
100
AcDbSpline
 62
9
  6
CONTINUOUS
 70
0
 71
3
 72
14
 73
10
 74
0
 42
0.0000001
 43
0.0000001
 44
0.0000000001
 40
0.0
 40
0.0
 40
0.0
 40
0.0
 40
0.3219202792
 40
0.4728154718
 40
0.611587411
 40
0.7348239778
 40
0.8410824098
 40
0.9295717362
 40
1.0
 40
1.0
 40
1.0
 40
1.0
 10
11.1547273017
 20
8.7218536631
 30
0.0
 10
11.1516627869
 20
8.7220764234
 30
0.0
 10
11.1471697097
 20
8.7225543303
 30
0.0
 10
11.1414116474
 20
8.7235214225
 30
0.0
 10
11.1375590674
 20
8.7243619795
 30
0.0
 10
11.1341772629
 20
8.7253299398
 30
0.0
 10
11.1313288595
 20
8.7263908628
 30
0.0
 10
11.1290545199
 20
8.7275096695
 30
0.0
 10
11.1277929905
 20
8.7283726957
 30
0.0
 10
11.1272937417
 20
8.7288228251
 30
0.0
  0
LINE
  5
2FA
100
AcDbEntity
  8
0
100
AcDbLine
 62
9
  6
CONTINUOUS
 10
11.127288753
 20
8.7343236502
 11
11.1269726238
 21
8.9289753335
  0
LINE
  5
2FB
100
AcDbEntity
  8
0
100
AcDbLine
 62
9
  6
CONTINUOUS
 10
9.6006763775
 20
7.4026773443
 11
9.7953265297
 21
7.4023614738
  0
LINE
  5
2FC
100
AcDbEntity
  8
0
100
AcDbLine
 62
9
  6
CONTINUOUS
 10
12.5472697758
 20
7.4702618529
 11
12.3118920772
 21
7.4696113544
  0
SPLINE
  5
2FD
100
AcDbEntity
  8
0
100
AcDbSpline
 62
9
  6
CONTINUOUS
 70
0
 71
3
 72
19
 73
15
 74
0
 42
0.0000001
 43
0.0000001
 44
0.0000000001
 40
0.0
 40
0.0
 40
0.0
 40
0.0
 40
0.1901597589
 40
0.3675870284
 40
0.5277651026
 40
0.6674156284
 40
0.7287424094
 40
0.7840564719
 40
0.8332587556
 40
0.8764264778
 40
0.9138217984
 40
0.9460431426
 40
0.9741960078
 40
1.0
 40
1.0
 40
1.0
 40
1.0
 10
11.1547274417
 20
8.7218525897
 30
0.0
 10
11.1582469771
 20
8.72159592
 30
0.0
 10
11.1650409824
 20
8.7209551906
 30
0.0
 10
11.1747409706
 20
8.7195697373
 30
0.0
 10
11.183428117
 20
8.7178191411
 30
0.0
 10
11.1898961841
 20
8.7160282603
 30
0.0
 10
11.1943715933
 20
8.7144118447
 30
0.0
 10
11.1971997205
 20
8.7131921104
 30
0.0
 10
11.1996305085
 20
8.7119193366
 30
0.0
 10
11.2016513325
 20
8.7106009945
 30
0.0
 10
11.2032518347
 20
8.7092409272
 30
0.0
 10
11.204421425
 20
8.7078383532
 30
0.0
 10
11.2051478906
 20
8.7063940405
 30
0.0
 10
11.2053183384
 20
8.7053872885
 30
0.0
 10
11.2053183379
 20
8.7049084319
 30
0.0
  0
SPLINE
  5
2FE
100
AcDbEntity
  8
0
100
AcDbSpline
 62
9
  6
CONTINUOUS
 70
0
 71
3
 72
23
 73
19
 74
0
 42
0.0000001
 43
0.0000001
 44
0.0000000001
 40
0.0
 40
0.0
 40
0.0
 40
0.0
 40
0.1952502709
 40
0.3839671273
 40
0.5578471766
 40
0.6367388375
 40
0.7089618143
 40
0.773654496
 40
0.8303837948
 40
0.878836319
 40
0.9187294739
 40
0.9499628628
 40
0.9624793253
 40
0.9730548015
 40
0.9818260775
 40
0.9889946247
 40
0.9948813849
 40
1.0
 40
1.0
 40
1.0
 40
1.0
 10
11.1547274292
 20
7.9649272952
 30
0.0
 10
11.1580885529
 20
7.9648321737
 30
0.0
 10
11.1646969991
 20
7.9645922093
 30
0.0
 10
11.174290231
 20
7.9640699117
 30
0.0
 10
11.1818716013
 20
7.9634833519
 30
0.0
 10
11.1874407507
 20
7.9629250341
 30
0.0
 10
11.1911317365
 20
7.9624882844
 30
0.0
 10
11.1944341564
 20
7.9620219737
 30
0.0
 10
11.1973189051
 20
7.9615330982
 30
0.0
 10
11.1997666709
 20
7.9610286755
 30
0.0
 10
11.2017617343
 20
7.9605152149
 30
0.0
 10
11.2031297374
 20
7.9600555834
 30
0.0
 10
11.2039845574
 20
7.9596735189
 30
0.0
 10
11.2044661461
 20
7.9594088218
 30
0.0
 10
11.2048402468
 20
7.9591446908
 30
0.0
 10
11.2051101402
 20
7.9588797807
 30
0.0
 10
11.2052779937
 20
7.9586106922
 30
0.0
 10
11.2053183386
 20
7.9584200074
 30
0.0
 10
11.2053183382
 20
7.958331858
 30
0.0
  0
SPLINE
  5
2FF
100
AcDbEntity
  8
0
100
AcDbSpline
 62
9
  6
CONTINUOUS
 70
0
 71
3
 72
24
 73
20
 74
0
 42
0.0000001
 43
0.0000001
 44
0.0000000001
 40
0.0
 40
0.0
 40
0.0
 40
0.0
 40
0.1960524396
 40
0.3854455973
 40
0.5598344119
 40
0.6389079165
 40
0.7112591231
 40
0.776021107
 40
0.8327563962
 40
0.8811452337
 40
0.9208933261
 40
0.9374668483
 40
0.9518859079
 40
0.9642266472
 40
0.974582723
 40
0.9830796629
 40
0.9899046594
 40
0.9953678209
 40
1.0
 40
1.0
 40
1.0
 40
1.0
 10
11.154780458
 20
7.9541457625
 30
0.0
 10
11.1581399479
 20
7.9541521769
 30
0.0
 10
11.1647450404
 20
7.9541173208
 30
0.0
 10
11.1743364287
 20
7.953910738
 30
0.0
 10
11.1819191734
 20
7.9535916804
 30
0.0
 10
11.1874914979
 20
7.9532430284
 30
0.0
 10
11.1911847891
 20
7.9529522542
 30
0.0
 10
11.1944905577
 20
7.9526243874
 30
0.0
 10
11.1973798497
 20
7.9522651144
 30
0.0
 10
11.1998326486
 20
7.9518796577
 30
0.0
 10
11.2015925065
 20
7.9515241344
 30
0.0
 10
11.2027662232
 20
7.9512199356
 30
0.0
 10
11.2034763431
 20
7.9510018623
 30
0.0
 10
11.2040731588
 20
7.9507807617
 30
0.0
 10
11.2045594186
 20
7.9505571568
 30
0.0
 10
11.204938455
 20
7.9503313655
 30
0.0
 10
11.2052138675
 20
7.9501023239
 30
0.0
 10
11.2053893168
 20
7.9498662536
 30
0.0
 10
11.2054357033
 20
7.9496934467
 30
0.0
 10
11.2054378793
 20
7.9496141009
 30
0.0
  0
SPLINE
  5
300
100
AcDbEntity
  8
0
100
AcDbSpline
 62
9
  6
CONTINUOUS
 70
0
 71
3
 72
24
 73
20
 74
0
 42
0.0000001
 43
0.0000001
 44
0.0000000001
 40
0.0
 40
0.0
 40
0.0
 40
0.0
 40
0.1959970512
 40
0.3853557147
 40
0.5597341479
 40
0.6388105862
 40
0.7111693332
 40
0.7759427183
 40
0.8326919701
 40
0.8810958965
 40
0.9208587751
 40
0.937439144
 40
0.9518645077
 40
0.9642108972
 40
0.9745718615
 40
0.9830728293
 40
0.989900923
 40
0.9953662703
 40
1.0
 40
1.0
 40
1.0
 40
1.0
 10
11.519132242
 20
7.5897939795
 30
0.0
 10
11.5191386544
 20
7.5931525185
 30
0.0
 10
11.5191038209
 20
7.5997560672
 30
0.0
 10
11.5188973364
 20
7.6093457339
 30
0.0
 10
11.5185784024
 20
7.6169277599
 30
0.0
 10
11.5182298531
 20
7.6225000894
 30
0.0
 10
11.5179391328
 20
7.6261937588
 30
0.0
 10
11.5176113035
 20
7.6295000959
 30
0.0
 10
11.5172520477
 20
7.6323900868
 30
0.0
 10
11.5168665851
 20
7.6348436438
 30
0.0
 10
11.5165110383
 20
7.6366041378
 30
0.0
 10
11.5162068035
 20
7.637778339
 30
0.0
 10
11.5159886946
 20
7.6384887845
 30
0.0
 10
11.5157675518
 20
7.6390858921
 30
0.0
 10
11.515543899
 20
7.6395724042
 30
0.0
 10
11.5153180547
 20
7.6399516486
 30
0.0
 10
11.5150889553
 20
7.6402272206
 30
0.0
 10
11.5148528195
 20
7.6404027816
 30
0.0
 10
11.5146799496
 20
7.640449202
 30
0.0
 10
11.5146005772
 20
7.6404513788
 30
0.0
  0
SPLINE
  5
301
100
AcDbEntity
  8
0
100
AcDbSpline
 62
9
  6
CONTINUOUS
 70
0
 71
3
 72
23
 73
19
 74
0
 42
0.0000001
 43
0.0000001
 44
0.0000000001
 40
0.0
 40
0.0
 40
0.0
 40
0.0
 40
0.1952502393
 40
0.3839670683
 40
0.5578470987
 40
0.6367387547
 40
0.7089617303
 40
0.7736544144
 40
0.8303837191
 40
0.8788362526
 40
0.9187294205
 40
0.9499628249
 40
0.9624792955
 40
0.97305478
 40
0.9818260639
 40
0.9889946181
 40
0.9948813834
 40
1.0
 40
1.0
 40
1.0
 40
1.0
 10
11.5299137726
 20
7.589740951
 30
0.0
 10
11.5298186511
 20
7.5931020741
 30
0.0
 10
11.5295786868
 20
7.5997105191
 30
0.0
 10
11.5290563893
 20
7.6093037494
 30
0.0
 10
11.5284698298
 20
7.6168851186
 30
0.0
 10
11.5279115122
 20
7.6224542674
 30
0.0
 10
11.5274747626
 20
7.6261452531
 30
0.0
 10
11.5270084521
 20
7.629447673
 30
0.0
 10
11.5265195768
 20
7.632332422
 30
0.0
 10
11.5260151542
 20
7.6347801883
 30
0.0
 10
11.5255016938
 20
7.6367752523
 30
0.0
 10
11.5250420624
 20
7.6381432561
 30
0.0
 10
11.5246599981
 20
7.6389980767
 30
0.0
 10
11.524395301
 20
7.6394796659
 30
0.0
 10
11.5241311701
 20
7.6398537671
 30
0.0
 10
11.52386626
 20
7.6401236611
 30
0.0
 10
11.5235971717
 20
7.6402915152
 30
0.0
 10
11.5234064869
 20
7.6403318605
 30
0.0
 10
11.5233183375
 20
7.6403318604
 30
0.0
  0
SPLINE
  5
302
100
AcDbEntity
  8
0
100
AcDbSpline
 62
9
  6
CONTINUOUS
 70
0
 71
3
 72
23
 73
19
 74
0
 42
0.0000001
 43
0.0000001
 44
0.0000000001
 40
0.0
 40
0.0
 40
0.0
 40
0.0
 40
0.1952502378
 40
0.3839670658
 40
0.5578470958
 40
0.6367387519
 40
0.7089617277
 40
0.7736544121
 40
0.8303837172
 40
0.8788362512
 40
0.9187294194
 40
0.9499628242
 40
0.962479295
 40
0.9730547796
 40
0.9818260637
 40
0.988994618
 40
0.9948813834
 40
1.0
 40
1.0
 40
1.0
 40
1.0
 10
10.9399092477
 20
7.9649272947
 30
0.0
 10
10.9365481246
 20
7.9648321732
 30
0.0
 10
10.9299396797
 20
7.9645922089
 30
0.0
 10
10.9203464494
 20
7.9640699115
 30
0.0
 10
10.9127650803
 20
7.9634833519
 30
0.0
 10
10.9071959314
 20
7.9629250344
 30
0.0
 10
10.9035049457
 20
7.9624882848
 30
0.0
 10
10.9002025258
 20
7.9620219743
 30
0.0
 10
10.8973177768
 20
7.9615330989
 30
0.0
 10
10.8948700105
 20
7.9610286764
 30
0.0
 10
10.8928749464
 20
7.9605152159
 30
0.0
 10
10.8915069427
 20
7.9600555845
 30
0.0
 10
10.890652122
 20
7.9596735202
 30
0.0
 10
10.8901705328
 20
7.9594088232
 30
0.0
 10
10.8897964316
 20
7.9591446922
 30
0.0
 10
10.8895265376
 20
7.9588797822
 30
0.0
 10
10.8893586835
 20
7.9586106938
 30
0.0
 10
10.8893183382
 20
7.958420009
 30
0.0
 10
10.8893183383
 20
7.9583318596
 30
0.0
  0
LINE
  5
303
100
AcDbEntity
  8
0
100
AcDbLine
 62
9
  6
CONTINUOUS
 10
12.4939602991
 20
7.5619863765
 11
12.2993101469
 21
7.562302247
  0
SPLINE
  5
304
100
AcDbEntity
  8
0
100
AcDbSpline
 62
9
  6
CONTINUOUS
 70
0
 71
3
 72
17
 73
13
 74
0
 42
0.0000001
 43
0.0000001
 44
0.0000000001
 40
0.0
 40
0.0
 40
0.0
 40
0.0
 40
0.1610067443
 40
0.3122768381
 40
0.4535651434
 40
0.5847036715
 40
0.7054842068
 40
0.8154610348
 40
0.8662254501
 40
0.9140101629
 40
0.9586586603
 40
1.0
 40
1.0
 40
1.0
 40
1.0
 10
11.7342284168
 20
8.133998155
 30
0.0
 10
11.7133020484
 20
8.1141125017
 30
0.0
 10
11.6726652705
 20
8.0755958558
 30
0.0
 10
11.6135339838
 20
8.0197673799
 30
0.0
 10
11.5582382986
 20
7.9676772052
 30
0.0
 10
11.5069318784
 20
7.9193246866
 30
0.0
 10
11.4597970206
 20
7.8747314163
 30
0.0
 10
11.4232216376
 20
7.8399456989
 30
0.0
 10
11.3962020535
 20
7.8141040076
 30
0.0
 10
11.3776617328
 20
7.7963431201
 30
0.0
 10
11.360335665
 20
7.7797570836
 30
0.0
 10
11.3491361902
 20
7.769160673
 30
0.0
 10
11.3437174409
 20
7.7641030262
 30
0.0
  0
SPLINE
  5
305
100
AcDbEntity
  8
0
100
AcDbSpline
 62
9
  6
CONTINUOUS
 70
0
 71
3
 72
15
 73
11
 74
0
 42
0.0000001
 43
0.0000001
 44
0.0000000001
 40
0.0
 40
0.0
 40
0.0
 40
0.0
 40
0.1307635662
 40
0.2574132868
 40
0.3802660769
 40
0.4999793336
 40
0.619693489
 40
0.7425519715
 40
0.869218536
 40
1.0
 40
1.0
 40
1.0
 40
1.0
 10
11.9474870975
 20
8.4143828658
 30
0.0
 10
11.9472126999
 20
8.412059897
 30
0.0
 10
11.9469798311
 20
8.4074403656
 30
0.0
 10
11.9478558249
 20
8.4006464332
 30
0.0
 10
11.9502099672
 20
8.3944035216
 30
0.0
 10
11.9540738224
 20
8.3890802318
 30
0.0
 10
11.9593989044
 20
8.3852186958
 30
0.0
 10
11.9656431384
 20
8.3828669476
 30
0.0
 10
11.9724380467
 20
8.3819931761
 30
0.0
 10
11.977058126
 20
8.3822271089
 30
0.0
 10
11.9793813541
 20
8.3825020399
 30
0.0
  0
LINE
  5
306
100
AcDbEntity
  8
0
100
AcDbLine
 62
9
  6
CONTINUOUS
 10
11.0352483279
 20
5.9823804229
 11
11.0345978323
 21
6.2177581214
  0
LINE
  5
307
100
AcDbEntity
  8
0
100
AcDbLine
 62
9
  6
CONTINUOUS
 10
11.2985984189
 20
7.7332285993
 11
11.2996166022
 21
7.7338494652
  0
SPLINE
  5
308
100
AcDbEntity
  8
0
100
AcDbSpline
 62
9
  6
CONTINUOUS
 70
0
 71
3
 72
10
 73
6
 74
0
 42
0.0000001
 43
0.0000001
 44
0.0000000001
 40
0.0
 40
0.0
 40
0.0
 40
0.0
 40
0.2209795476
 40
0.4620115414
 40
1.0
 40
1.0
 40
1.0
 40
1.0
 10
11.2996166022
 20
7.7338494652
 30
0.0
 10
11.302977746
 20
7.7359058587
 30
0.0
 10
11.3099432089
 20
7.7403069493
 30
0.0
 10
11.324775173
 20
7.750206656
 30
0.0
 10
11.3360478398
 20
7.7583343408
 30
0.0
 10
11.3437143264
 20
7.7641005594
 30
0.0
  0
SPLINE
  5
309
100
AcDbEntity
  8
0
100
AcDbSpline
 62
9
  6
CONTINUOUS
 70
0
 71
3
 72
17
 73
13
 74
0
 42
0.0000001
 43
0.0000001
 44
0.0000000001
 40
0.0
 40
0.0
 40
0.0
 40
0.0
 40
0.1123431847
 40
0.2334675807
 40
0.2968990448
 40
0.3617873906
 40
0.4941851824
 40
0.6274479186
 40
0.6933776851
 40
0.7582167615
 40
0.8830844854
 40
1.0
 40
1.0
 40
1.0
 40
1.0
 10
11.699125595
 20
6.7952734436
 30
0.0
 10
11.6976338007
 20
6.7898606733
 30
0.0
 10
11.6936774154
 20
6.7788364207
 30
0.0
 10
11.6867872501
 20
6.7656417644
 30
0.0
 10
11.6799223673
 20
6.7552256323
 30
0.0
 10
11.6720474027
 20
6.7448349275
 30
0.0
 10
11.6608091597
 20
6.73265818
 30
0.0
 10
11.6480343313
 20
6.7220255431
 30
0.0
 10
11.6371386187
 20
6.7145692613
 30
0.0
 10
11.6261523768
 20
6.7080322202
 30
0.0
 10
11.6122482418
 20
6.7014872065
 30
0.0
 10
11.6007134646
 20
6.6977573789
 30
0.0
 10
11.5950430176
 20
6.6963474939
 30
0.0
  0
SPLINE
  5
30A
100
AcDbEntity
  8
0
100
AcDbSpline
 62
9
  6
CONTINUOUS
 70
0
 71
3
 72
11
 73
7
 74
0
 42
0.0000001
 43
0.0000001
 44
0.0000000001
 40
0.0
 40
0.0
 40
0.0
 40
0.0
 40
0.247646953
 40
0.4996991803
 40
0.7519094212
 40
1.0
 40
1.0
 40
1.0
 40
1.0
 10
11.3437154587
 20
7.7641016399
 30
0.0
 10
11.3494463813
 20
7.7606098774
 30
0.0
 10
11.3604304038
 20
7.752570974
 30
0.0
 10
11.3747930866
 20
7.7379909771
 30
0.0
 10
11.3865094693
 20
7.7211958357
 30
0.0
 10
11.3924174594
 20
7.7089157738
 30
0.0
 10
11.3948126045
 20
7.7026340022
 30
0.0
  0
LINE
  5
30B
100
AcDbEntity
  8
0
100
AcDbLine
 62
9
  6
CONTINUOUS
 10
11.3315022642
 20
7.7050872274
 11
11.3316911291
 21
7.7063753691
  0
SPLINE
  5
30C
100
AcDbEntity
  8
0
100
AcDbSpline
 62
9
  6
CONTINUOUS
 70
0
 71
3
 72
12
 73
8
 74
0
 42
0.0000001
 43
0.0000001
 44
0.0000000001
 40
0.0
 40
0.0
 40
0.0
 40
0.0
 40
0.2764126225
 40
0.406737808
 40
0.532354393
 40
0.7717850157
 40
1.0
 40
1.0
 40
1.0
 40
1.0
 10
11.3316911291
 20
7.7063753691
 30
0.0
 10
11.3324789869
 20
7.7117599428
 30
0.0
 10
11.3336077742
 20
7.7196879681
 30
0.0
 10
11.33527857
 20
7.7300352595
 30
0.0
 10
11.3370117065
 20
7.7396331533
 30
0.0
 10
11.339527656
 20
7.7510464547
 30
0.0
 10
11.3422025026
 20
7.7598710247
 30
0.0
 10
11.3437154587
 20
7.7641016399
 30
0.0
  0
SPLINE
  5
30D
100
AcDbEntity
  8
0
100
AcDbSpline
 62
9
  6
CONTINUOUS
 70
0
 71
3
 72
17
 73
13
 74
0
 42
0.0000001
 43
0.0000001
 44
0.0000000001
 40
0.0
 40
0.0
 40
0.0
 40
0.0
 40
0.1123431848
 40
0.2334675808
 40
0.2968990448
 40
0.3617873906
 40
0.4941851824
 40
0.6274479185
 40
0.693377685
 40
0.7582167614
 40
0.8830844853
 40
1.0
 40
1.0
 40
1.0
 40
1.0
 10
11.7343767543
 20
8.1341391162
 30
0.0
 10
11.7397895246
 20
8.132647322
 30
0.0
 10
11.7508137772
 20
8.1286909367
 30
0.0
 10
11.7640084335
 20
8.1218007714
 30
0.0
 10
11.7744245656
 20
8.1149358887
 30
0.0
 10
11.7848152704
 20
8.1070609241
 30
0.0
 10
11.7969920179
 20
8.0958226812
 30
0.0
 10
11.8076246548
 20
8.0830478528
 30
0.0
 10
11.8150809367
 20
8.0721521403
 30
0.0
 10
11.8216179778
 20
8.0611658985
 30
0.0
 10
11.8281629916
 20
8.0472617635
 30
0.0
 10
11.8318928192
 20
8.0357269863
 30
0.0
 10
11.8333027042
 20
8.0300565393
 30
0.0
  0
SPLINE
  5
30E
100
AcDbEntity
  8
0
100
AcDbSpline
 62
9
  6
CONTINUOUS
 70
0
 71
3
 72
21
 73
17
 74
0
 42
0.0000001
 43
0.0000001
 44
0.0000000001
 40
0.0
 40
0.0
 40
0.0
 40
0.0
 40
0.0623461893
 40
0.1247590128
 40
0.1872573576
 40
0.249785231
 40
0.3122756049
 40
0.3747794594
 40
0.4373478963
 40
0.4999314246
 40
0.6249349885
 40
0.68748918
 40
0.7500332627
 40
0.8125949612
 40
0.8751480668
 40
1.0
 40
1.0
 40
1.0
 40
1.0
 10
12.0470085427
 20
8.3826593231
 30
0.0
 10
12.0499691156
 20
8.3825482804
 30
0.0
 10
12.0558868698
 20
8.382079551
 30
0.0
 10
12.0646816668
 20
8.3806715071
 30
0.0
 10
12.0733530326
 20
8.3786001596
 30
0.0
 10
12.0818476675
 20
8.3758787914
 30
0.0
 10
12.0900856317
 20
8.3724506065
 30
0.0
 10
12.097971722
 20
8.3682680262
 30
0.0
 10
12.1054097933
 20
8.3633205351
 30
0.0
 10
12.1146080426
 20
8.3557660528
 30
0.0
 10
12.1225650854
 20
8.3467936028
 30
0.0
 10
12.1289535927
 20
8.336751688
 30
0.0
 10
12.1329283589
 20
8.3287504077
 30
0.0
 10
12.1360817761
 20
8.3203931184
 30
0.0
 10
12.1391802019
 20
8.3089117384
 30
0.0
 10
12.1403377715
 20
8.3000278447
 30
0.0
 10
12.140657834
 20
8.294103593
 30
0.0
  0
SPLINE
  5
30F
100
AcDbEntity
  8
0
100
AcDbSpline
 62
9
  6
CONTINUOUS
 70
0
 71
3
 72
27
 73
23
 74
0
 42
0.0000001
 43
0.0000001
 44
0.0000000001
 40
0.0
 40
0.0
 40
0.0
 40
0.0
 40
0.019468314
 40
0.039352406
 40
0.0598380905
 40
0.0810851249
 40
0.1031565751
 40
0.1260734346
 40
0.1498391681
 40
0.1744532027
 40
0.2262190905
 40
0.2813343101
 40
0.3397188115
 40
0.4012932488
 40
0.46598968
 40
0.5337407077
 40
0.604474945
 40
0.6781087706
 40
0.7545628049
 40
0.8337654332
 40
0.9156199634
 40
1.0
 40
1.0
 40
1.0
 40
1.0
 10
11.3948109228
 20
7.702633394
 30
0.0
 10
11.3982099096
 20
7.7036991551
 30
0.0
 10
11.4050198627
 20
7.7060522989
 30
0.0
 10
11.4151522063
 20
7.7102152796
 30
0.0
 10
11.4253310348
 20
7.715076169
 30
0.0
 10
11.4355919469
 20
7.7206531602
 30
0.0
 10
11.4460052383
 20
7.7268573977
 30
0.0
 10
11.4566244378
 20
7.733604106
 30
0.0
 10
11.4675060469
 20
7.7408001851
 30
0.0
 10
11.4826392186
 20
7.7511332017
 30
0.0
 10
11.5022507363
 20
7.7650746201
 30
0.0
 10
11.5266050147
 20
7.7829997674
 30
0.0
 10
11.5521869455
 20
7.8022806824
 30
0.0
 10
11.5789999952
 20
7.8228385457
 30
0.0
 10
11.6070201191
 20
7.8446372262
 30
0.0
 10
11.6362167209
 20
7.86765184
 30
0.0
 10
11.666553405
 20
7.8918605736
 30
0.0
 10
11.6979894197
 20
7.9172436166
 30
0.0
 10
11.7304769315
 20
7.9437898002
 30
0.0
 10
11.763951767
 20
7.9715035407
 30
0.0
 10
11.7983612396
 20
8.0003609886
 30
0.0
 10
11.8215554046
 20
8.0200381543
 30
0.0
 10
11.8333028033
 20
8.030056489
 30
0.0
  0
LINE
  5
310
100
AcDbEntity
  8
0
100
AcDbLine
 62
9
  6
CONTINUOUS
 10
11.3442246656
 20
7.6956437639
 11
11.3456574219
 21
7.6956916141
  0
SPLINE
  5
311
100
AcDbEntity
  8
0
100
AcDbSpline
 62
9
  6
CONTINUOUS
 70
0
 71
3
 72
12
 73
8
 74
0
 42
0.0000001
 43
0.0000001
 44
0.0000000001
 40
0.0
 40
0.0
 40
0.0
 40
0.0
 40
0.2634065426
 40
0.3902492904
 40
0.5147080065
 40
0.7587160913
 40
1.0
 40
1.0
 40
1.0
 40
1.0
 10
11.3456574219
 20
7.6956916141
 30
0.0
 10
11.350024035
 20
7.695844922
 30
0.0
 10
11.3564916694
 20
7.6961742333
 30
0.0
 10
11.3649955022
 20
7.6969480402
 30
0.0
 10
11.3731518959
 20
7.6979458171
 30
0.0
 10
11.3831282256
 20
7.6996570308
 30
0.0
 10
11.3909578222
 20
7.7015584456
 30
0.0
 10
11.3948127647
 20
7.7026346175
 30
0.0
  0
SPLINE
  5
312
100
AcDbEntity
  8
0
100
AcDbSpline
 62
9
  6
CONTINUOUS
 70
0
 71
3
 72
12
 73
8
 74
0
 42
0.0000001
 43
0.0000001
 44
0.0000000001
 40
0.0
 40
0.0
 40
0.0
 40
0.0
 40
0.2781565421
 40
0.4104867603
 40
0.5381982468
 40
0.7791583892
 40
1.0
 40
1.0
 40
1.0
 40
1.0
 10
11.3437143145
 20
7.2005640635
 30
0.0
 10
11.3397443322
 20
7.2035351108
 30
0.0
 10
11.3338536794
 20
7.2078774777
 30
0.0
 10
11.3260374542
 20
7.2134417707
 30
0.0
 10
11.3186955573
 20
7.2185277764
 30
0.0
 10
11.3099511376
 20
7.2243581081
 30
0.0
 10
11.3029963929
 20
7.2287656824
 30
0.0
 10
11.2996326386
 20
7.2308112096
 30
0.0
  0
LINE
  5
313
100
AcDbEntity
  8
0
100
AcDbLine
 62
9
  6
CONTINUOUS
 10
11.2996326386
 20
7.2308112096
 11
11.2986001267
 21
7.2314363363
  0
LINE
  5
314
100
AcDbEntity
  8
0
100
AcDbLine
 62
9
  6
CONTINUOUS
 10
11.3314567068
 20
7.2595200923
 11
11.3315020056
 21
7.2592110627
  0
SPLINE
  5
315
100
AcDbEntity
  8
0
100
AcDbSpline
 62
9
  6
CONTINUOUS
 70
0
 71
3
 72
13
 73
9
 74
0
 42
0.0000001
 43
0.0000001
 44
0.0000000001
 40
0.0
 40
0.0
 40
0.0
 40
0.0
 40
0.276334924
 40
0.406756598
 40
0.5325654004
 40
0.6541580876
 40
0.7720640986
 40
1.0
 40
1.0
 40
1.0
 40
1.0
 10
11.3315020056
 20
7.2592110627
 30
0.0
 10
11.3323038517
 20
7.2537426083
 30
0.0
 10
11.3335017931
 20
7.2456956295
 30
0.0
 10
11.3351979301
 20
7.2351795302
 30
0.0
 10
11.3365235772
 20
7.2277394815
 30
0.0
 10
11.337986946
 20
7.2205796782
 30
0.0
 10
11.3401764668
 20
7.2114895295
 30
0.0
 10
11.3421878477
 20
7.2048598227
 30
0.0
 10
11.3437143145
 20
7.2005640635
 30
0.0
  0
SPLINE
  5
316
100
AcDbEntity
  8
0
100
AcDbSpline
 62
9
  6
CONTINUOUS
 70
0
 71
3
 72
21
 73
17
 74
0
 42
0.0000001
 43
0.0000001
 44
0.0000000001
 40
0.0
 40
0.0
 40
0.0
 40
0.0
 40
0.0623461886
 40
0.1247590113
 40
0.187257356
 40
0.2497852299
 40
0.3122756041
 40
0.374779458
 40
0.4373478948
 40
0.4999314235
 40
0.624934988
 40
0.6874891797
 40
0.750033262
 40
0.8125949606
 40
0.8751480669
 40
1.0
 40
1.0
 40
1.0
 40
1.0
 10
11.9476457969
 20
6.482641661
 30
0.0
 10
11.9475347547
 20
6.4796810912
 30
0.0
 10
11.9470660265
 20
6.4737633433
 30
0.0
 10
11.9456579854
 20
6.4649685555
 30
0.0
 10
11.9435866424
 20
6.4562971984
 30
0.0
 10
11.940865281
 20
6.4478025712
 30
0.0
 10
11.9374371049
 20
6.4395646136
 30
0.0
 10
11.933254535
 20
6.4316785286
 30
0.0
 10
11.9283070551
 20
6.4242404612
 30
0.0
 10
11.9207525892
 20
6.4150422148
 30
0.0
 10
11.9117801571
 20
6.4070851711
 30
0.0
 10
11.9017382606
 20
6.4006966585
 30
0.0
 10
11.8937369937
 20
6.3967218866
 30
0.0
 10
11.8853797173
 20
6.393568462
 30
0.0
 10
11.8738983537
 20
6.3904700238
 30
0.0
 10
11.86501447
 20
6.3893124462
 30
0.0
 10
11.8590902247
 20
6.388992382
 30
0.0
  0
LINE
  5
317
100
AcDbEntity
  8
0
100
AcDbLine
 62
9
  6
CONTINUOUS
 10
12.3118909847
 20
7.4951605169
 11
12.5472712299
 21
7.494219792
  0
SPLINE
  5
318
100
AcDbEntity
  8
0
100
AcDbSpline
 62
9
  6
CONTINUOUS
 70
0
 71
3
 72
11
 73
7
 74
0
 42
0.0000001
 43
0.0000001
 44
0.0000000001
 40
0.0
 40
0.0
 40
0.0
 40
0.0
 40
0.2480905137
 40
0.5003007275
 40
0.7523529759
 40
1.0
 40
1.0
 40
1.0
 40
1.0
 10
11.3948113858
 20
7.262030155
 30
0.0
 10
11.3924162547
 20
7.2557484669
 30
0.0
 10
11.3865083081
 20
7.2434685697
 30
0.0
 10
11.3747920311
 20
7.2266736586
 30
0.0
 10
11.3604294907
 20
7.2120938662
 30
0.0
 10
11.349445583
 20
7.2040550801
 30
0.0
 10
11.3437147212
 20
7.2005633698
 30
0.0
  0
SPLINE
  5
319
100
AcDbEntity
  8
0
100
AcDbSpline
 62
9
  6
CONTINUOUS
 70
0
 71
3
 72
17
 73
13
 74
0
 42
0.0000001
 43
0.0000001
 44
0.0000000001
 40
0.0
 40
0.0
 40
0.0
 40
0.0
 40
0.1169156366
 40
0.2417834394
 40
0.3066225377
 40
0.3725523148
 40
0.5058150411
 40
0.6382127899
 40
0.7031011062
 40
0.766532538
 40
0.887656869
 40
1.0
 40
1.0
 40
1.0
 40
1.0
 10
11.8333026347
 20
6.9346072901
 30
0.0
 10
11.8318927602
 20
6.9289368315
 30
0.0
 10
11.8281629549
 20
6.9174020306
 30
0.0
 10
11.8216179673
 20
6.9034978631
 30
0.0
 10
11.815080947
 20
6.8925115955
 30
0.0
 10
11.8076246871
 20
6.8816158591
 30
0.0
 10
11.7969920762
 20
6.8688410017
 30
0.0
 10
11.7848153497
 20
6.8576027305
 30
0.0
 10
11.7744246591
 20
6.8497277457
 30
0.0
 10
11.7640085394
 20
6.8428628452
 30
0.0
 10
11.7508138936
 20
6.8359726606
 30
0.0
 10
11.7397896455
 20
6.8320162634
 30
0.0
 10
11.7343768766
 20
6.8305244645
 30
0.0
  0
SPLINE
  5
31A
100
AcDbEntity
  8
0
100
AcDbSpline
 62
9
  6
CONTINUOUS
 70
0
 71
3
 72
18
 73
14
 74
0
 42
0.0000001
 43
0.0000001
 44
0.0000000001
 40
0.0
 40
0.0
 40
0.0
 40
0.0
 40
0.0298039279
 40
0.0646554488
 40
0.104853056
 40
0.1506213961
 40
0.2020567692
 40
0.2588783101
 40
0.3870427697
 40
0.5312958379
 40
0.6857232783
 40
0.8439371624
 40
1.0
 40
1.0
 40
1.0
 40
1.0
 10
12.299310214
 20
7.4023615284
 30
0.0
 10
12.299771491
 20
7.4028730636
 30
0.0
 10
12.30068497
 20
7.4040618886
 30
0.0
 10
12.3019426812
 20
7.4061370163
 30
0.0
 10
12.3031782588
 20
7.4086443204
 30
0.0
 10
12.3043768021
 20
7.411587268
 30
0.0
 10
12.3055220348
 20
7.4149595285
 30
0.0
 10
12.3070275123
 20
7.4202136802
 30
0.0
 10
12.3086580529
 20
7.4276540241
 30
0.0
 10
12.3101460591
 20
7.4374108305
 30
0.0
 10
12.3112076035
 20
7.4479208263
 30
0.0
 10
12.3118012782
 20
7.4587399593
 30
0.0
 10
12.3119094598
 20
7.4660045612
 30
0.0
 10
12.3118920806
 20
7.4696112925
 30
0.0
  0
SPLINE
  5
31B
100
AcDbEntity
  8
0
100
AcDbSpline
 62
9
  6
CONTINUOUS
 70
0
 71
3
 72
26
 73
22
 74
0
 42
0.0000001
 43
0.0000001
 44
0.0000000001
 40
0.0
 40
0.0
 40
0.0
 40
0.0
 40
0.0194616956
 40
0.0393491126
 40
0.0598429997
 40
0.0810933763
 40
0.1031632117
 40
0.1260763688
 40
0.1498400585
 40
0.1744541706
 40
0.2262220605
 40
0.2813368179
 40
0.3397211484
 40
0.4012965169
 40
0.4659939373
 40
0.5337448737
 40
0.604478205
 40
0.678112856
 40
0.7545677825
 40
0.8337659393
 40
1.0
 40
1.0
 40
1.0
 40
1.0
 10
11.3948121734
 20
7.2620299021
 30
0.0
 10
11.3982170391
 20
7.2609871823
 30
0.0
 10
11.4050336346
 20
7.2586517454
 30
0.0
 10
11.4151598782
 20
7.2544703721
 30
0.0
 10
11.4253288388
 20
7.2495830374
 30
0.0
 10
11.4355883844
 20
7.2440003775
 30
0.0
 10
11.4460036265
 20
7.2378001424
 30
0.0
 10
11.4566255155
 20
7.2310601207
 30
0.0
 10
11.4675071235
 20
7.2238658254
 30
0.0
 10
11.4826397819
 20
7.2135319789
 30
0.0
 10
11.502249574
 20
7.199587579
 30
0.0
 10
11.5266061711
 20
7.1816651057
 30
0.0
 10
11.5521879379
 20
7.1623837608
 30
0.0
 10
11.5790005313
 20
7.14182469
 30
0.0
 10
11.6070205423
 20
7.1200252244
 30
0.0
 10
11.6362176774
 20
7.0970111939
 30
0.0
 10
11.666555057
 20
7.0728032707
 30
0.0
 10
11.6979900522
 20
7.0474186184
 30
0.0
 10
11.7304757076
 20
7.0208708311
 30
0.0
 10
11.7758469757
 20
6.9833172285
 30
0.0
 10
11.8101669453
 20
6.9543528443
 30
0.0
 10
11.8333026347
 20
6.9346072901
 30
0.0
  0
SPLINE
  5
31C
100
AcDbEntity
  8
0
100
AcDbSpline
 62
9
  6
CONTINUOUS
 70
0
 71
3
 72
12
 73
8
 74
0
 42
0.0000001
 43
0.0000001
 44
0.0000000001
 40
0.0
 40
0.0
 40
0.0
 40
0.0
 40
0.2416234737
 40
0.485822942
 40
0.6102928949
 40
0.7370703605
 40
1.0
 40
1.0
 40
1.0
 40
1.0
 10
11.3948117939
 20
7.2620306694
 30
0.0
 10
11.391022312
 20
7.2630887503
 30
0.0
 10
11.3833293666
 20
7.2649620372
 30
0.0
 10
11.3735304417
 20
7.2666597454
 30
0.0
 10
11.3655238218
 20
7.2676580859
 30
0.0
 10
11.3571866708
 20
7.2684386951
 30
0.0
 10
11.3508473256
 20
7.2687773863
 30
0.0
 10
11.3465689479
 20
7.2689371783
 30
0.0
  0
SPLINE
  5
31D
100
AcDbEntity
  8
0
100
AcDbSpline
 62
9
  6
CONTINUOUS
 70
0
 71
3
 72
15
 73
11
 74
0
 42
0.0000001
 43
0.0000001
 44
0.0000000001
 40
0.0
 40
0.0
 40
0.0
 40
0.0
 40
0.13352338
 40
0.1994579268
 40
0.2648101998
 40
0.3937426753
 40
0.5202553569
 40
0.6442452194
 40
0.7656116225
 40
1.0
 40
1.0
 40
1.0
 40
1.0
 10
10.0476281338
 20
6.5820043976
 30
0.0
 10
10.0616042272
 20
6.5929875608
 30
0.0
 10
10.0824927619
 20
6.609380302
 30
0.0
 10
10.1101993204
 20
6.6311773242
 30
0.0
 10
10.137401415
 20
6.6526270918
 30
0.0
 10
10.1709001606
 20
6.6791157757
 30
0.0
 10
10.2104750571
 20
6.7105055642
 30
0.0
 10
10.2492040019
 20
6.7413409555
 30
0.0
 10
10.299089413
 20
6.7812196429
 30
0.0
 10
10.3359981212
 20
6.8108966736
 30
0.0
 10
10.3602532024
 20
6.8305261054
 30
0.0
  0
SPLINE
  5
31E
100
AcDbEntity
  8
0
100
AcDbSpline
 62
9
  6
CONTINUOUS
 70
0
 71
3
 72
14
 73
10
 74
0
 42
0.0000001
 43
0.0000001
 44
0.0000000001
 40
0.0
 40
0.0
 40
0.0
 40
0.0
 40
0.3219202786
 40
0.4728154709
 40
0.6115874101
 40
0.7348239769
 40
0.8410824091
 40
0.9295717358
 40
1.0
 40
1.0
 40
1.0
 40
1.0
 10
12.286840141
 20
7.374922897
 30
0.0
 10
12.2870629013
 20
7.3779874117
 30
0.0
 10
12.2875408081
 20
7.382480489
 30
0.0
 10
12.2885079004
 20
7.3882385513
 30
0.0
 10
12.2893484574
 20
7.3920911313
 30
0.0
 10
12.2903164176
 20
7.3954729357
 30
0.0
 10
12.2913773407
 20
7.3983213391
 30
0.0
 10
12.2924961474
 20
7.4005956788
 30
0.0
 10
12.2933591736
 20
7.4018572082
 30
0.0
 10
12.293809303
 20
7.4023564569
 30
0.0
  0
LINE
  5
31F
100
AcDbEntity
  8
0
100
AcDbLine
 62
9
  6
CONTINUOUS
 10
12.2993101271
 20
7.4023614447
 11
12.493961809
 21
7.4026775748
  0
SPLINE
  5
320
100
AcDbEntity
  8
0
100
AcDbSpline
 62
9
  6
CONTINUOUS
 70
0
 71
3
 72
19
 73
15
 74
0
 42
0.0000001
 43
0.0000001
 44
0.0000000001
 40
0.0
 40
0.0
 40
0.0
 40
0.0
 40
0.1901597596
 40
0.3675870297
 40
0.5277651041
 40
0.6674156299
 40
0.7287424108
 40
0.7840564731
 40
0.8332587565
 40
0.8764264785
 40
0.9138217988
 40
0.9460431428
 40
0.9741960078
 40
1.0
 40
1.0
 40
1.0
 40
1.0
 10
12.2868390675
 20
7.3749227568
 30
0.0
 10
12.2865823979
 20
7.3714032214
 30
0.0
 10
12.2859416684
 20
7.3646092161
 30
0.0
 10
12.2845562152
 20
7.3549092278
 30
0.0
 10
12.282805619
 20
7.3462220814
 30
0.0
 10
12.2810147381
 20
7.3397540144
 30
0.0
 10
12.2793983225
 20
7.3352786052
 30
0.0
 10
12.2781785882
 20
7.332450478
 30
0.0
 10
12.2769058143
 20
7.33001969
 30
0.0
 10
12.2755874723
 20
7.327998866
 30
0.0
 10
12.274227405
 20
7.3263983639
 30
0.0
 10
12.272824831
 20
7.3252287736
 30
0.0
 10
12.2713805182
 20
7.3245023081
 30
0.0
 10
12.2703737662
 20
7.3243318603
 30
0.0
 10
12.2698949097
 20
7.3243318608
 30
0.0
  0
SPLINE
  5
321
100
AcDbEntity
  8
0
100
AcDbSpline
 62
9
  6
CONTINUOUS
 70
0
 71
3
 72
23
 73
19
 74
0
 42
0.0000001
 43
0.0000001
 44
0.0000000001
 40
0.0
 40
0.0
 40
0.0
 40
0.0
 40
0.195250272
 40
0.3839671294
 40
0.5578471793
 40
0.6367388404
 40
0.7089618173
 40
0.7736544989
 40
0.8303837975
 40
0.8788363213
 40
0.9187294758
 40
0.9499628642
 40
0.9624793263
 40
0.9730548023
 40
0.981826078
 40
0.988994625
 40
0.994881385
 40
1.0
 40
1.0
 40
1.0
 40
1.0
 10
11.5299137731
 20
7.3749227695
 30
0.0
 10
11.5298186516
 20
7.3715616457
 30
0.0
 10
11.5295786872
 20
7.3649531995
 30
0.0
 10
11.5290563895
 20
7.3553599675
 30
0.0
 10
11.5284698297
 20
7.3477785973
 30
0.0
 10
11.527911512
 20
7.3422094478
 30
0.0
 10
11.5274747622
 20
7.338518462
 30
0.0
 10
11.5270084516
 20
7.3352160421
 30
0.0
 10
11.526519576
 20
7.3323312934
 30
0.0
 10
11.5260151533
 20
7.3298835276
 30
0.0
 10
11.5255016927
 20
7.3278884642
 30
0.0
 10
11.5250420612
 20
7.3265204612
 30
0.0
 10
11.5246599968
 20
7.3256656412
 30
0.0
 10
11.5243952997
 20
7.3251840525
 30
0.0
 10
11.5241311686
 20
7.3248099519
 30
0.0
 10
11.5238662585
 20
7.3245400584
 30
0.0
 10
11.52359717
 20
7.3243722049
 30
0.0
 10
11.5234064852
 20
7.3243318601
 30
0.0
 10
11.5233183358
 20
7.3243318604
 30
0.0
  0
SPLINE
  5
322
100
AcDbEntity
  8
0
100
AcDbSpline
 62
9
  6
CONTINUOUS
 70
0
 71
3
 72
24
 73
20
 74
0
 42
0.0000001
 43
0.0000001
 44
0.0000000001
 40
0.0
 40
0.0
 40
0.0
 40
0.0
 40
0.1960523895
 40
0.3854455146
 40
0.5598343169
 40
0.6389078224
 40
0.711259034
 40
0.7760210265
 40
0.8327563268
 40
0.8811451769
 40
0.9208932823
 40
0.9374668109
 40
0.9518858765
 40
0.9642266216
 40
0.974582703
 40
0.9830796481
 40
0.9899046495
 40
0.995367816
 40
1.0
 40
1.0
 40
1.0
 40
1.0
 10
11.5191322427
 20
7.3748697406
 30
0.0
 10
11.519138657
 20
7.3715102515
 30
0.0
 10
11.5191038008
 20
7.3649051604
 30
0.0
 10
11.5188972177
 20
7.3553137737
 30
0.0
 10
11.5185781598
 20
7.3477310297
 30
0.0
 10
11.5182295076
 20
7.3421587054
 30
0.0
 10
11.5179387331
 20
7.3384654139
 30
0.0
 10
11.517610866
 20
7.3351596449
 30
0.0
 10
11.5172515927
 20
7.3322703524
 30
0.0
 10
11.5168661356
 20
7.3298175529
 30
0.0
 10
11.5165106119
 20
7.3280576944
 30
0.0
 10
11.5162064128
 20
7.3268839774
 30
0.0
 10
11.5159883394
 20
7.3261738572
 30
0.0
 10
11.5157672385
 20
7.3255770412
 30
0.0
 10
11.5155436333
 20
7.3250907812
 30
0.0
 10
11.5153178418
 20
7.3247117447
 30
0.0
 10
11.5150888
 20
7.324436332
 30
0.0
 10
11.5148527294
 20
7.3242608827
 30
0.0
 10
11.5146799223
 20
7.3242144962
 30
0.0
 10
11.5146005764
 20
7.3242123201
 30
0.0
  0
SPLINE
  5
323
100
AcDbEntity
  8
0
100
AcDbSpline
 62
9
  6
CONTINUOUS
 70
0
 71
3
 72
24
 73
20
 74
0
 42
0.0000001
 43
0.0000001
 44
0.0000000001
 40
0.0
 40
0.0
 40
0.0
 40
0.0
 40
0.1959971425
 40
0.3853558492
 40
0.5597342852
 40
0.6388107144
 40
0.711169448
 40
0.7759428173
 40
0.8326920524
 40
0.8810959625
 40
0.9208588263
 40
0.9374391886
 40
0.9518645463
 40
0.9642109301
 40
0.9745718888
 40
0.983072851
 40
0.9899009386
 40
0.9953662788
 40
1.0
 40
1.0
 40
1.0
 40
1.0
 10
11.1547805322
 20
7.0105181989
 30
0.0
 10
11.1581390679
 20
7.0105117846
 30
0.0
 10
11.1647426092
 20
7.010546614
 30
0.0
 10
11.1743322641
 20
7.0107530922
 30
0.0
 10
11.1819142797
 20
7.0110720206
 30
0.0
 10
11.1874866009
 20
7.0114205653
 30
0.0
 10
11.1911802644
 20
7.0117112823
 30
0.0
 10
11.1944865961
 20
7.0120391085
 30
0.0
 10
11.1973765822
 20
7.0123983611
 30
0.0
 10
11.1998301351
 20
7.0127838209
 30
0.0
 10
11.2015906262
 20
7.0131393653
 30
0.0
 10
11.2027648256
 20
7.0134435983
 30
0.0
 10
11.20347527
 20
7.013661706
 30
0.0
 10
11.2040723766
 20
7.0138828476
 30
0.0
 10
11.2045588881
 20
7.0141064993
 30
0.0
 10
11.204938132
 20
7.0143323425
 30
0.0
 10
11.2052137037
 20
7.0145614409
 30
0.0
 10
11.2053892646
 20
7.0147975758
 30
0.0
 10
11.2054356852
 20
7.0149704451
 30
0.0
 10
11.2054378621
 20
7.0150498172
 30
0.0
  0
SPLINE
  5
324
100
AcDbEntity
  8
0
100
AcDbSpline
 62
9
  6
CONTINUOUS
 70
0
 71
3
 72
23
 73
19
 74
0
 42
0.0000001
 43
0.0000001
 44
0.0000000001
 40
0.0
 40
0.0
 40
0.0
 40
0.0
 40
0.1952502379
 40
0.383967066
 40
0.5578470961
 40
0.6367387521
 40
0.7089617279
 40
0.7736544123
 40
0.8303837174
 40
0.8788362513
 40
0.9187294195
 40
0.9499628243
 40
0.962479295
 40
0.9730547796
 40
0.9818260637
 40
0.988994618
 40
0.9948813834
 40
1.0
 40
1.0
 40
1.0
 40
1.0
 10
11.1547274289
 20
6.9997364261
 30
0.0
 10
11.158088552
 20
6.9998315476
 30
0.0
 10
11.1646969969
 20
7.0000715119
 30
0.0
 10
11.1742902272
 20
7.0005938093
 30
0.0
 10
11.1818715963
 20
7.0011803689
 30
0.0
 10
11.1874407452
 20
7.0017386864
 30
0.0
 10
11.1911317309
 20
7.002175436
 30
0.0
 10
11.1944341508
 20
7.0026417466
 30
0.0
 10
11.1973188998
 20
7.0031306219
 30
0.0
 10
11.1997666661
 20
7.0036350445
 30
0.0
 10
11.2017617301
 20
7.0041485049
 30
0.0
 10
11.2031297339
 20
7.0046081363
 30
0.0
 10
11.2039845545
 20
7.0049902006
 30
0.0
 10
11.2044661437
 20
7.0052548976
 30
0.0
 10
11.2048402449
 20
7.0055190286
 30
0.0
 10
11.2051101389
 20
7.0057839386
 30
0.0
 10
11.205277993
 20
7.006053027
 30
0.0
 10
11.2053183384
 20
7.0062437118
 30
0.0
 10
11.2053183382
 20
7.0063318612
 30
0.0
  0
SPLINE
  5
325
100
AcDbEntity
  8
0
100
AcDbSpline
 62
9
  6
CONTINUOUS
 70
0
 71
3
 72
17
 73
13
 74
0
 42
0.0000001
 43
0.0000001
 44
0.0000000001
 40
0.0
 40
0.0
 40
0.0
 40
0.0
 40
0.1123431847
 40
0.2334675807
 40
0.2968990448
 40
0.3617873906
 40
0.4941851824
 40
0.6274479186
 40
0.6933776851
 40
0.7582167615
 40
0.8830844854
 40
1.0
 40
1.0
 40
1.0
 40
1.0
 10
10.3955110816
 20
8.1693902772
 30
0.0
 10
10.3970028758
 20
8.1748030475
 30
0.0
 10
10.4009592611
 20
8.1858273001
 30
0.0
 10
10.4078494265
 20
8.1990219564
 30
0.0
 10
10.4147143092
 20
8.2094380885
 30
0.0
 10
10.4225892738
 20
8.2198287933
 30
0.0
 10
10.4338275168
 20
8.2320055408
 30
0.0
 10
10.4466023453
 20
8.2426381777
 30
0.0
 10
10.4574980579
 20
8.2500944595
 30
0.0
 10
10.4684842997
 20
8.2566315006
 30
0.0
 10
10.4823884347
 20
8.2631765143
 30
0.0
 10
10.493923212
 20
8.266906342
 30
0.0
 10
10.4995936589
 20
8.2683162269
 30
0.0
  0
SPLINE
  5
326
100
AcDbEntity
  8
0
100
AcDbSpline
 62
9
  6
CONTINUOUS
 70
0
 71
3
 72
21
 73
17
 74
0
 42
0.0000001
 43
0.0000001
 44
0.0000000001
 40
0.0
 40
0.0
 40
0.0
 40
0.0
 40
0.0624271031
 40
0.1249674264
 40
0.187515334
 40
0.2500673301
 40
0.3126135381
 40
0.3751853523
 40
0.5002036709
 40
0.5627787792
 40
0.6253520037
 40
0.6878689821
 40
0.7503410086
 40
0.8128166051
 40
0.8752806085
 40
1.0
 40
1.0
 40
1.0
 40
1.0
 10
12.1406577377
 20
6.670560471
 30
0.0
 10
12.1404945339
 20
6.6675984614
 30
0.0
 10
12.1399466572
 20
6.6616783977
 30
0.0
 10
12.1384062838
 20
6.6528914389
 30
0.0
 10
12.1360830494
 20
6.644268889
 30
0.0
 10
12.1329268223
 20
6.6359139548
 30
0.0
 10
12.1289481354
 20
6.6279139627
 30
0.0
 10
12.1225623322
 20
6.6178691267
 30
0.0
 10
12.1146137823
 20
6.6088862316
 30
0.0
 10
12.1054070117
 20
6.6013403507
 30
0.0
 10
12.0979640119
 20
6.596400271
 30
0.0
 10
12.0900830687
 20
6.5922090769
 30
0.0
 10
12.0818543858
 20
6.5887659575
 30
0.0
 10
12.0733627788
 20
6.586045903
 30
0.0
 10
12.0617994079
 20
6.5833520303
 30
0.0
 10
12.0529269092
 20
6.5823131715
 30
0.0
 10
12.0470083509
 20
6.5820045666
 30
0.0
  0
LINE
  5
327
100
AcDbEntity
  8
0
100
AcDbLine
 62
9
  6
CONTINUOUS
 10
11.0601470365
 20
6.2177592144
 11
11.0592062951
 21
5.982378969
  0
SPLINE
  5
328
100
AcDbEntity
  8
0
100
AcDbSpline
 62
9
  6
CONTINUOUS
 70
0
 71
3
 72
21
 73
17
 74
0
 42
0.0000001
 43
0.0000001
 44
0.0000000001
 40
0.0
 40
0.0
 40
0.0
 40
0.0
 40
0.0623461886
 40
0.1247590113
 40
0.187257356
 40
0.2497852299
 40
0.3122756041
 40
0.374779458
 40
0.4373478948
 40
0.4999314235
 40
0.624934988
 40
0.6874891797
 40
0.750033262
 40
0.8125949606
 40
0.8751480669
 40
1.0
 40
1.0
 40
1.0
 40
1.0
 10
10.1469908797
 20
8.4820220599
 30
0.0
 10
10.1471019219
 20
8.4849826296
 30
0.0
 10
10.1475706501
 20
8.4909003775
 30
0.0
 10
10.1489786912
 20
8.4996951654
 30
0.0
 10
10.1510500342
 20
8.5083665226
 30
0.0
 10
10.1537713956
 20
8.5168611498
 30
0.0
 10
10.1571995718
 20
8.5250991075
 30
0.0
 10
10.1613821418
 20
8.5329851925
 30
0.0
 10
10.1663296217
 20
8.5404232599
 30
0.0
 10
10.1738840877
 20
8.5496215063
 30
0.0
 10
10.1828565199
 20
8.5575785501
 30
0.0
 10
10.1928984165
 20
8.5639670626
 30
0.0
 10
10.2008996835
 20
8.5679418344
 30
0.0
 10
10.20925696
 20
8.571095259
 30
0.0
 10
10.2207383237
 20
8.5741936972
 30
0.0
 10
10.2296222075
 20
8.5753512747
 30
0.0
 10
10.2355464528
 20
8.5756713389
 30
0.0
  0
SPLINE
  5
329
100
AcDbEntity
  8
0
100
AcDbSpline
 62
9
  6
CONTINUOUS
 70
0
 71
3
 72
18
 73
14
 74
0
 42
0.0000001
 43
0.0000001
 44
0.0000000001
 40
0.0
 40
0.0
 40
0.0
 40
0.0
 40
0.0298038496
 40
0.0646551989
 40
0.1048528372
 40
0.1506217302
 40
0.2020573024
 40
0.2588782103
 40
0.3870428262
 40
0.5312968081
 40
0.6857229858
 40
0.8439381029
 40
1.0
 40
1.0
 40
1.0
 40
1.0
 10
11.1272886622
 20
6.2303399962
 30
0.0
 10
11.126777128
 20
6.2298787209
 30
0.0
 10
11.1255883111
 20
6.2289652415
 30
0.0
 10
11.1235131906
 20
6.2277075283
 30
0.0
 10
11.1210058772
 20
6.2264719478
 30
0.0
 10
11.118062905
 20
6.2252734177
 30
0.0
 10
11.1146906444
 20
6.2241281804
 30
0.0
 10
11.1094365111
 20
6.2226226624
 30
0.0
 10
11.1019961435
 20
6.2209921794
 30
0.0
 10
11.0922393497
 20
6.2195041424
 30
0.0
 10
11.0817293329
 20
6.2184425949
 30
0.0
 10
11.0709102227
 20
6.2178489644
 30
0.0
 10
11.0636456148
 20
6.2177407303
 30
0.0
 10
11.0600389058
 20
6.2177581395
 30
0.0
  0
SPLINE
  5
32A
100
AcDbEntity
  8
0
100
AcDbSpline
 62
9
  6
CONTINUOUS
 70
0
 71
3
 72
18
 73
14
 74
0
 42
0.0000001
 43
0.0000001
 44
0.0000000001
 40
0.0
 40
0.0
 40
0.0
 40
0.0
 40
0.0318385036
 40
0.0685183781
 40
0.1101374782
 40
0.1566719245
 40
0.2079924201
 40
0.263905043
 40
0.3884767524
 40
0.5277313523
 40
0.6785045363
 40
0.8373417578
 40
1.0
 40
1.0
 40
1.0
 40
1.0
 10
10.9673428211
 20
6.2358409751
 30
0.0
 10
10.9678896161
 20
6.235348027
 30
0.0
 10
10.9691543256
 20
6.2343842062
 30
0.0
 10
10.9713439663
 20
6.2330771029
 30
0.0
 10
10.9739441071
 20
6.2318166652
 30
0.0
 10
10.9769386166
 20
6.2306139013
 30
0.0
 10
10.9803085587
 20
6.2294752995
 30
0.0
 10
10.9854627898
 20
6.2279988221
 30
0.0
 10
10.9926883762
 20
6.2264010466
 30
0.0
 10
11.0021606575
 20
6.2248970109
 30
0.0
 10
11.012484592
 20
6.2237903775
 30
0.0
 10
11.0233867966
 20
6.2231124031
 30
0.0
 10
11.0308214768
 20
6.2229566336
 30
0.0
 10
11.0345825866
 20
6.2229542242
 30
0.0
  0
SPLINE
  5
32B
100
AcDbEntity
  8
0
100
AcDbSpline
 62
9
  6
CONTINUOUS
 70
0
 71
3
 72
14
 73
10
 74
0
 42
0.0000001
 43
0.0000001
 44
0.0000000001
 40
0.0
 40
0.0
 40
0.0
 40
0.0
 40
0.3219202792
 40
0.4728154717
 40
0.6115874109
 40
0.7348239778
 40
0.8410824097
 40
0.9295717362
 40
1.0
 40
1.0
 40
1.0
 40
1.0
 10
10.9399093748
 20
6.2428100577
 30
0.0
 10
10.9429738896
 20
6.2425872974
 30
0.0
 10
10.9474669669
 20
6.2421093906
 30
0.0
 10
10.9532250292
 20
6.2411422983
 30
0.0
 10
10.9570776092
 20
6.2403017413
 30
0.0
 10
10.9604594136
 20
6.2393337811
 30
0.0
 10
10.963307817
 20
6.238272858
 30
0.0
 10
10.9655821567
 20
6.2371540513
 30
0.0
 10
10.9668436861
 20
6.2362910251
 30
0.0
 10
10.9673429349
 20
6.2358408957
 30
0.0
  0
LINE
  5
32C
100
AcDbEntity
  8
0
100
AcDbLine
 62
9
  6
CONTINUOUS
 10
10.9673479236
 20
6.2303400706
 11
10.9676640527
 21
6.0356883873
  0
SPLINE
  5
32D
100
AcDbEntity
  8
0
100
AcDbSpline
 62
9
  6
CONTINUOUS
 70
0
 71
3
 72
18
 73
14
 74
0
 42
0.0000001
 43
0.0000001
 44
0.0000000001
 40
0.0
 40
0.0
 40
0.0
 40
0.0
 40
0.0298039294
 40
0.0646554521
 40
0.1048530613
 40
0.1506214035
 40
0.2020567786
 40
0.2588783213
 40
0.3870427837
 40
0.5312958523
 40
0.6857232905
 40
0.8439371695
 40
1.0
 40
1.0
 40
1.0
 40
1.0
 10
10.9673480062
 20
6.2303399847
 30
0.0
 10
10.9678595415
 20
6.2298787077
 30
0.0
 10
10.9690483665
 20
6.2289652286
 30
0.0
 10
10.9711234944
 20
6.2277075174
 30
0.0
 10
10.9736307986
 20
6.2264719397
 30
0.0
 10
10.9765737463
 20
6.2252733964
 30
0.0
 10
10.979946007
 20
6.2241281637
 30
0.0
 10
10.9852001588
 20
6.2226226862
 30
0.0
 10
10.9926405029
 20
6.2209921456
 30
0.0
 10
11.0023973093
 20
6.2195041395
 30
0.0
 10
11.012907305
 20
6.2184425951
 30
0.0
 10
11.0237264376
 20
6.2178489204
 30
0.0
 10
11.0309910393
 20
6.2177407388
 30
0.0
 10
11.0345977704
 20
6.217758118
 30
0.0
  0
SPLINE
  5
32E
100
AcDbEntity
  8
0
100
AcDbSpline
 62
9
  6
CONTINUOUS
 70
0
 71
3
 72
15
 73
11
 74
0
 42
0.0000001
 43
0.0000001
 44
0.0000000001
 40
0.0
 40
0.0
 40
0.0
 40
0.0
 40
0.3336391254
 40
0.4884895758
 40
0.6294276647
 40
0.7525621576
 40
0.8561364199
 40
0.9389634841
 40
0.972262192
 40
1.0
 40
1.0
 40
1.0
 40
1.0
 10
10.9398562183
 20
7.0105179569
 30
0.0
 10
10.9429322986
 20
7.0104332874
 30
0.0
 10
10.9474349443
 20
7.0102517219
 30
0.0
 10
10.9532287223
 20
7.0098813114
 30
0.0
 10
10.9570796023
 20
7.009561463
 30
0.0
 10
10.9604511393
 20
7.0091944977
 30
0.0
 10
10.9632782185
 20
7.0087937126
 30
0.0
 10
10.9652718473
 20
7.0084234318
 30
0.0
 10
10.9665609708
 20
7.0081078581
 30
0.0
 10
10.9671008899
 20
7.0079468771
 30
0.0
 10
10.9673428733
 20
7.0078638421
 30
0.0
  0
SPLINE
  5
32F
100
AcDbEntity
  8
0
100
AcDbSpline
 62
9
  6
CONTINUOUS
 70
0
 71
3
 72
15
 73
11
 74
0
 42
0.0000001
 43
0.0000001
 44
0.0000000001
 40
0.0
 40
0.0
 40
0.0
 40
0.0
 40
0.3336392801
 40
0.4884896899
 40
0.6294277104
 40
0.7525621342
 40
0.8561363476
 40
0.9389634107
 40
0.9722621444
 40
1.0
 40
1.0
 40
1.0
 40
1.0
 10
10.575504432
 20
7.3748696562
 30
0.0
 10
10.5754197618
 20
7.3779457204
 30
0.0
 10
10.5752381958
 20
7.3824483415
 30
0.0
 10
10.5748677854
 20
7.3882420868
 30
0.0
 10
10.5745479377
 20
7.3920929432
 30
0.0
 10
10.5741809735
 20
7.3954644591
 30
0.0
 10
10.57378019
 20
7.398291521
 30
0.0
 10
10.5734099106
 20
7.4002851382
 30
0.0
 10
10.5730943383
 20
7.401574255
 30
0.0
 10
10.572933358
 20
7.4021141716
 30
0.0
 10
10.5728503234
 20
7.402356154
 30
0.0
  0
SPLINE
  5
330
100
AcDbEntity
  8
0
100
AcDbSpline
 62
9
  6
CONTINUOUS
 70
0
 71
3
 72
14
 73
10
 74
0
 42
0.0000001
 43
0.0000001
 44
0.0000000001
 40
0.0
 40
0.0
 40
0.0
 40
0.0
 40
0.3219185849
 40
0.472812869
 40
0.611584216
 40
0.734820654
 40
0.8410795111
 40
0.9295699433
 40
1.0
 40
1.0
 40
1.0
 40
1.0
 10
9.8077965272
 20
7.3749231017
 30
0.0
 10
9.8075737673
 20
7.3779875452
 30
0.0
 10
9.8070958678
 20
7.3824805167
 30
0.0
 10
9.8061288008
 20
7.3882384464
 30
0.0
 10
9.8052882705
 20
7.3920909439
 30
0.0
 10
9.8043203443
 20
7.3954726895
 30
0.0
 10
9.8032594585
 20
7.3983210625
 30
0.0
 10
9.8021406898
 20
7.4005954056
 30
0.0
 10
9.8012776979
 20
7.4018569559
 30
0.0
 10
9.8008275871
 20
7.4023562282
 30
0.0
  0
SPLINE
  5
331
100
AcDbEntity
  8
0
100
AcDbSpline
 62
9
  6
CONTINUOUS
 70
0
 71
3
 72
17
 73
13
 74
0
 42
0.0000001
 43
0.0000001
 44
0.0000000001
 40
0.0
 40
0.0
 40
0.0
 40
0.0
 40
0.0413325493
 40
0.0859724147
 40
0.1337504768
 40
0.1845099968
 40
0.2944806363
 40
0.4152591359
 40
0.5463997516
 40
0.6876953776
 40
0.8389780197
 40
1.0
 40
1.0
 40
1.0
 40
1.0
 10
11.3437147577
 20
7.2005634303
 30
0.0
 10
11.3491370636
 20
7.1955013781
 30
0.0
 10
11.3603449892
 20
7.1848967191
 30
0.0
 10
11.3776855291
 20
7.1682984312
 30
0.0
 10
11.3962414173
 20
7.1505230606
 30
0.0
 10
11.4232848456
 20
7.1246584818
 30
0.0
 10
11.459893973
 20
7.089840679
 30
0.0
 10
11.5070737494
 20
7.0452049895
 30
0.0
 10
11.5584309059
 20
6.9968047567
 30
0.0
 10
11.6137829807
 20
6.9446613257
 30
0.0
 10
11.6729760423
 20
6.8887743
 30
0.0
 10
11.7136553271
 20
6.8502163728
 30
0.0
 10
11.734603511
 20
6.8303090934
 30
0.0
  0
SPLINE
  5
332
100
AcDbEntity
  8
0
100
AcDbSpline
 62
9
  6
CONTINUOUS
 70
0
 71
3
 72
20
 73
16
 74
0
 42
0.0000001
 43
0.0000001
 44
0.0000000001
 40
0.0
 40
0.0
 40
0.0
 40
0.0
 40
0.1818576386
 40
0.358468496
 40
0.5225910992
 40
0.5978397851
 40
0.6674494148
 40
0.7307431365
 40
0.7874465459
 40
0.8374335206
 40
0.8806855856
 40
0.9174704244
 40
0.9486839992
 40
0.9756325384
 40
1.0
 40
1.0
 40
1.0
 40
1.0
 10
9.8077930165
 20
7.374922938
 30
0.0
 10
9.8080378439
 20
7.3715567482
 30
0.0
 10
9.8086567204
 20
7.36493034
 30
0.0
 10
9.8100025235
 20
7.3553216679
 30
0.0
 10
9.8115121561
 20
7.3477441083
 30
0.0
 10
9.8129441753
 20
7.3421900492
 30
0.0
 10
9.81406959
 20
7.3384929664
 30
0.0
 10
9.8152722694
 20
7.3351839108
 30
0.0
 10
9.8165352903
 20
7.3322903046
 30
0.0
 10
9.8178433318
 20
7.32983031
 30
0.0
 10
9.8191831952
 20
7.3278170587
 30
0.0
 10
9.8205511518
 20
7.3262600249
 30
0.0
 10
9.821936995
 20
7.3251525591
 30
0.0
 10
9.8233335886
 20
7.3244854413
 30
0.0
 10
9.8242906456
 20
7.3243318954
 30
0.0
 10
9.8247428794
 20
7.3243318604
 30
0.0
  0
SPLINE
  5
333
100
AcDbEntity
  8
0
100
AcDbSpline
 62
9
  6
CONTINUOUS
 70
0
 71
3
 72
17
 73
13
 74
0
 42
0.0000001
 43
0.0000001
 44
0.0000000001
 40
0.0
 40
0.0
 40
0.0
 40
0.0
 40
0.1610067263
 40
0.3122768085
 40
0.453565106
 40
0.5847036299
 40
0.7054841657
 40
0.8154610013
 40
0.8662254236
 40
0.9140101445
 40
0.9586586505
 40
1.0
 40
1.0
 40
1.0
 40
1.0
 10
11.6989846601
 20
6.7954217534
 30
0.0
 10
11.6790990116
 20
6.8163481167
 30
0.0
 10
11.6405823743
 20
6.8569848855
 30
0.0
 10
11.5847539101
 20
6.9161161595
 30
0.0
 10
11.5326637446
 20
6.9714118339
 30
0.0
 10
11.4843112332
 20
7.0227182455
 30
0.0
 10
11.4397179681
 20
7.0698530976
 30
0.0
 10
11.4049322527
 20
7.1064284771
 30
0.0
 10
11.3790905603
 20
7.1334480591
 30
0.0
 10
11.3613296704
 20
7.1519883788
 30
0.0
 10
11.3447436301
 20
7.1693144452
 30
0.0
 10
11.3341472174
 20
7.1805139199
 30
0.0
 10
11.3290895699
 20
7.1859326697
 30
0.0
  0
SPLINE
  5
334
100
AcDbEntity
  8
0
100
AcDbSpline
 62
9
  6
CONTINUOUS
 70
0
 71
3
 72
18
 73
14
 74
0
 42
0.0000001
 43
0.0000001
 44
0.0000000001
 40
0.0
 40
0.0
 40
0.0
 40
0.0
 40
0.029803849
 40
0.0646551978
 40
0.1048528353
 40
0.1506217273
 40
0.2020572987
 40
0.2588782062
 40
0.3870428212
 40
0.5312968027
 40
0.6857229818
 40
0.8439381001
 40
1.0
 40
1.0
 40
1.0
 40
1.0
 10
9.7953264741
 20
7.4023615364
 30
0.0
 10
9.7948651988
 20
7.4028730706
 30
0.0
 10
9.7939517194
 20
7.4040618875
 30
0.0
 10
9.7926940062
 20
7.406137008
 30
0.0
 10
9.7914584257
 20
7.4086443213
 30
0.0
 10
9.7902598957
 20
7.4115872935
 30
0.0
 10
9.7891146583
 20
7.414959554
 30
0.0
 10
9.7876091404
 20
7.4202136873
 30
0.0
 10
9.7859786573
 20
7.4276540548
 30
0.0
 10
9.7844906203
 20
7.4374108486
 30
0.0
 10
9.7834290728
 20
7.4479208654
 30
0.0
 10
9.7828354423
 20
7.4587399758
 30
0.0
 10
9.7827272081
 20
7.4660045838
 30
0.0
 10
9.7827446174
 20
7.4696112929
 30
0.0
  0
SPLINE
  5
335
100
AcDbEntity
  8
0
100
AcDbSpline
 62
9
  6
CONTINUOUS
 70
0
 71
3
 72
18
 73
14
 74
0
 42
0.0000001
 43
0.0000001
 44
0.0000000001
 40
0.0
 40
0.0
 40
0.0
 40
0.0
 40
0.0318384014
 40
0.0685183066
 40
0.1101375349
 40
0.1566721753
 40
0.2079928792
 40
0.2639056796
 40
0.3884775695
 40
0.5277321642
 40
0.6785051949
 40
0.8373421244
 40
1.0
 40
1.0
 40
1.0
 40
1.0
 10
9.8008274089
 20
7.4023563707
 30
0.0
 10
9.8003344795
 20
7.4029031773
 30
0.0
 10
9.7993706938
 20
7.4041679065
 30
0.0
 10
9.7980636303
 20
7.4063575656
 30
0.0
 10
9.7968032179
 20
7.4089577205
 30
0.0
 10
9.7956004619
 20
7.4119522387
 30
0.0
 10
9.794461856
 20
7.4153221856
 30
0.0
 10
9.7929853658
 20
7.420476415
 30
0.0
 10
9.7913875805
 20
7.427701992
 30
0.0
 10
9.7898835282
 20
7.4371742505
 30
0.0
 10
9.7887768628
 20
7.4474981494
 30
0.0
 10
9.7880988771
 20
7.4584003122
 30
0.0
 10
9.7879431147
 20
7.4658349619
 30
0.0
 10
9.7879407106
 20
7.4695960554
 30
0.0
  0
SPLINE
  5
336
100
AcDbEntity
  8
0
100
AcDbSpline
 62
9
  6
CONTINUOUS
 70
0
 71
3
 72
18
 73
14
 74
0
 42
0.0000001
 43
0.0000001
 44
0.0000000001
 40
0.0
 40
0.0
 40
0.0
 40
0.0
 40
0.0252763577
 40
0.0567456856
 40
0.0945207471
 40
0.1386903197
 40
0.1892387392
 40
0.2457720482
 40
0.3748144867
 40
0.5213470837
 40
0.6788758894
 40
0.8405309269
 40
1.0
 40
1.0
 40
1.0
 40
1.0
 10
10.5728492229
 20
7.402356048
 30
0.0
 10
10.5726644828
 20
7.4028944946
 30
0.0
 10
10.5723086767
 20
7.4041233805
 30
0.0
 10
10.5718312797
 20
7.4061984485
 30
0.0
 10
10.5713600297
 20
7.4087094446
 30
0.0
 10
10.570901119
 20
7.4116582197
 30
0.0
 10
10.5704613826
 20
7.4150363884
 30
0.0
 10
10.5698789989
 20
7.4203224909
 30
0.0
 10
10.5692482998
 20
7.4277765806
 30
0.0
 10
10.5686683077
 20
7.4375140813
 30
0.0
 10
10.5682477377
 20
7.4479948014
 30
0.0
 10
10.5680027891
 20
7.4587723664
 30
0.0
 10
10.5679475591
 20
7.4660046008
 30
0.0
 10
10.5679468357
 20
7.4695960555
 30
0.0
  0
SPLINE
  5
337
100
AcDbEntity
  8
0
100
AcDbSpline
 62
9
  6
CONTINUOUS
 70
0
 71
3
 72
18
 73
14
 74
0
 42
0.0000001
 43
0.0000001
 44
0.0000000001
 40
0.0
 40
0.0
 40
0.0
 40
0.0
 40
0.0252765235
 40
0.0567459867
 40
0.0945211498
 40
0.1386907877
 40
0.1892392379
 40
0.2457725479
 40
0.3748149125
 40
0.5213473723
 40
0.6788760344
 40
0.8405309648
 40
1.0
 40
1.0
 40
1.0
 40
1.0
 10
10.9673428238
 20
7.0078638412
 30
0.0
 10
10.9678812655
 20
7.0076790784
 30
0.0
 10
10.9691101412
 20
7.0073232203
 30
0.0
 10
10.9711851947
 20
7.006845735
 30
0.0
 10
10.9736961734
 20
7.0063743782
 30
0.0
 10
10.9766449287
 20
7.0059153421
 30
0.0
 10
10.9800230753
 20
7.0054754621
 30
0.0
 10
10.9853091434
 20
7.0048928537
 30
0.0
 10
10.9927631894
 20
7.0042618375
 30
0.0
 10
11.0025006416
 20
7.0036814308
 30
0.0
 10
11.012981318
 20
7.0032604145
 30
0.0
 10
11.0237588487
 20
7.0030150068
 30
0.0
 10
11.0309910658
 20
7.002959469
 30
0.0
 10
11.0345825138
 20
7.0029585927
 30
0.0
  0
SPLINE
  5
338
100
AcDbEntity
  8
0
100
AcDbSpline
 62
9
  6
CONTINUOUS
 70
0
 71
3
 72
18
 73
14
 74
0
 42
0.0000001
 43
0.0000001
 44
0.0000000001
 40
0.0
 40
0.0
 40
0.0
 40
0.0
 40
0.0318385036
 40
0.0685183781
 40
0.1101374782
 40
0.1566719245
 40
0.2079924201
 40
0.263905043
 40
0.3884767524
 40
0.5277313523
 40
0.6785045363
 40
0.8373417578
 40
1.0
 40
1.0
 40
1.0
 40
1.0
 10
9.800827453
 20
7.5623073776
 30
0.0
 10
9.8003345049
 20
7.5617605826
 30
0.0
 10
9.799370684
 20
7.5604958731
 30
0.0
 10
9.7980635808
 20
7.5583062324
 30
0.0
 10
9.7968031431
 20
7.5557060915
 30
0.0
 10
9.7956003791
 20
7.5527115821
 30
0.0
 10
9.7944617774
 20
7.5493416399
 30
0.0
 10
9.7929853
 20
7.5441874089
 30
0.0
 10
9.7913875245
 20
7.5369618224
 30
0.0
 10
9.7898834888
 20
7.5274895412
 30
0.0
 10
9.7887768554
 20
7.5171656067
 30
0.0
 10
9.7880988809
 20
7.506263402
 30
0.0
 10
9.7879431114
 20
7.4988287219
 30
0.0
 10
9.787940702
 20
7.4950676121
 30
0.0
  0
SPLINE
  5
339
100
AcDbEntity
  8
0
100
AcDbSpline
 62
9
  6
CONTINUOUS
 70
0
 71
3
 72
15
 73
11
 74
0
 42
0.0000001
 43
0.0000001
 44
0.0000000001
 40
0.0
 40
0.0
 40
0.0
 40
0.0
 40
0.1307635669
 40
0.257413288
 40
0.3802660782
 40
0.4999793347
 40
0.6196934895
 40
0.7425519716
 40
0.8692185359
 40
1.0
 40
1.0
 40
1.0
 40
1.0
 10
11.9793693463
 20
6.5821631009
 30
0.0
 10
11.9770463774
 20
6.5824374986
 30
0.0
 10
11.9724268456
 20
6.5826703676
 30
0.0
 10
11.9656329126
 20
6.5817943742
 30
0.0
 10
11.9593900004
 20
6.579440232
 30
0.0
 10
11.95406671
 20
6.5755763767
 30
0.0
 10
11.9502051736
 20
6.5702512944
 30
0.0
 10
11.9478534253
 20
6.5640070599
 30
0.0
 10
11.9469796539
 20
6.557212151
 30
0.0
 10
11.9472135868
 20
6.5525920714
 30
0.0
 10
11.947488518
 20
6.5502688432
 30
0.0
  0
SPLINE
  5
33A
100
AcDbEntity
  8
0
100
AcDbSpline
 62
9
  6
CONTINUOUS
 70
0
 71
3
 72
14
 73
10
 74
0
 42
0.0000001
 43
0.0000001
 44
0.0000000001
 40
0.0
 40
0.0
 40
0.0
 40
0.0
 40
0.3219205129
 40
0.4728156604
 40
0.6115874967
 40
0.734823964
 40
0.8410823421
 40
0.9295716705
 40
1.0
 40
1.0
 40
1.0
 40
1.0
 10
9.8077965218
 20
7.5897406345
 30
0.0
 10
9.8075737584
 20
7.5866761381
 30
0.0
 10
9.807095849
 20
7.5821830895
 30
0.0
 10
9.806128756
 20
7.5764250657
 30
0.0
 10
9.8052882
 20
7.5725725146
 30
0.0
 10
9.8043202425
 20
7.5691907362
 30
0.0
 10
9.8032593237
 20
7.5663423543
 30
0.0
 10
9.8021405221
 20
7.5640680307
 30
0.0
 10
9.8012775004
 20
7.5628065098
 30
0.0
 10
9.8008273736
 20
7.5623072639
 30
0.0
  0
LINE
  5
33B
100
AcDbEntity
  8
0
100
AcDbLine
 62
9
  6
CONTINUOUS
 10
9.7953265485
 20
7.5623022751
 11
9.6006748652
 21
7.561986146
  0
SPLINE
  5
33C
100
AcDbEntity
  8
0
100
AcDbSpline
 62
9
  6
CONTINUOUS
 70
0
 71
3
 72
15
 73
11
 74
0
 42
0.0000001
 43
0.0000001
 44
0.0000000001
 40
0.0
 40
0.0
 40
0.0
 40
0.0
 40
0.1335233728
 40
0.1994579333
 40
0.2648102171
 40
0.3937426881
 40
0.5202553596
 40
0.6442452202
 40
0.7656116351
 40
1.0
 40
1.0
 40
1.0
 40
1.0
 10
12.0470085427
 20
8.3826593232
 30
0.0
 10
12.0330324526
 20
8.3716761573
 30
0.0
 10
12.0121439233
 20
8.3552834079
 30
0.0
 10
11.9844373532
 20
8.3334863968
 30
0.0
 10
11.957235251
 20
8.3120366343
 30
0.0
 10
11.9237365111
 20
8.285547944
 30
0.0
 10
11.8841616194
 20
8.2541581531
 30
0.0
 10
11.8454326725
 20
8.2233227644
 30
0.0
 10
11.795547257
 20
8.1834440832
 30
0.0
 10
11.7586385292
 20
8.1537670769
 30
0.0
 10
11.7343834742
 20
8.1341376154
 30
0.0
  0
SPLINE
  5
33D
100
AcDbEntity
  8
0
100
AcDbSpline
 62
9
  6
CONTINUOUS
 70
0
 71
3
 72
18
 73
14
 74
0
 42
0.0000001
 43
0.0000001
 44
0.0000000001
 40
0.0
 40
0.0
 40
0.0
 40
0.0
 40
0.0252765308
 40
0.0567460027
 40
0.0945211754
 40
0.1386908235
 40
0.189239284
 40
0.2457726037
 40
0.3748149834
 40
0.5213474479
 40
0.6788761008
 40
0.8405310057
 40
1.0
 40
1.0
 40
1.0
 40
1.0
 10
10.5728503095
 20
7.5623073924
 30
0.0
 10
10.5726655468
 20
7.5617689503
 30
0.0
 10
10.5723096891
 20
7.5605400738
 30
0.0
 10
10.5718322044
 20
7.5584650191
 30
0.0
 10
10.5713608485
 20
7.5559540389
 30
0.0
 10
10.5709018133
 20
7.5530052821
 30
0.0
 10
10.5704619345
 20
7.5496271338
 30
0.0
 10
10.5698793281
 20
7.5443410635
 30
0.0
 10
10.5692483145
 20
7.5368870149
 30
0.0
 10
10.5686679114
 20
7.52714956
 30
0.0
 10
10.568246899
 20
7.5166688816
 30
0.0
 10
10.5680014954
 20
7.5058913501
 30
0.0
 10
10.5679459603
 20
7.4986591328
 30
0.0
 10
10.5679450853
 20
7.4950676849
 30
0.0
  0
SPLINE
  5
33E
100
AcDbEntity
  8
0
100
AcDbSpline
 62
9
  6
CONTINUOUS
 70
0
 71
3
 72
18
 73
14
 74
0
 42
0.0000001
 43
0.0000001
 44
0.0000000001
 40
0.0
 40
0.0
 40
0.0
 40
0.0
 40
0.0252763368
 40
0.056745644
 40
0.0945206855
 40
0.1386902394
 40
0.1892386423
 40
0.245771937
 40
0.3748143573
 40
0.521346954
 40
0.6788757805
 40
0.8405308617
 40
1.0
 40
1.0
 40
1.0
 40
1.0
 10
10.9673425735
 20
7.9568010369
 30
0.0
 10
10.9678810194
 20
7.9569857758
 30
0.0
 10
10.969109904
 20
7.9573415792
 30
0.0
 10
10.9711849698
 20
7.9578189718
 30
0.0
 10
10.9736959633
 20
7.9582902164
 30
0.0
 10
10.9766447356
 20
7.958749121
 30
0.0
 10
10.9800229012
 20
7.9591888504
 30
0.0
 10
10.9853089991
 20
7.9597712233
 30
0.0
 10
10.9927630831
 20
7.9604019072
 30
0.0
 10
11.0025005767
 20
7.9609818797
 30
0.0
 10
11.0129812901
 20
7.9614024288
 30
0.0
 10
11.0237588494
 20
7.961647356
 30
0.0
 10
11.0309910803
 20
7.9617025717
 30
0.0
 10
11.0345825334
 20
7.9617032881
 30
0.0
  0
SPLINE
  5
33F
100
AcDbEntity
  8
0
100
AcDbSpline
 62
9
  6
CONTINUOUS
 70
0
 71
3
 72
18
 73
14
 74
0
 42
0.0000001
 43
0.0000001
 44
0.0000000001
 40
0.0
 40
0.0
 40
0.0
 40
0.0
 40
0.0318384014
 40
0.0685183065
 40
0.1101375347
 40
0.1566721751
 40
0.207992879
 40
0.2639056794
 40
0.3884775693
 40
0.5277321639
 40
0.6785051948
 40
0.8373421243
 40
1.0
 40
1.0
 40
1.0
 40
1.0
 10
10.9673428486
 20
8.7288227897
 30
0.0
 10
10.9678896552
 20
8.7293157192
 30
0.0
 10
10.9691543843
 20
8.7302795049
 30
0.0
 10
10.9713440434
 20
8.7315865684
 30
0.0
 10
10.9739441983
 20
8.7328469808
 30
0.0
 10
10.9769387165
 20
8.7340497367
 30
0.0
 10
10.9803086634
 20
8.7351883427
 30
0.0
 10
10.9854628928
 20
8.7366648329
 30
0.0
 10
10.9926884698
 20
8.7382626182
 30
0.0
 10
11.0021607284
 20
8.7397666705
 30
0.0
 10
11.0124846273
 20
8.7408733359
 30
0.0
 10
11.02338679
 20
8.7415513216
 30
0.0
 10
11.0308214398
 20
8.741707084
 30
0.0
 10
11.0345825333
 20
8.7417094881
 30
0.0
  0
SPLINE
  5
340
100
AcDbEntity
  8
0
100
AcDbSpline
 62
9
  6
CONTINUOUS
 70
0
 71
3
 72
18
 73
14
 74
0
 42
0.0000001
 43
0.0000001
 44
0.0000000001
 40
0.0
 40
0.0
 40
0.0
 40
0.0
 40
0.029803849
 40
0.0646551978
 40
0.1048528353
 40
0.1506217273
 40
0.2020572987
 40
0.2588782063
 40
0.3870428212
 40
0.5312968027
 40
0.6857229818
 40
0.8439381001
 40
1.0
 40
1.0
 40
1.0
 40
1.0
 10
10.9673480143
 20
8.7343237246
 30
0.0
 10
10.9678595485
 20
8.7347849999
 30
0.0
 10
10.9690483654
 20
8.7356984793
 30
0.0
 10
10.9711234859
 20
8.7369561925
 30
0.0
 10
10.9736307992
 20
8.738191773
 30
0.0
 10
10.9765737714
 20
8.739390303
 30
0.0
 10
10.9799460319
 20
8.7405355404
 30
0.0
 10
10.9852001652
 20
8.7420410583
 30
0.0
 10
10.9926405327
 20
8.7436715414
 30
0.0
 10
11.0023973265
 20
8.7451595784
 30
0.0
 10
11.0129073433
 20
8.7462211259
 30
0.0
 10
11.0237264537
 20
8.7468147564
 30
0.0
 10
11.0309910617
 20
8.7469229906
 30
0.0
 10
11.0345977708
 20
8.7469055813
 30
0.0
  0
SPLINE
  5
341
100
AcDbEntity
  8
0
100
AcDbSpline
 62
9
  6
CONTINUOUS
 70
0
 71
3
 72
18
 73
14
 74
0
 42
0.0000001
 43
0.0000001
 44
0.0000000001
 40
0.0
 40
0.0
 40
0.0
 40
0.0
 40
0.0318385036
 40
0.0685183781
 40
0.1101374782
 40
0.1566719245
 40
0.2079924201
 40
0.263905043
 40
0.3884767524
 40
0.5277313523
 40
0.6785045363
 40
0.8373417578
 40
1.0
 40
1.0
 40
1.0
 40
1.0
 10
11.1272938555
 20
8.7288227457
 30
0.0
 10
11.1267470604
 20
8.7293156938
 30
0.0
 10
11.125482351
 20
8.7302795146
 30
0.0
 10
11.1232927103
 20
8.7315866179
 30
0.0
 10
11.1206925694
 20
8.7328470556
 30
0.0
 10
11.11769806
 20
8.7340498195
 30
0.0
 10
11.1143281178
 20
8.7351884213
 30
0.0
 10
11.1091738868
 20
8.7366648987
 30
0.0
 10
11.1019483003
 20
8.7382626742
 30
0.0
 10
11.0924760191
 20
8.7397667099
 30
0.0
 10
11.0821520845
 20
8.7408733433
 30
0.0
 10
11.0712498799
 20
8.7415513177
 30
0.0
 10
11.0638151997
 20
8.7417070873
 30
0.0
 10
11.06005409
 20
8.7417094967
 30
0.0
  0
LINE
  5
342
100
AcDbEntity
  8
0
100
AcDbLine
 62
9
  6
CONTINUOUS
 10
11.2982150771
 20
7.2310517799
 11
11.2988235411
 21
7.2300538687
  0
SPLINE
  5
343
100
AcDbEntity
  8
0
100
AcDbSpline
 62
9
  6
CONTINUOUS
 70
0
 71
3
 72
10
 73
6
 74
0
 42
0.0000001
 43
0.0000001
 44
0.0000000001
 40
0.0
 40
0.0
 40
0.0
 40
0.0
 40
0.2209598481
 40
0.4619860854
 40
1.0
 40
1.0
 40
1.0
 40
1.0
 10
11.2988235411
 20
7.2300538687
 30
0.0
 10
11.3008804716
 20
7.2266914042
 30
0.0
 10
11.3052829559
 20
7.2197230082
 30
0.0
 10
11.3151866221
 20
7.2048841183
 30
0.0
 10
11.3233180376
 20
7.1936060541
 30
0.0
 10
11.3290871034
 20
7.1859357844
 30
0.0
  0
SPLINE
  5
344
100
AcDbEntity
  8
0
100
AcDbSpline
 62
9
  6
CONTINUOUS
 70
0
 71
3
 72
18
 73
14
 74
0
 42
0.0000001
 43
0.0000001
 44
0.0000000001
 40
0.0
 40
0.0
 40
0.0
 40
0.0
 40
0.0298039294
 40
0.0646554521
 40
0.1048530613
 40
0.1506214035
 40
0.2020567786
 40
0.2588783213
 40
0.3870427837
 40
0.5312958523
 40
0.6857232905
 40
0.8439371695
 40
1.0
 40
1.0
 40
1.0
 40
1.0
 10
11.1272886703
 20
8.7343237361
 30
0.0
 10
11.1267771351
 20
8.7347850132
 30
0.0
 10
11.12558831
 20
8.7356984922
 30
0.0
 10
11.1235131822
 20
8.7369562034
 30
0.0
 10
11.121005878
 20
8.7381917811
 30
0.0
 10
11.1180629302
 20
8.7393903244
 30
0.0
 10
11.1146906696
 20
8.7405355572
 30
0.0
 10
11.1094365178
 20
8.7420410346
 30
0.0
 10
11.1019961737
 20
8.7436715752
 30
0.0
 10
11.0922393673
 20
8.7451595813
 30
0.0
 10
11.0817293716
 20
8.7462211257
 30
0.0
 10
11.070910239
 20
8.7468148004
 30
0.0
 10
11.0636456373
 20
8.746922982
 30
0.0
 10
11.0600389062
 20
8.7469056028
 30
0.0
  0
SPLINE
  5
345
100
AcDbEntity
  8
0
100
AcDbSpline
 62
9
  6
CONTINUOUS
 70
0
 71
3
 72
11
 73
7
 74
0
 42
0.0000001
 43
0.0000001
 44
0.0000000001
 40
0.0
 40
0.0
 40
0.0
 40
0.0
 40
0.2476469537
 40
0.4996991784
 40
0.7519094178
 40
1.0
 40
1.0
 40
1.0
 40
1.0
 10
11.3290881838
 20
7.1859346522
 30
0.0
 10
11.3255964255
 20
7.1802037313
 30
0.0
 10
11.3175575315
 20
7.1692197114
 30
0.0
 10
11.3029775504
 20
7.1548570288
 30
0.0
 10
11.2861824259
 20
7.1431406419
 30
0.0
 10
11.2739023751
 20
7.137232646
 30
0.0
 10
11.2676206088
 20
7.1348374972
 30
0.0
  0
LINE
  5
346
100
AcDbEntity
  8
0
100
AcDbLine
 62
9
  6
CONTINUOUS
 10
11.2700737008
 20
7.1981479191
 11
11.2713882928
 21
7.1979551818
  0
SPLINE
  5
347
100
AcDbEntity
  8
0
100
AcDbSpline
 62
9
  6
CONTINUOUS
 70
0
 71
3
 72
12
 73
8
 74
0
 42
0.0000001
 43
0.0000001
 44
0.0000000001
 40
0.0
 40
0.0
 40
0.0
 40
0.0
 40
0.276399027
 40
0.4067209739
 40
0.5323370331
 40
0.7717733232
 40
1.0
 40
1.0
 40
1.0
 40
1.0
 10
11.2713882928
 20
7.1979551818
 30
0.0
 10
11.2767701799
 20
7.1971677675
 30
0.0
 10
11.2846942825
 20
7.1960394007
 30
0.0
 10
11.2950365093
 20
7.1943690419
 30
0.0
 10
11.3046300396
 20
7.1926362874
 30
0.0
 10
11.3160384066
 20
7.1901209132
 30
0.0
 10
11.3248592608
 20
7.1874470043
 30
0.0
 10
11.3290881838
 20
7.1859346522
 30
0.0
  0
SPLINE
  5
348
100
AcDbEntity
  8
0
100
AcDbSpline
 62
9
  6
CONTINUOUS
 70
0
 71
3
 72
18
 73
14
 74
0
 42
0.0000001
 43
0.0000001
 44
0.0000000001
 40
0.0
 40
0.0
 40
0.0
 40
0.0
 40
0.0252765292
 40
0.0567459996
 40
0.0945211707
 40
0.138690817
 40
0.1892392756
 40
0.2457725932
 40
0.3748149687
 40
0.5213474299
 40
0.6788760827
 40
0.8405309931
 40
1.0
 40
1.0
 40
1.0
 40
1.0
 10
11.1272938521
 20
7.9567998802
 30
0.0
 10
11.1267554103
 20
7.9569846431
 30
0.0
 10
11.1255265343
 20
7.9573405014
 30
0.0
 10
11.1234514804
 20
7.957817987
 30
0.0
 10
11.1209405012
 20
7.9582893441
 30
0.0
 10
11.1179917454
 20
7.9587483806
 30
0.0
 10
11.1146135983
 20
7.9591882609
 30
0.0
 10
11.1093275297
 20
7.9597708697
 30
0.0
 10
11.1018734833
 20
7.9604018866
 30
0.0
 10
11.0921360312
 20
7.9609822942
 30
0.0
 10
11.0816553554
 20
7.9614033114
 30
0.0
 10
11.0708778261
 20
7.9616487199
 30
0.0
 10
11.0636456101
 20
7.9617042584
 30
0.0
 10
11.0600541628
 20
7.9617051351
 30
0.0
  0
SPLINE
  5
349
100
AcDbEntity
  8
0
100
AcDbSpline
 62
9
  6
CONTINUOUS
 70
0
 71
3
 72
15
 73
11
 74
0
 42
0.0000001
 43
0.0000001
 44
0.0000000001
 40
0.0
 40
0.0
 40
0.0
 40
0.0
 40
0.3336396544
 40
0.4884901957
 40
0.6294282678
 40
0.7525626485
 40
0.8561367426
 40
0.9389636283
 40
0.9722622571
 40
1.0
 40
1.0
 40
1.0
 40
1.0
 10
11.1547804582
 20
7.9541457639
 30
0.0
 10
11.151704373
 20
7.9542304335
 30
0.0
 10
11.1472017216
 20
7.9544119994
 30
0.0
 10
11.1414079381
 20
7.9547824106
 30
0.0
 10
11.1375570584
 20
7.9551022593
 30
0.0
 10
11.1341855242
 20
7.9554692247
 30
0.0
 10
11.1313584492
 20
7.9558700096
 30
0.0
 10
11.1293648243
 20
7.95624029
 30
0.0
 10
11.1280757037
 20
7.9565558633
 30
0.0
 10
11.1275357859
 20
7.9567168439
 30
0.0
 10
11.1272938032
 20
7.9567998787
 30
0.0
  0
SPLINE
  5
34A
100
AcDbEntity
  8
0
100
AcDbSpline
 62
9
  6
CONTINUOUS
 70
0
 71
3
 72
15
 73
11
 74
0
 42
0.0000001
 43
0.0000001
 44
0.0000000001
 40
0.0
 40
0.0
 40
0.0
 40
0.0
 40
0.333639182
 40
0.4884895638
 40
0.629427566
 40
0.7525619754
 40
0.8561361923
 40
0.9389633015
 40
0.9722620809
 40
1.0
 40
1.0
 40
1.0
 40
1.0
 10
11.5191322417
 20
7.58979398
 30
0.0
 10
11.5192169112
 20
7.5867179022
 30
0.0
 10
11.5193984765
 20
7.582215261
 30
0.0
 10
11.5197688864
 20
7.5764214896
 30
0.0
 10
11.5200887338
 20
7.5725706154
 30
0.0
 10
11.5204556979
 20
7.5691990837
 30
0.0
 10
11.5208564815
 20
7.5663720079
 30
0.0
 10
11.5212267608
 20
7.5643783801
 30
0.0
 10
11.521542333
 20
7.5630892554
 30
0.0
 10
11.5217033131
 20
7.5625493349
 30
0.0
 10
11.5217863476
 20
7.5623073506
 30
0.0
  0
SPLINE
  5
34B
100
AcDbEntity
  8
0
100
AcDbSpline
 62
9
  6
CONTINUOUS
 70
0
 71
3
 72
14
 73
10
 74
0
 42
0.0000001
 43
0.0000001
 44
0.0000000001
 40
0.0
 40
0.0
 40
0.0
 40
0.0
 40
0.3219185849
 40
0.472812869
 40
0.611584216
 40
0.734820654
 40
0.841079511
 40
0.9295699433
 40
1.0
 40
1.0
 40
1.0
 40
1.0
 10
12.2868401493
 20
7.5897406191
 30
0.0
 10
12.2870629092
 20
7.5866761756
 30
0.0
 10
12.2875408088
 20
7.5821832041
 30
0.0
 10
12.2885078757
 20
7.5764252744
 30
0.0
 10
12.2893484061
 20
7.5725727769
 30
0.0
 10
12.2903163323
 20
7.5691910313
 30
0.0
 10
12.2913772181
 20
7.5663426583
 30
0.0
 10
12.2924959868
 20
7.5640683153
 30
0.0
 10
12.2933589786
 20
7.5628067649
 30
0.0
 10
12.2938090895
 20
7.5623074926
 30
0.0
  0
SPLINE
  5
34C
100
AcDbEntity
  8
0
100
AcDbSpline
 62
9
  6
CONTINUOUS
 70
0
 71
3
 72
12
 73
8
 74
0
 42
0.0000001
 43
0.0000001
 44
0.0000000001
 40
0.0
 40
0.0
 40
0.0
 40
0.0
 40
0.2781565785
 40
0.4104868069
 40
0.5381982978
 40
0.7791584293
 40
1.0
 40
1.0
 40
1.0
 40
1.0
 10
10.7655504751
 20
7.1859357962
 30
0.0
 10
10.7685215295
 20
7.1899057867
 30
0.0
 10
10.7728639067
 20
7.1957964518
 30
0.0
 10
10.7784282126
 20
7.2036126932
 30
0.0
 10
10.7835142296
 20
7.2109546048
 30
0.0
 10
10.7893445734
 20
7.2196990415
 30
0.0
 10
10.7937521566
 20
7.2266537997
 30
0.0
 10
10.7957976877
 20
7.2300175603
 30
0.0
  0
LINE
  5
34D
100
AcDbEntity
  8
0
100
AcDbLine
 62
9
  6
CONTINUOUS
 10
10.7957976877
 20
7.2300175603
 11
10.7964228143
 21
7.2310500721
  0
SPLINE
  5
34E
100
AcDbEntity
  8
0
100
AcDbSpline
 62
9
  6
CONTINUOUS
 70
0
 71
3
 72
20
 73
16
 74
0
 42
0.0000001
 43
0.0000001
 44
0.0000000001
 40
0.0
 40
0.0
 40
0.0
 40
0.0
 40
0.1818576385
 40
0.3584684959
 40
0.522591099
 40
0.5978397848
 40
0.6674494146
 40
0.7307431363
 40
0.7874465457
 40
0.8374335204
 40
0.8806855855
 40
0.9174704244
 40
0.9486839992
 40
0.9756325384
 40
1.0
 40
1.0
 40
1.0
 40
1.0
 10
12.2868436601
 20
7.5897407828
 30
0.0
 10
12.2865988326
 20
7.5931069726
 30
0.0
 10
12.2859799562
 20
7.5997333808
 30
0.0
 10
12.284634153
 20
7.6093420529
 30
0.0
 10
12.2831245205
 20
7.6169196124
 30
0.0
 10
12.2816925013
 20
7.6224736716
 30
0.0
 10
12.2805670865
 20
7.6261707544
 30
0.0
 10
12.2793644072
 20
7.62947981
 30
0.0
 10
12.2781013862
 20
7.6323734162
 30
0.0
 10
12.2767933448
 20
7.6348334107
 30
0.0
 10
12.2754534814
 20
7.6368466621
 30
0.0
 10
12.2740855248
 20
7.6384036959
 30
0.0
 10
12.2726996816
 20
7.6395111617
 30
0.0
 10
12.271303088
 20
7.6401782795
 30
0.0
 10
12.2703460309
 20
7.6403318254
 30
0.0
 10
12.2698937972
 20
7.6403318604
 30
0.0
  0
SPLINE
  5
34F
100
AcDbEntity
  8
0
100
AcDbSpline
 62
9
  6
CONTINUOUS
 70
0
 71
3
 72
18
 73
14
 74
0
 42
0.0000001
 43
0.0000001
 44
0.0000000001
 40
0.0
 40
0.0
 40
0.0
 40
0.0
 40
0.029803849
 40
0.0646551978
 40
0.1048528353
 40
0.1506217273
 40
0.2020572987
 40
0.2588782062
 40
0.3870428212
 40
0.5312968027
 40
0.6857229818
 40
0.8439381001
 40
1.0
 40
1.0
 40
1.0
 40
1.0
 10
12.2993102025
 20
7.5623021844
 30
0.0
 10
12.2997714778
 20
7.5617906502
 30
0.0
 10
12.3006849572
 20
7.5606018333
 30
0.0
 10
12.3019426704
 20
7.5585267128
 30
0.0
 10
12.3031782508
 20
7.5560193995
 30
0.0
 10
12.3043767809
 20
7.5530764273
 30
0.0
 10
12.3055220182
 20
7.5497041668
 30
0.0
 10
12.3070275362
 20
7.5444500335
 30
0.0
 10
12.3086580193
 20
7.537009666
 30
0.0
 10
12.3101460562
 20
7.5272528722
 30
0.0
 10
12.3112076038
 20
7.5167428554
 30
0.0
 10
12.3118012343
 20
7.505923745
 30
0.0
 10
12.3119094685
 20
7.498659137
 30
0.0
 10
12.3118920592
 20
7.4950524279
 30
0.0
  0
SPLINE
  5
350
100
AcDbEntity
  8
0
100
AcDbSpline
 62
9
  6
CONTINUOUS
 70
0
 71
3
 72
18
 73
14
 74
0
 42
0.0000001
 43
0.0000001
 44
0.0000000001
 40
0.0
 40
0.0
 40
0.0
 40
0.0
 40
0.0318384004
 40
0.0685183043
 40
0.1101375311
 40
0.15667217
 40
0.2079928724
 40
0.2639056713
 40
0.388477559
 40
0.527732153
 40
0.678505185
 40
0.8373421177
 40
1.0
 40
1.0
 40
1.0
 40
1.0
 10
12.2938092669
 20
7.5623073509
 30
0.0
 10
12.2943021963
 20
7.5617605445
 30
0.0
 10
12.2952659819
 20
7.5604958156
 30
0.0
 10
12.2965730453
 20
7.558306157
 30
0.0
 10
12.2978334577
 20
7.5557060026
 30
0.0
 10
12.2990362136
 20
7.5527114849
 30
0.0
 10
12.3001748195
 20
7.5493415386
 30
0.0
 10
12.3016513097
 20
7.5441873101
 30
0.0
 10
12.303249095
 20
7.5369617342
 30
0.0
 10
12.3047531475
 20
7.527489477
 30
0.0
 10
12.3058598131
 20
7.5171655794
 30
0.0
 10
12.3065377991
 20
7.5062634179
 30
0.0
 10
12.3066935618
 20
7.4988287689
 30
0.0
 10
12.306695966
 20
7.4950676757
 30
0.0
  0
SPLINE
  5
351
100
AcDbEntity
  8
0
100
AcDbSpline
 62
9
  6
CONTINUOUS
 70
0
 71
3
 72
18
 73
14
 74
0
 42
0.0000001
 43
0.0000001
 44
0.0000000001
 40
0.0
 40
0.0
 40
0.0
 40
0.0
 40
0.025276582
 40
0.056746107
 40
0.0945213333
 40
0.138691034
 40
0.1892395435
 40
0.2457729055
 40
0.3748153419
 40
0.5213478116
 40
0.6788764072
 40
0.8405311885
 40
1.0
 40
1.0
 40
1.0
 40
1.0
 10
11.5217863772
 20
7.5623074607
 30
0.0
 10
11.5219711399
 20
7.5617690167
 30
0.0
 10
11.5223269977
 20
7.5605401363
 30
0.0
 10
11.5228044824
 20
7.5584650754
 30
0.0
 10
11.5232758382
 20
7.5559540887
 30
0.0
 10
11.5237348732
 20
7.5530053249
 30
0.0
 10
11.5241747517
 20
7.5496271694
 30
0.0
 10
11.5247573575
 20
7.5443410896
 30
0.0
 10
11.52538837
 20
7.53688703
 30
0.0
 10
11.5259687715
 20
7.5271495639
 30
0.0
 10
11.526389782
 20
7.5166688775
 30
0.0
 10
11.5266351836
 20
7.5058913419
 30
0.0
 10
11.5266907174
 20
7.4986591233
 30
0.0
 10
11.5266915916
 20
7.4950676755
 30
0.0
  0
SPLINE
  5
352
100
AcDbEntity
  8
0
100
AcDbSpline
 62
9
  6
CONTINUOUS
 70
0
 71
3
 72
18
 73
14
 74
0
 42
0.0000001
 43
0.0000001
 44
0.0000000001
 40
0.0
 40
0.0
 40
0.0
 40
0.0
 40
0.0318385036
 40
0.0685183781
 40
0.1101374782
 40
0.1566719245
 40
0.2079924201
 40
0.263905043
 40
0.3884767524
 40
0.5277313523
 40
0.6785045363
 40
0.8373417578
 40
1.0
 40
1.0
 40
1.0
 40
1.0
 10
12.2938092236
 20
7.4023563432
 30
0.0
 10
12.2943021717
 20
7.4029031383
 30
0.0
 10
12.2952659925
 20
7.4041678477
 30
0.0
 10
12.2965730958
 20
7.4063574884
 30
0.0
 10
12.2978335335
 20
7.4089576293
 30
0.0
 10
12.2990362974
 20
7.4119521387
 30
0.0
 10
12.3001748992
 20
7.4153220809
 30
0.0
 10
12.3016513766
 20
7.4204763119
 30
0.0
 10
12.3032491521
 20
7.4277018984
 30
0.0
 10
12.3047531878
 20
7.4371741796
 30
0.0
 10
12.3058598212
 20
7.4474981141
 30
0.0
 10
12.3065377956
 20
7.4584003188
 30
0.0
 10
12.3066935651
 20
7.4658349989
 30
0.0
 10
12.3066959745
 20
7.4695961087
 30
0.0
  0
SPLINE
  5
353
100
AcDbEntity
  8
0
100
AcDbSpline
 62
9
  6
CONTINUOUS
 70
0
 71
3
 72
18
 73
14
 74
0
 42
0.0000001
 43
0.0000001
 44
0.0000000001
 40
0.0
 40
0.0
 40
0.0
 40
0.0
 40
0.0252765308
 40
0.0567460027
 40
0.0945211754
 40
0.1386908235
 40
0.189239284
 40
0.2457726037
 40
0.3748149834
 40
0.5213474479
 40
0.6788761008
 40
0.8405310057
 40
1.0
 40
1.0
 40
1.0
 40
1.0
 10
11.5217863671
 20
7.4023563284
 30
0.0
 10
11.5219711297
 20
7.4028947705
 30
0.0
 10
11.5223269875
 20
7.404123647
 30
0.0
 10
11.5228044721
 20
7.4061987017
 30
0.0
 10
11.5232758281
 20
7.4087096819
 30
0.0
 10
11.5237348632
 20
7.4116584387
 30
0.0
 10
11.524174742
 20
7.415036587
 30
0.0
 10
11.5247573485
 20
7.4203226573
 30
0.0
 10
11.525388362
 20
7.4277767059
 30
0.0
 10
11.5259687651
 20
7.4375141608
 30
0.0
 10
11.5263897776
 20
7.4479948392
 30
0.0
 10
11.5266351811
 20
7.4587723707
 30
0.0
 10
11.5266907163
 20
7.466004588
 30
0.0
 10
11.5266915912
 20
7.4695960359
 30
0.0
  0
SPLINE
  5
354
100
AcDbEntity
  8
0
100
AcDbSpline
 62
9
  6
CONTINUOUS
 70
0
 71
3
 72
15
 73
11
 74
0
 42
0.0000001
 43
0.0000001
 44
0.0000000001
 40
0.0
 40
0.0
 40
0.0
 40
0.0
 40
0.3336391254
 40
0.4884895758
 40
0.6294276647
 40
0.7525621576
 40
0.8561364199
 40
0.9389634841
 40
0.972262192
 40
1.0
 40
1.0
 40
1.0
 40
1.0
 10
11.5191322417
 20
7.3748697404
 30
0.0
 10
11.5192169113
 20
7.3779458207
 30
0.0
 10
11.5193984768
 20
7.3824484665
 30
0.0
 10
11.5197688873
 20
7.3882422444
 30
0.0
 10
11.5200887357
 20
7.3920931245
 30
0.0
 10
11.520455701
 20
7.3954646614
 30
0.0
 10
11.5208564861
 20
7.3982917406
 30
0.0
 10
11.5212267669
 20
7.4002853694
 30
0.0
 10
11.5215423406
 20
7.401574493
 30
0.0
 10
11.5217033216
 20
7.4021144121
 30
0.0
 10
11.5217863566
 20
7.4023563954
 30
0.0
  0
SPLINE
  5
355
100
AcDbEntity
  8
0
100
AcDbSpline
 62
9
  6
CONTINUOUS
 70
0
 71
3
 72
15
 73
11
 74
0
 42
0.0000001
 43
0.0000001
 44
0.0000000001
 40
0.0
 40
0.0
 40
0.0
 40
0.0
 40
0.3336392796
 40
0.4884896893
 40
0.6294277097
 40
0.7525621336
 40
0.856136347
 40
0.9389634103
 40
0.9722621442
 40
1.0
 40
1.0
 40
1.0
 40
1.0
 10
11.1547805425
 20
7.0105179541
 30
0.0
 10
11.1517044783
 20
7.010433284
 30
0.0
 10
11.1472018572
 20
7.0102517179
 30
0.0
 10
11.1414081119
 20
7.0098813075
 30
0.0
 10
11.1375572555
 20
7.0095614599
 30
0.0
 10
11.1341857396
 20
7.0091944957
 30
0.0
 10
11.1313586777
 20
7.0087937121
 30
0.0
 10
11.1293650606
 20
7.0084234328
 30
0.0
 10
11.1280759438
 20
7.0081078604
 30
0.0
 10
11.1275360271
 20
7.0079468802
 30
0.0
 10
11.1272940447
 20
7.0078638456
 30
0.0
  0
SPLINE
  5
356
100
AcDbEntity
  8
0
100
AcDbSpline
 62
9
  6
CONTINUOUS
 70
0
 71
3
 72
14
 73
10
 74
0
 42
0.0000001
 43
0.0000001
 44
0.0000000001
 40
0.0
 40
0.0
 40
0.0
 40
0.0
 40
0.3219185847
 40
0.4728128688
 40
0.6115842157
 40
0.7348206538
 40
0.8410795109
 40
0.9295699432
 40
1.0
 40
1.0
 40
1.0
 40
1.0
 10
11.154727097
 20
6.2428100494
 30
0.0
 10
11.1516626535
 20
6.2425872895
 30
0.0
 10
11.147169682
 20
6.2421093899
 30
0.0
 10
11.1414117523
 20
6.241142323
 30
0.0
 10
11.1375592548
 20
6.2403017926
 30
0.0
 10
11.1341775091
 20
6.2393338664
 30
0.0
 10
11.1313291362
 20
6.2382729806
 30
0.0
 10
11.1290547931
 20
6.2371542119
 30
0.0
 10
11.1277932428
 20
6.2362912201
 30
0.0
 10
11.1272939705
 20
6.2358411092
 30
0.0
  0
SPLINE
  5
357
100
AcDbEntity
  8
0
100
AcDbSpline
 62
9
  6
CONTINUOUS
 70
0
 71
3
 72
12
 73
8
 74
0
 42
0.0000001
 43
0.0000001
 44
0.0000000001
 40
0.0
 40
0.0
 40
0.0
 40
0.0
 40
0.2781565421
 40
0.4104867603
 40
0.5381982468
 40
0.7791583892
 40
1.0
 40
1.0
 40
1.0
 40
1.0
 10
10.7509223621
 20
7.7640996574
 30
0.0
 10
10.7548923443
 20
7.76112861
 30
0.0
 10
10.7607829972
 20
7.7567862431
 30
0.0
 10
10.7685992223
 20
7.7512219501
 30
0.0
 10
10.7759411192
 20
7.7461359444
 30
0.0
 10
10.7846855389
 20
7.7403056128
 30
0.0
 10
10.7916402837
 20
7.7358980384
 30
0.0
 10
10.795004038
 20
7.7338525112
 30
0.0
  0
LINE
  5
358
100
AcDbEntity
  8
0
100
AcDbLine
 62
9
  6
CONTINUOUS
 10
10.795004038
 20
7.7338525112
 11
10.7960365499
 21
7.7332273845
  0
LINE
  5
359
100
AcDbEntity
  8
0
100
AcDbLine
 62
9
  6
CONTINUOUS
 10
10.8245065876
 20
7.1981934804
 11
10.8241975567
 21
7.1981481809
  0
SPLINE
  5
35A
100
AcDbEntity
  8
0
100
AcDbSpline
 62
9
  6
CONTINUOUS
 70
0
 71
3
 72
13
 73
9
 74
0
 42
0.0000001
 43
0.0000001
 44
0.0000000001
 40
0.0
 40
0.0
 40
0.0
 40
0.0
 40
0.2763347024
 40
0.4067563589
 40
0.5325651877
 40
0.6541579074
 40
0.7720639454
 40
1.0
 40
1.0
 40
1.0
 40
1.0
 10
10.8241975567
 20
7.1981481809
 30
0.0
 10
10.8187290997
 20
7.1973463239
 30
0.0
 10
10.8106821159
 20
7.1961483624
 30
0.0
 10
10.8001660062
 20
7.1944522128
 30
0.0
 10
10.792725946
 20
7.1931265581
 30
0.0
 10
10.7855661312
 20
7.1916631801
 30
0.0
 10
10.7764759672
 20
7.1894736413
 30
0.0
 10
10.7698462484
 20
7.1874622537
 30
0.0
 10
10.7655504751
 20
7.1859357962
 30
0.0
  0
SPLINE
  5
35B
100
AcDbEntity
  8
0
100
AcDbSpline
 62
9
  6
CONTINUOUS
 70
0
 71
3
 72
20
 73
16
 74
0
 42
0.0000001
 43
0.0000001
 44
0.0000000001
 40
0.0
 40
0.0
 40
0.0
 40
0.0
 40
0.1818576385
 40
0.3584684959
 40
0.522591099
 40
0.5978397848
 40
0.6674494146
 40
0.7307431363
 40
0.7874465457
 40
0.8374335204
 40
0.8806855855
 40
0.9174704244
 40
0.9486839992
 40
0.9756325384
 40
1.0
 40
1.0
 40
1.0
 40
1.0
 10
11.1547272607
 20
6.2428065386
 30
0.0
 10
11.1580934505
 20
6.2430513661
 30
0.0
 10
11.1647198587
 20
6.2436702425
 30
0.0
 10
11.1743285307
 20
6.2450160457
 30
0.0
 10
11.1819060903
 20
6.2465256782
 30
0.0
 10
11.1874601495
 20
6.2479576974
 30
0.0
 10
11.1911572323
 20
6.2490831122
 30
0.0
 10
11.1944662879
 20
6.2502857915
 30
0.0
 10
11.1973598941
 20
6.2515488124
 30
0.0
 10
11.1998198886
 20
6.2528568539
 30
0.0
 10
11.20183314
 20
6.2541967173
 30
0.0
 10
11.2033901738
 20
6.2555646739
 30
0.0
 10
11.2044976396
 20
6.2569505171
 30
0.0
 10
11.2051647574
 20
6.2583471107
 30
0.0
 10
11.2053183033
 20
6.2593041678
 30
0.0
 10
11.2053183383
 20
6.2597564015
 30
0.0
  0
LINE
  5
35C
100
AcDbEntity
  8
0
100
AcDbLine
 62
9
  6
CONTINUOUS
 10
10.7631799698
 20
7.7051436285
 11
10.763134671
 21
7.7054526582
  0
SPLINE
  5
35D
100
AcDbEntity
  8
0
100
AcDbSpline
 62
9
  6
CONTINUOUS
 70
0
 71
3
 72
13
 73
9
 74
0
 42
0.0000001
 43
0.0000001
 44
0.0000000001
 40
0.0
 40
0.0
 40
0.0
 40
0.0
 40
0.276334924
 40
0.406756598
 40
0.5325654004
 40
0.6541580876
 40
0.7720640986
 40
1.0
 40
1.0
 40
1.0
 40
1.0
 10
10.763134671
 20
7.7054526582
 30
0.0
 10
10.7623328249
 20
7.7109211125
 30
0.0
 10
10.7611348835
 20
7.7189680913
 30
0.0
 10
10.7594387465
 20
7.7294841906
 30
0.0
 10
10.7581130993
 20
7.7369242393
 30
0.0
 10
10.7566497306
 20
7.7440840426
 30
0.0
 10
10.7544602098
 20
7.7531741913
 30
0.0
 10
10.7524488288
 20
7.7598038981
 30
0.0
 10
10.7509223621
 20
7.7640996574
 30
0.0
  0
SPLINE
  5
35E
100
AcDbEntity
  8
0
100
AcDbSpline
 62
9
  6
CONTINUOUS
 70
0
 71
3
 72
11
 73
7
 74
0
 42
0.0000001
 43
0.0000001
 44
0.0000000001
 40
0.0
 40
0.0
 40
0.0
 40
0.0
 40
0.2480905171
 40
0.5003007293
 40
0.7523529753
 40
1.0
 40
1.0
 40
1.0
 40
1.0
 10
10.8270165041
 20
7.1348387159
 30
0.0
 10
10.8207348212
 20
7.1372338507
 30
0.0
 10
10.8084549352
 20
7.1431418029
 30
0.0
 10
10.791660041
 20
7.1548580842
 30
0.0
 10
10.7770802645
 20
7.1692206244
 30
0.0
 10
10.7690414878
 20
7.1802045295
 30
0.0
 10
10.7655497818
 20
7.1859353895
 30
0.0
  0
SPLINE
  5
35F
100
AcDbEntity
  8
0
100
AcDbSpline
 62
9
  6
CONTINUOUS
 70
0
 71
3
 72
11
 73
7
 74
0
 42
0.0000001
 43
0.0000001
 44
0.0000000001
 40
0.0
 40
0.0
 40
0.0
 40
0.0
 40
0.2480905137
 40
0.5003007275
 40
0.7523529759
 40
1.0
 40
1.0
 40
1.0
 40
1.0
 10
10.6998252908
 20
7.7026335658
 30
0.0
 10
10.7022204219
 20
7.7089152539
 30
0.0
 10
10.7081283684
 20
7.7211951511
 30
0.0
 10
10.7198446454
 20
7.7379900622
 30
0.0
 10
10.7342071859
 20
7.7525698546
 30
0.0
 10
10.7451910936
 20
7.7606086407
 30
0.0
 10
10.7509219553
 20
7.764100351
 30
0.0
  0
SPLINE
  5
360
100
AcDbEntity
  8
0
100
AcDbSpline
 62
9
  6
CONTINUOUS
 70
0
 71
3
 72
18
 73
14
 74
0
 42
0.0000001
 43
0.0000001
 44
0.0000000001
 40
0.0
 40
0.0
 40
0.0
 40
0.0
 40
0.0318384014
 40
0.0685183065
 40
0.1101375347
 40
0.1566721751
 40
0.207992879
 40
0.2639056794
 40
0.3884775693
 40
0.5277321639
 40
0.6785051948
 40
0.8373421243
 40
1.0
 40
1.0
 40
1.0
 40
1.0
 10
11.127293828
 20
6.2358409311
 30
0.0
 10
11.1267470214
 20
6.2353480016
 30
0.0
 10
11.1254822923
 20
6.2343842159
 30
0.0
 10
11.1232926332
 20
6.2330771525
 30
0.0
 10
11.1206924783
 20
6.23181674
 30
0.0
 10
11.11769796
 20
6.2306139841
 30
0.0
 10
11.1143280131
 20
6.2294753781
 30
0.0
 10
11.1091737838
 20
6.2279988879
 30
0.0
 10
11.1019482068
 20
6.2264011026
 30
0.0
 10
11.0924759482
 20
6.2248970503
 30
0.0
 10
11.0821520493
 20
6.2237903849
 30
0.0
 10
11.0712498865
 20
6.2231123992
 30
0.0
 10
11.0638152368
 20
6.2229566368
 30
0.0
 10
11.0600541433
 20
6.2229542327
 30
0.0
  0
SPLINE
  5
361
100
AcDbEntity
  8
0
100
AcDbSpline
 62
9
  6
CONTINUOUS
 70
0
 71
3
 72
18
 73
14
 74
0
 42
0.0000001
 43
0.0000001
 44
0.0000000001
 40
0.0
 40
0.0
 40
0.0
 40
0.0
 40
0.0252763368
 40
0.056745644
 40
0.0945206855
 40
0.1386902394
 40
0.1892386423
 40
0.245771937
 40
0.3748143573
 40
0.521346954
 40
0.6788757805
 40
0.8405308617
 40
1.0
 40
1.0
 40
1.0
 40
1.0
 10
11.1272941031
 20
7.007862684
 30
0.0
 10
11.1267556571
 20
7.007677945
 30
0.0
 10
11.1255267726
 20
7.0073221416
 30
0.0
 10
11.1234517068
 20
7.006844749
 30
0.0
 10
11.1209407133
 20
7.0063735044
 30
0.0
 10
11.117991941
 20
7.0059145998
 30
0.0
 10
11.1146137754
 20
7.0054748704
 30
0.0
 10
11.1093276774
 20
7.0048924976
 30
0.0
 10
11.1018735935
 20
7.0042618136
 30
0.0
 10
11.0921360999
 20
7.0036818411
 30
0.0
 10
11.0816553864
 20
7.003261292
 30
0.0
 10
11.0708778271
 20
7.0030163648
 30
0.0
 10
11.0636455963
 20
7.0029611491
 30
0.0
 10
11.0600541432
 20
7.0029604328
 30
0.0
  0
SPLINE
  5
362
100
AcDbEntity
  8
0
100
AcDbSpline
 62
9
  6
CONTINUOUS
 70
0
 71
3
 72
17
 73
13
 74
0
 42
0.0000001
 43
0.0000001
 44
0.0000000001
 40
0.0
 40
0.0
 40
0.0
 40
0.0
 40
0.1169156363
 40
0.2417834389
 40
0.3066225371
 40
0.3725523141
 40
0.5058150404
 40
0.6382127892
 40
0.7031011056
 40
0.7665325375
 40
0.8876568687
 40
1.0
 40
1.0
 40
1.0
 40
1.0
 10
10.4995937674
 20
6.6963475626
 30
0.0
 10
10.4939233088
 20
6.6977574371
 30
0.0
 10
10.482388508
 20
6.7014872425
 30
0.0
 10
10.4684843405
 20
6.7080322302
 30
0.0
 10
10.4574980729
 20
6.7145692505
 30
0.0
 10
10.4466023366
 20
6.7220255105
 30
0.0
 10
10.4338274791
 20
6.7326581215
 30
0.0
 10
10.422589208
 20
6.744834848
 30
0.0
 10
10.4147142232
 20
6.7552255387
 30
0.0
 10
10.4078493227
 20
6.7656416585
 30
0.0
 10
10.4009591382
 20
6.7788363043
 30
0.0
 10
10.397002741
 20
6.7898605524
 30
0.0
 10
10.395510942
 20
6.7952733214
 30
0.0
  0
SPLINE
  5
363
100
AcDbEntity
  8
0
100
AcDbSpline
 62
9
  6
CONTINUOUS
 70
0
 71
3
 72
17
 73
13
 74
0
 42
0.0000001
 43
0.0000001
 44
0.0000000001
 40
0.0
 40
0.0
 40
0.0
 40
0.0
 40
0.1169156366
 40
0.2417834394
 40
0.3066225377
 40
0.3725523148
 40
0.5058150411
 40
0.6382127899
 40
0.7031011062
 40
0.766532538
 40
0.887656869
 40
1.0
 40
1.0
 40
1.0
 40
1.0
 10
10.2613340418
 20
8.0300564308
 30
0.0
 10
10.2627439163
 20
8.0357268894
 30
0.0
 10
10.2664737217
 20
8.0472616902
 30
0.0
 10
10.2730187093
 20
8.0611658577
 30
0.0
 10
10.2795557296
 20
8.0721521253
 30
0.0
 10
10.2870119894
 20
8.0830478617
 30
0.0
 10
10.2976446004
 20
8.0958227192
 30
0.0
 10
10.3098213269
 20
8.1070609904
 30
0.0
 10
10.3202120175
 20
8.1149359751
 30
0.0
 10
10.3306281372
 20
8.1218008756
 30
0.0
 10
10.343822783
 20
8.1286910602
 30
0.0
 10
10.3548470311
 20
8.1326474574
 30
0.0
 10
10.3602598
 20
8.1341392563
 30
0.0
  0
SPLINE
  5
364
100
AcDbEntity
  8
0
100
AcDbSpline
 62
9
  6
CONTINUOUS
 70
0
 71
3
 72
26
 73
22
 74
0
 42
0.0000001
 43
0.0000001
 44
0.0000000001
 40
0.0
 40
0.0
 40
0.0
 40
0.0
 40
0.0194617047
 40
0.0393491254
 40
0.0598429911
 40
0.0810933451
 40
0.103163177
 40
0.1260763418
 40
0.1498400406
 40
0.1744541582
 40
0.2262220491
 40
0.2813368096
 40
0.3397211479
 40
0.4012965184
 40
0.4659939456
 40
0.5337448881
 40
0.6044782223
 40
0.6781128779
 40
0.7545678032
 40
0.8337659463
 40
1.0
 40
1.0
 40
1.0
 40
1.0
 10
10.8270162491
 20
7.1348379223
 30
0.0
 10
10.8259734641
 20
7.131433076
 30
0.0
 10
10.8236379636
 20
7.1246165052
 30
0.0
 10
10.8194566196
 20
7.1144902566
 30
0.0
 10
10.8145693721
 20
7.1043212663
 30
0.0
 10
10.8089867716
 20
7.0940617014
 30
0.0
 10
10.8027865591
 20
7.0836464536
 30
0.0
 10
10.7960465299
 20
7.0730245707
 30
0.0
 10
10.7888522132
 20
7.0621429768
 30
0.0
 10
10.7785183689
 20
7.0470103203
 30
0.0
 10
10.7645739768
 20
7.0274005295
 30
0.0
 10
10.7466515159
 20
7.0030439319
 30
0.0
 10
10.7273701688
 20
6.977462176
 30
0.0
 10
10.7068111094
 20
6.9506495829
 30
0.0
 10
10.6850116436
 20
6.9226295822
 30
0.0
 10
10.6619976169
 20
6.8934324548
 30
0.0
 10
10.6377897011
 20
6.8630950812
 30
0.0
 10
10.6124050534
 20
6.8316600966
 30
0.0
 10
10.5858572728
 20
6.7991744546
 30
0.0
 10
10.5483036937
 20
6.7538031953
 30
0.0
 10
10.5193393198
 20
6.7194832397
 30
0.0
 10
10.4995937674
 20
6.6963475626
 30
0.0
  0
SPLINE
  5
365
100
AcDbEntity
  8
0
100
AcDbSpline
 62
9
  6
CONTINUOUS
 70
0
 71
3
 72
27
 73
23
 74
0
 42
0.0000001
 43
0.0000001
 44
0.0000000001
 40
0.0
 40
0.0
 40
0.0
 40
0.0
 40
0.0194683165
 40
0.039352406
 40
0.0598381047
 40
0.081085155
 40
0.1031566065
 40
0.1260734581
 40
0.1498391823
 40
0.1744532127
 40
0.2262191049
 40
0.2813343301
 40
0.3397188312
 40
0.4012932679
 40
0.4659897058
 40
0.5337407359
 40
0.6044749639
 40
0.6781087855
 40
0.7545628232
 40
0.8337654467
 40
0.9156199671
 40
1.0
 40
1.0
 40
1.0
 40
1.0
 10
11.2676200006
 20
7.1348391788
 30
0.0
 10
11.2686857121
 20
7.1314401769
 30
0.0
 10
11.2710387972
 20
7.1246302037
 30
0.0
 10
11.2752017744
 20
7.1144978573
 30
0.0
 10
11.2800627148
 20
7.10431905
 30
0.0
 10
11.2856397462
 20
7.0940581572
 30
0.0
 10
11.291843995
 20
7.0836448744
 30
0.0
 10
11.2985906848
 20
7.0730256705
 30
0.0
 10
11.3057867311
 20
7.0621440481
 30
0.0
 10
11.3161197415
 20
7.0470108795
 30
0.0
 10
11.3300611674
 20
7.0273993731
 30
0.0
 10
11.3479863134
 20
7.0030451008
 30
0.0
 10
11.3672672216
 20
6.9774631737
 30
0.0
 10
11.3878250773
 20
6.9506501272
 30
0.0
 10
11.4096237609
 20
6.9226300148
 30
0.0
 10
11.4326383725
 20
6.8934334229
 30
0.0
 10
11.4568470868
 20
6.8630967382
 30
0.0
 10
11.4822301208
 20
6.8316607313
 30
0.0
 10
11.5087763064
 20
6.7991732357
 30
0.0
 10
11.5364900387
 20
6.7656984099
 30
0.0
 10
11.5653474734
 20
6.7312889448
 30
0.0
 10
11.5850246333
 20
6.708094788
 30
0.0
 10
11.5950429674
 20
6.6963473947
 30
0.0
  0
LINE
  5
366
100
AcDbEntity
  8
0
100
AcDbLine
 62
9
  6
CONTINUOUS
 10
11.2606303421
 20
7.18542566
 11
11.2606785285
 21
7.1839835165
  0
SPLINE
  5
367
100
AcDbEntity
  8
0
100
AcDbSpline
 62
9
  6
CONTINUOUS
 70
0
 71
3
 72
12
 73
8
 74
0
 42
0.0000001
 43
0.0000001
 44
0.0000000001
 40
0.0
 40
0.0
 40
0.0
 40
0.0
 40
0.2634012144
 40
0.3902432907
 40
0.5147022535
 40
0.7587126517
 40
1.0
 40
1.0
 40
1.0
 40
1.0
 10
11.2606785285
 20
7.1839835165
 30
0.0
 10
11.2608319236
 20
7.1796178006
 30
0.0
 10
11.2611613553
 20
7.1731514667
 30
0.0
 10
11.2619352507
 20
7.164649318
 30
0.0
 10
11.2629330458
 20
7.1564944209
 30
0.0
 10
11.2646441217
 20
7.1465198617
 30
0.0
 10
11.26654524
 20
7.1386916254
 30
0.0
 10
11.2676212224
 20
7.1348373365
 30
0.0
  0
SPLINE
  5
368
100
AcDbEntity
  8
0
100
AcDbSpline
 62
9
  6
CONTINUOUS
 70
0
 71
3
 72
12
 73
8
 74
0
 42
0.0000001
 43
0.0000001
 44
0.0000000001
 40
0.0
 40
0.0
 40
0.0
 40
0.0
 40
0.2416234316
 40
0.4858229641
 40
0.6102929748
 40
0.7370704988
 40
1.0
 40
1.0
 40
1.0
 40
1.0
 10
10.8270170203
 20
7.1348383072
 30
0.0
 10
10.8280751001
 20
7.1386278093
 30
0.0
 10
10.8299483815
 20
7.1463207975
 30
0.0
 10
10.8316460822
 20
7.1561197757
 30
0.0
 10
10.8326444214
 20
7.1641264397
 30
0.0
 10
10.833425033
 20
7.1724636324
 30
0.0
 10
10.8337637372
 20
7.1788030074
 30
0.0
 10
10.8339235464
 20
7.1830814037
 30
0.0
  0
LINE
  5
369
100
AcDbEntity
  8
0
100
AcDbLine
 62
9
  6
CONTINUOUS
 10
10.750412011
 20
7.2690199569
 11
10.7489698675
 21
7.268971777
  0
SPLINE
  5
36A
100
AcDbEntity
  8
0
100
AcDbSpline
 62
9
  6
CONTINUOUS
 70
0
 71
3
 72
12
 73
8
 74
0
 42
0.0000001
 43
0.0000001
 44
0.0000000001
 40
0.0
 40
0.0
 40
0.0
 40
0.0
 40
0.2634013991
 40
0.3902434203
 40
0.5147023209
 40
0.758712635
 40
1.0
 40
1.0
 40
1.0
 40
1.0
 10
10.7489698675
 20
7.268971777
 30
0.0
 10
10.7446041672
 20
7.268818401
 30
0.0
 10
10.7381378587
 20
7.268488984
 30
0.0
 10
10.7296357464
 20
7.2677150922
 30
0.0
 10
10.7214808894
 20
7.2667172961
 30
0.0
 10
10.711506379
 20
7.2650062124
 30
0.0
 10
10.7036781821
 20
7.2631050875
 30
0.0
 10
10.6998239118
 20
7.2620291033
 30
0.0
  0
SPLINE
  5
36B
100
AcDbEntity
  8
0
100
AcDbSpline
 62
9
  6
CONTINUOUS
 70
0
 71
3
 72
27
 73
23
 74
0
 42
0.0000001
 43
0.0000001
 44
0.0000000001
 40
0.0
 40
0.0
 40
0.0
 40
0.0
 40
0.019468314
 40
0.039352406
 40
0.0598380905
 40
0.0810851249
 40
0.1031565751
 40
0.1260734346
 40
0.1498391681
 40
0.1744532027
 40
0.2262190905
 40
0.2813343101
 40
0.3397188115
 40
0.4012932488
 40
0.46598968
 40
0.5337407077
 40
0.604474945
 40
0.6781087706
 40
0.7545628049
 40
0.8337654332
 40
0.9156199634
 40
1.0
 40
1.0
 40
1.0
 40
1.0
 10
10.6998257537
 20
7.2620303268
 30
0.0
 10
10.6964267669
 20
7.2609645657
 30
0.0
 10
10.6896168138
 20
7.2586114219
 30
0.0
 10
10.6794844703
 20
7.2544484412
 30
0.0
 10
10.6693056417
 20
7.2495875517
 30
0.0
 10
10.6590447297
 20
7.2440105606
 30
0.0
 10
10.6486314382
 20
7.2378063231
 30
0.0
 10
10.6380122387
 20
7.2310596148
 30
0.0
 10
10.6271306296
 20
7.2238635357
 30
0.0
 10
10.6119974579
 20
7.2135305191
 30
0.0
 10
10.5923859403
 20
7.1995891007
 30
0.0
 10
10.5680316619
 20
7.1816639534
 30
0.0
 10
10.5424497311
 20
7.1623830384
 30
0.0
 10
10.5156366813
 20
7.141825175
 30
0.0
 10
10.4876165575
 20
7.1200264946
 30
0.0
 10
10.4584199556
 20
7.0970118808
 30
0.0
 10
10.4280832716
 20
7.0728031472
 30
0.0
 10
10.3966472569
 20
7.0474201042
 30
0.0
 10
10.3641597451
 20
7.0208739207
 30
0.0
 10
10.3306849096
 20
6.9931601801
 30
0.0
 10
10.2962754369
 20
6.9643027322
 30
0.0
 10
10.273081272
 20
6.9446255665
 30
0.0
 10
10.2613338733
 20
6.9346072318
 30
0.0
  0
LINE
  5
36C
100
AcDbEntity
  8
0
100
AcDbLine
 62
9
  6
CONTINUOUS
 10
11.859093819
 20
6.3889941344
 11
11.2053183913
 21
6.3899187053
  0
LINE
  5
36D
100
AcDbEntity
  8
0
100
AcDbLine
 62
9
  6
CONTINUOUS
 10
10.8893182859
 20
6.3899186382
 11
10.2355467294
 21
6.3889941412
  0
SPLINE
  5
36E
100
AcDbEntity
  8
0
100
AcDbSpline
 62
9
  6
CONTINUOUS
 70
0
 71
3
 72
21
 73
17
 74
0
 42
0.0000001
 43
0.0000001
 44
0.0000000001
 40
0.0
 40
0.0
 40
0.0
 40
0.0
 40
0.0623461893
 40
0.1247590128
 40
0.1872573576
 40
0.249785231
 40
0.3122756049
 40
0.3747794594
 40
0.4373478963
 40
0.4999314246
 40
0.6249349885
 40
0.68748918
 40
0.7500332627
 40
0.8125949612
 40
0.8751480668
 40
1.0
 40
1.0
 40
1.0
 40
1.0
 10
10.0476281338
 20
6.5820043977
 30
0.0
 10
10.0446675609
 20
6.5821154404
 30
0.0
 10
10.0387498068
 20
6.5825841697
 30
0.0
 10
10.0299550099
 20
6.5839922137
 30
0.0
 10
10.0212836441
 20
6.5860635611
 30
0.0
 10
10.0127890092
 20
6.5887849293
 30
0.0
 10
10.0045510451
 20
6.5922131142
 30
0.0
 10
9.9966649549
 20
6.5963956944
 30
0.0
 10
9.9892268836
 20
6.6013431855
 30
0.0
 10
9.9800286344
 20
6.6088976677
 30
0.0
 10
9.9720715916
 20
6.6178701176
 30
0.0
 10
9.9656830842
 20
6.6279120322
 30
0.0
 10
9.961708318
 20
6.6359133124
 30
0.0
 10
9.9585549007
 20
6.6442706016
 30
0.0
 10
9.9554564748
 20
6.6557519815
 30
0.0
 10
9.9542989052
 20
6.6646358751
 30
0.0
 10
9.9539788427
 20
6.6705601268
 30
0.0
  0
SPLINE
  5
36F
100
AcDbEntity
  8
0
100
AcDbSpline
 62
9
  6
CONTINUOUS
 70
0
 71
3
 72
17
 73
13
 74
0
 42
0.0000001
 43
0.0000001
 44
0.0000000001
 40
0.0
 40
0.0
 40
0.0
 40
0.0
 40
0.1123431848
 40
0.2334675808
 40
0.2968990448
 40
0.3617873906
 40
0.4941851824
 40
0.6274479185
 40
0.693377685
 40
0.7582167614
 40
0.8830844853
 40
1.0
 40
1.0
 40
1.0
 40
1.0
 10
10.3602599223
 20
6.8305246046
 30
0.0
 10
10.354847152
 20
6.8320163988
 30
0.0
 10
10.3438228993
 20
6.8359727841
 30
0.0
 10
10.3306282431
 20
6.8428629494
 30
0.0
 10
10.320212111
 20
6.8497278321
 30
0.0
 10
10.3098214062
 20
6.8576027967
 30
0.0
 10
10.2976446587
 20
6.8688410396
 30
0.0
 10
10.2870120218
 20
6.881615868
 30
0.0
 10
10.2795557399
 20
6.8925115805
 30
0.0
 10
10.2730186988
 20
6.9034978224
 30
0.0
 10
10.266473685
 20
6.9174019573
 30
0.0
 10
10.2627438573
 20
6.9289367345
 30
0.0
 10
10.2613339724
 20
6.9346071815
 30
0.0
  0
LINE
  5
370
100
AcDbEntity
  8
0
100
AcDbLine
 62
9
  6
CONTINUOUS
 10
10.7631344124
 20
7.2595764934
 11
10.7629416773
 21
7.2582619005
  0
SPLINE
  5
371
100
AcDbEntity
  8
0
100
AcDbSpline
 62
9
  6
CONTINUOUS
 70
0
 71
3
 72
12
 73
8
 74
0
 42
0.0000001
 43
0.0000001
 44
0.0000000001
 40
0.0
 40
0.0
 40
0.0
 40
0.0
 40
0.2763992562
 40
0.4067212407
 40
0.532337287
 40
0.7717734657
 40
1.0
 40
1.0
 40
1.0
 40
1.0
 10
10.7629416773
 20
7.2582619005
 30
0.0
 10
10.7621542727
 20
7.2528800151
 30
0.0
 10
10.7610259207
 20
7.2449559163
 30
0.0
 10
10.7593555778
 20
7.2346136966
 30
0.0
 10
10.7576228368
 20
7.2250201795
 30
0.0
 10
10.755107471
 20
7.2136118324
 30
0.0
 10
10.7524335659
 20
7.2047909957
 30
0.0
 10
10.7509212178
 20
7.2005620809
 30
0.0
  0
SPLINE
  5
372
100
AcDbEntity
  8
0
100
AcDbSpline
 62
9
  6
CONTINUOUS
 70
0
 71
3
 72
11
 73
7
 74
0
 42
0.0000001
 43
0.0000001
 44
0.0000000001
 40
0.0
 40
0.0
 40
0.0
 40
0.0
 40
0.247646953
 40
0.4996991803
 40
0.7519094212
 40
1.0
 40
1.0
 40
1.0
 40
1.0
 10
10.7509212178
 20
7.2005620809
 30
0.0
 10
10.7451902953
 20
7.2040538434
 30
0.0
 10
10.7342062727
 20
7.2120927468
 30
0.0
 10
10.71984359
 20
7.2266727438
 30
0.0
 10
10.7081272073
 20
7.2434678852
 30
0.0
 10
10.7022192172
 20
7.255747947
 30
0.0
 10
10.699824072
 20
7.2620297186
 30
0.0
  0
LINE
  5
373
100
AcDbEntity
  8
0
100
AcDbLine
 62
9
  6
CONTINUOUS
 10
10.7960382577
 20
7.2314351215
 11
10.7950403463
 21
7.2308266575
  0
SPLINE
  5
374
100
AcDbEntity
  8
0
100
AcDbSpline
 62
9
  6
CONTINUOUS
 70
0
 71
3
 72
10
 73
6
 74
0
 42
0.0000001
 43
0.0000001
 44
0.0000000001
 40
0.0
 40
0.0
 40
0.0
 40
0.0
 40
0.2209598878
 40
0.4619861359
 40
1.0
 40
1.0
 40
1.0
 40
1.0
 10
10.7950403463
 20
7.2308266575
 30
0.0
 10
10.7916778882
 20
7.2287697309
 30
0.0
 10
10.7847095056
 20
7.2243672554
 30
0.0
 10
10.7698706455
 20
7.2144636105
 30
0.0
 10
10.7585926042
 20
7.2063322136
 30
0.0
 10
10.7509223501
 20
7.2005631614
 30
0.0
  0
SPLINE
  5
375
100
AcDbEntity
  8
0
100
AcDbSpline
 62
9
  6
CONTINUOUS
 70
0
 71
3
 72
15
 73
11
 74
0
 42
0.0000001
 43
0.0000001
 44
0.0000000001
 40
0.0
 40
0.0
 40
0.0
 40
0.0
 40
0.1307635662
 40
0.2574132867
 40
0.3802660767
 40
0.4999793335
 40
0.6196934889
 40
0.7425519715
 40
0.8692185359
 40
1.0
 40
1.0
 40
1.0
 40
1.0
 10
10.1471495791
 20
6.5502808552
 30
0.0
 10
10.1474239767
 20
6.5526038239
 30
0.0
 10
10.1476568454
 20
6.5572233554
 30
0.0
 10
10.1467808516
 20
6.5640172877
 30
0.0
 10
10.1444267093
 20
6.5702601992
 30
0.0
 10
10.1405628541
 20
6.5755834891
 30
0.0
 10
10.1352377721
 20
6.579445025
 30
0.0
 10
10.1289935382
 20
6.5817967732
 30
0.0
 10
10.1221986299
 20
6.5826705447
 30
0.0
 10
10.1175785506
 20
6.582436612
 30
0.0
 10
10.1152553225
 20
6.5821616809
 30
0.0
  0
SPLINE
  5
376
100
AcDbEntity
  8
0
100
AcDbSpline
 62
9
  6
CONTINUOUS
 70
0
 71
3
 72
17
 73
13
 74
0
 42
0.0000001
 43
0.0000001
 44
0.0000000001
 40
0.0
 40
0.0
 40
0.0
 40
0.0
 40
0.1610067443
 40
0.312276838
 40
0.4535651433
 40
0.5847036715
 40
0.7054842068
 40
0.8154610349
 40
0.8662254501
 40
0.9140101628
 40
0.9586586603
 40
1.0
 40
1.0
 40
1.0
 40
1.0
 10
10.3604082602
 20
6.8306655662
 30
0.0
 10
10.3813346286
 20
6.8505512195
 30
0.0
 10
10.4219714064
 20
6.8890678654
 30
0.0
 10
10.4811026931
 20
6.9448963412
 30
0.0
 10
10.5363983782
 20
6.9969865159
 30
0.0
 10
10.5877047984
 20
7.0453390344
 30
0.0
 10
10.6348396561
 20
7.0899323046
 30
0.0
 10
10.671415039
 20
7.124718022
 30
0.0
 10
10.6984346231
 20
7.1505597133
 30
0.0
 10
10.7169749439
 20
7.1683206007
 30
0.0
 10
10.7343010116
 20
7.1849066372
 30
0.0
 10
10.7455004864
 20
7.1955030478
 30
0.0
 10
10.7509192357
 20
7.2005606947
 30
0.0
  0
SPLINE
  5
377
100
AcDbEntity
  8
0
100
AcDbSpline
 62
9
  6
CONTINUOUS
 70
0
 71
3
 72
17
 73
13
 74
0
 42
0.0000001
 43
0.0000001
 44
0.0000000001
 40
0.0
 40
0.0
 40
0.0
 40
0.0
 40
0.0413325603
 40
0.0859724325
 40
0.1337504989
 40
0.1845100227
 40
0.2944806721
 40
0.4152591789
 40
0.5463997931
 40
0.68769541
 40
0.8389780383
 40
1.0
 40
1.0
 40
1.0
 40
1.0
 10
10.7655498428
 20
7.1859353517
 30
0.0
 10
10.7604877893
 20
7.1805130463
 30
0.0
 10
10.7498831288
 20
7.1693051221
 30
0.0
 10
10.7332848399
 20
7.1519645844
 30
0.0
 10
10.7155094698
 20
7.1334086994
 30
0.0
 10
10.6896448925
 20
7.1063652757
 30
0.0
 10
10.6548270934
 20
7.0697561539
 30
0.0
 10
10.6101914106
 20
7.0225763856
 30
0.0
 10
10.5617911874
 20
6.9712192407
 30
0.0
 10
10.5096477693
 20
6.915867181
 30
0.0
 10
10.4537607597
 20
6.8566741372
 30
0.0
 10
10.4152028444
 20
6.8159948649
 30
0.0
 10
10.3952955715
 20
6.7950466876
 30
0.0
  0
SPLINE
  5
378
100
AcDbEntity
  8
0
100
AcDbSpline
 62
9
  6
CONTINUOUS
 70
0
 71
3
 72
21
 73
17
 74
0
 42
0.0000001
 43
0.0000001
 44
0.0000000001
 40
0.0
 40
0.0
 40
0.0
 40
0.0
 40
0.0624271131
 40
0.1249674401
 40
0.1875153442
 40
0.2500673352
 40
0.3126135446
 40
0.3751853616
 40
0.5002036652
 40
0.5627787639
 40
0.6253519847
 40
0.6878689644
 40
0.75034099
 40
0.8128165803
 40
0.8752805834
 40
1.0
 40
1.0
 40
1.0
 40
1.0
 10
10.2355466384
 20
6.3889923504
 30
0.0
 10
10.2325846326
 20
6.3891555524
 30
0.0
 10
10.2266645768
 20
6.3897034261
 30
0.0
 10
10.2178776309
 20
6.3912437997
 30
0.0
 10
10.2092550969
 20
6.3935670424
 30
0.0
 10
10.2009001832
 20
6.396723286
 30
0.0
 10
10.192900214
 20
6.4007019887
 30
0.0
 10
10.1828554059
 20
6.4070878008
 30
0.0
 10
10.1738725307
 20
6.4150363434
 30
0.0
 10
10.1663266662
 20
6.4242431027
 30
0.0
 10
10.1613865938
 20
6.4316860904
 30
0.0
 10
10.1571953979
 20
6.4395670171
 30
0.0
 10
10.1537522699
 20
6.4477956816
 30
0.0
 10
10.1510322099
 20
6.4562872729
 30
0.0
 10
10.1483383466
 20
6.4678506292
 30
0.0
 10
10.1472995012
 20
6.4767231168
 30
0.0
 10
10.1469908961
 20
6.4826416675
 30
0.0
  0
ENDSEC
  0
SECTION
  2
OBJECTS
  0
DICTIONARY
  5
C
100
AcDbDictionary
280
0
281
1
  3
ACAD_GROUP
350
D
  3
ACAD_MLINESTYLE
350
17
  3
ACAD_LAYOUT
350
1A
  3
ACAD_PLOTSETTINGS
350
19
  3
ACAD_PLOTSTYLENAME
350
E
  0
DICTIONARY
  5
D
102
{ACAD_REACTORS
330
C
102
}
100
AcDbDictionary
280
0
281
1
  0
ACDBDICTIONARYWDFLT
  5
E
102
{ACAD_REACTORS
330
C
102
}
100
AcDbDictionary
281
1
  3
Normal
350
F
100
AcDbDictionaryWithDefault
340
F
  0
DICTIONARY
  5
17
102
{ACAD_REACTORS
330
C
102
}
100
AcDbDictionary
280
0
281
1
  3
Standard
350
18
  0
DICTIONARY
  5
19
102
{ACAD_REACTORS
330
C
102
}
100
AcDbDictionary
281
1
  0
DICTIONARY
  5
1A
102
{ACAD_REACTORS
330
C
102
}
100
AcDbDictionary
281
1
  3
Model
350
379
  3
Layout1
350
37A
  0
ACDBPLACEHOLDER
  5
F
102
{ACAD_REACTORS
330
E
102
}
  0
MLINESTYLE
  5
18
102
{ACAD_REACTORS
330
17
102
}
100
AcDbMlineStyle
  2
STANDARD
 70
0
  3

 62
256
 51
90.0
 52
90.0
 71
2
 49
0.5
 62
256
  6
BYLAYER
 49
-0.5
 62
256
  6
BYLAYER
  0
LAYOUT
  5
379
102
{ACAD_REACTORS
330
1A
102
}
100
AcDbPlotSettings
  1

  2
none_device
  4
ANSI_C_(22.00_x_17.00_Inches)
  6

 40
0.0
 41
0.0
 42
0.0
 43
0.0
 44
558.8
 45
431.8
 46
0.0
 47
0.0
 48
0.0
 49
0.0
140
0.0
141
0.0
142
1.0
143
1.0
 70
1024
 72
0
 73
0
 74
0
  7

 75
0
147
1.0
148
0.0
149
0.0
100
AcDbLayout
  1
Model
 70
0
 71
0
 10
0.0
 20
0.0
 11
22.0
 21
17.0
 12
0.0
 22
0.0
 32
0.0
 14
0.0
 24
0.0
 34
0.0
 15
0.0
 25
0.0
 35
0.0
146
0.0
 13
0.0
 23
0.0
 33
0.0
 16
1.0
 26
0.0
 36
0.0
 17
0.0
 27
1.0
 37
0.0
 76
0
330
202
345
0
346
0
  0
LAYOUT
  5
37A
102
{ACAD_REACTORS
330
1A
102
}
100
AcDbPlotSettings
  1

  2
none_device
  4
ANSI_C_(22.00_x_17.00_Inches)
  6

 40
0.0
 41
0.0
 42
0.0
 43
0.0
 44
558.8
 45
431.8
 46
0.0
 47
0.0
 48
0.0
 49
0.0
140
0.0
141
0.0
142
1.0
143
1.0
 70
0
 72
0
 73
0
 74
0
  7

 75
0
147
1.0
148
0.0
149
0.0
100
AcDbLayout
  1
Layout1
 70
0
 71
1
 10
0.0
 20
0.0
 11
22.0
 21
17.0
 12
0.0
 22
0.0
 32
0.0
 14
0.0
 24
0.0
 34
0.0
 15
0.0
 25
0.0
 35
0.0
146
0.0
 13
0.0
 23
0.0
 33
0.0
 16
1.0
 26
0.0
 36
0.0
 17
0.0
 27
1.0
 37
0.0
 76
0
330
203
345
0
346
0
  0
ENDSEC
  0
EOF
