999
DXF file: E:\BT Custom\CADOUTPUT\_FRONT.dxf
999
Pro/ENGINEER 2018400 by Parametric Technology Corporation
  0
SECTION
  2
HEADER
  9
$ACADVER
  1
AC1018
  9
$DWGCODEPAGE
  3
ANSI_1252
  9
$EXTMAX
 10
22.0
 20
17.0
 30
0.0
  9
$EXTMIN
 10
0.0
 20
0.0
 30
0.0
  9
$LIMMIN
 10
0.0
 20
0.0
  9
$LIMMAX
 10
22.0
 20
17.0
  9
$VIEWCTR
 10
11.0
 20
8.5
  9
$VIEWSIZE
 40
17.0
  9
$CLAYER
  8
0
  9
$LTSCALE
 40
1.21
  9
$CELTYPE
  6
BYLAYER
  9
$DIMSCALE
 40
1.0
  9
$DIMASZ
 40
0.1
  9
$DIMEXO
 40
0.0625
  9
$DIMDLI
 40
0.836
  9
$DIMEXE
 40
0.125
  9
$DIMCEN
 40
0.198
  9
$DIMLFAC
 40
1.0
  9
$DIMBLK
  1
_FILLED
  9
$DIMALT
 70
1
  9
$DIMALTD
 70
2
  9
$DIMALTTD
 70
2
  9
$DIMALTF
 40
25.4
  9
$DIMTXT
 40
0.08
  9
$DIMTOL
 70
1
  9
$DIMLIM
 70
0
  9
$DIMTFAC
 40
1.0
  9
$DIMTP
 40
0.001
  9
$DIMTM
 40
0.001
  9
$DIMGAP
 40
0.09
  9
$DIMDSEP
 70
46
  9
$AUNITS
 70
0
  9
$PDMODE
 70
3
  9
$PDSIZE
 40
0.06
  9
$HANDSEED
  5
245
  9
$TILEMODE
 70
1
  9
$MEASUREMENT
 70
0
  9
$INSUNITS
 70
1
  0
ENDSEC
  0
SECTION
  2
CLASSES
  0
CLASS
  1
ACDBDICTIONARYWDFLT
  2
AcDbDictionaryWithDefault
  3
AutoCAD 2000
 90
0
 91
1
280
0
281
0
  0
CLASS
  1
ACDBPLACEHOLDER
  2
AcDbPlaceHolder
  3
AutoCAD 2000
 90
0
 91
1
280
0
281
0
  0
CLASS
  1
LAYOUT
  2
AcDbLayout
  3
AutoCAD 2000
 90
0
 91
0
280
0
281
0
  0
ENDSEC
  0
SECTION
  2
TABLES
  0
TABLE
  2
VPORT
  5
8
100
AcDbSymbolTable
 70
2
  0
VPORT
  5
1F4
100
AcDbSymbolTableRecord
100
AcDbViewportTableRecord
  2
*ACTIVE
 70
0
 10
0.0
 20
0.0
 11
1.0
 21
1.0
 12
11.0
 22
8.5
 13
0.0
 23
0.0
 14
1.0
 24
1.0
 15
0.0
 25
0.0
 16
0.0
 26
0.0
 36
1.0
 17
0.0
 27
0.0
 37
0.0
 40
17.0
 41
1.2941176471
 42
50.0
 43
0.0
 44
0.0
 50
0.0
 51
0.0
 71
0
 72
100
 73
1
 74
1
 75
0
 76
0
 77
0
 78
0
  0
ENDTAB
  0
TABLE
  2
LTYPE
  5
5
100
AcDbSymbolTable
 70
6
  0
LTYPE
  5
14
100
AcDbSymbolTableRecord
100
AcDbLinetypeTableRecord
  2
BYBLOCK
 70
0
  3

 72
65
 73
0
 40
0.0
  0
LTYPE
  5
15
100
AcDbSymbolTableRecord
100
AcDbLinetypeTableRecord
  2
BYLAYER
 70
0
  3

 72
65
 73
0
 40
0.0
  0
LTYPE
  5
16
100
AcDbSymbolTableRecord
100
AcDbLinetypeTableRecord
  2
CONTINUOUS
 70
64
  3
Solid line
 72
65
 73
0
 40
0.0
  0
LTYPE
  5
1F5
100
AcDbSymbolTableRecord
100
AcDbLinetypeTableRecord
  2
CENTER
 70
64
  3
____ _ ____ _ ____ _ ____ _ ____ _ ____ _ ____
 72
65
 73
4
 40
0.6
 49
0.375
 74
0
 49
-0.075
 74
0
 49
0.075
 74
0
 49
-0.075
 74
0
  0
LTYPE
  5
1F6
100
AcDbSymbolTableRecord
100
AcDbLinetypeTableRecord
  2
HIDDEN
 70
64
  3
- - - - - - - - - - - - - - - - - - - -
 72
65
 73
2
 40
0.2
 49
0.1
 74
0
 49
-0.1
 74
0
  0
LTYPE
  5
1F7
100
AcDbSymbolTableRecord
100
AcDbLinetypeTableRecord
  2
PHANTOM
 70
64
  3
_____ _ _ _____ _ _ _____ _ _ _____
 72
65
 73
6
 40
0.8
 49
0.45
 74
0
 49
-0.05
 74
0
 49
0.1
 74
0
 49
-0.05
 74
0
 49
0.1
 74
0
 49
-0.05
 74
0
  0
LTYPE
  5
1F8
100
AcDbSymbolTableRecord
100
AcDbLinetypeTableRecord
  2
DOT
 70
64
  3
. . . . . . . . . . . . . . . . . . . .
 72
65
 73
2
 40
0.2
 49
0.1
 74
0
 49
-0.1
 74
0
  0
LTYPE
  5
1F9
100
AcDbSymbolTableRecord
100
AcDbLinetypeTableRecord
  2
DASHED
 70
64
  3
- - - - - - - - - - - - - - - - - - - -
 72
65
 73
2
 40
0.2
 49
0.1
 74
0
 49
-0.1
 74
0
  0
ENDTAB
  0
TABLE
  2
LAYER
  5
2
100
AcDbSymbolTable
 70
36
  0
LAYER
  5
10
100
AcDbSymbolTableRecord
100
AcDbLayerTableRecord
  2
0
 70
0
 62
7
  6
CONTINUOUS
370
-3
390
F
  0
LAYER
  5
1FA
100
AcDbSymbolTableRecord
100
AcDbLayerTableRecord
  2
DEFAULT_1
 70
0
 62
7
  6
CENTER
370
-3
390
F
  0
LAYER
  5
1FB
100
AcDbSymbolTableRecord
100
AcDbLayerTableRecord
  2
DEFAULT_2
 70
0
 62
8
  6
HIDDEN
370
-3
390
F
  0
LAYER
  5
1FC
100
AcDbSymbolTableRecord
100
AcDbLayerTableRecord
  2
DEFAULT_3
 70
0
 62
7
  6
PHANTOM
370
-3
390
F
  0
LAYER
  5
1FD
100
AcDbSymbolTableRecord
100
AcDbLayerTableRecord
  2
ALL_FEATURES
 70
0
 62
7
  6
CONTINUOUS
370
-3
390
F
  0
LAYER
  5
1FE
100
AcDbSymbolTableRecord
100
AcDbLayerTableRecord
  2
AXES_FEATURES
 70
0
 62
7
  6
CONTINUOUS
370
-3
390
F
  0
LAYER
  5
1FF
100
AcDbSymbolTableRecord
100
AcDbLayerTableRecord
  2
DEFAULT_COORDINATE_SYSTEM
 70
0
 62
7
  6
CONTINUOUS
370
-3
390
F
  0
LAYER
  5
200
100
AcDbSymbolTableRecord
100
AcDbLayerTableRecord
  2
DEFAULT_DATUM_AXES
 70
0
 62
7
  6
CONTINUOUS
370
-3
390
F
  0
LAYER
  5
201
100
AcDbSymbolTableRecord
100
AcDbLayerTableRecord
  2
DEFAULT_DATUM_PLANES
 70
0
 62
7
  6
CONTINUOUS
370
-3
390
F
  0
LAYER
  5
202
100
AcDbSymbolTableRecord
100
AcDbLayerTableRecord
  2
DIMENSIONS
 70
0
 62
7
  6
CONTINUOUS
370
-3
390
F
  0
ENDTAB
  0
TABLE
  2
STYLE
  5
3
100
AcDbSymbolTable
 70
1
  0
STYLE
  5
11
100
AcDbSymbolTableRecord
100
AcDbTextStyleTableRecord
  2
STANDARD
 70
0
 40
0.0
 41
0.8
 50
0.0
 71
0
 42
0.2
  3
txt
  4

  0
STYLE
  5
203
100
AcDbSymbolTableRecord
100
AcDbTextStyleTableRecord
  2
TEXTSTYLE_1
 70
0
 40
0.0
 41
0.8
 50
0.0
 71
0
 42
0.2
  3
gdt
  4

  0
ENDTAB
  0
TABLE
  2
VIEW
  5
6
100
AcDbSymbolTable
 70
0
  0
ENDTAB
  0
TABLE
  2
UCS
  5
7
100
AcDbSymbolTable
 70
0
  0
ENDTAB
  0
TABLE
  2
APPID
  5
9
100
AcDbSymbolTable
 70
1
  0
APPID
  5
204
100
AcDbSymbolTableRecord
100
AcDbRegAppTableRecord
  2
ACAD
 70
0
  0
ENDTAB
  0
TABLE
  2
BLOCK_RECORD
  5
1
100
AcDbSymbolTable
 70
0
  0
BLOCK_RECORD
  5
205
100
AcDbSymbolTableRecord
100
AcDbBlockTableRecord
  2
*Model_Space
  0
BLOCK_RECORD
  5
206
100
AcDbSymbolTableRecord
100
AcDbBlockTableRecord
  2
*Paper_Space
  0
BLOCK_RECORD
  5
207
100
AcDbSymbolTableRecord
100
AcDbBlockTableRecord
  2
_FILLED
  0
ENDTAB
  0
TABLE
  2
DIMSTYLE
  5
A
100
AcDbSymbolTable
 70
1
100
AcDbDimStyleTable
 71
0
  0
DIMSTYLE
105
208
100
AcDbSymbolTableRecord
100
AcDbDimStyleTableRecord
  2
STANDARD
 70
0
  3

  4

 40
1.0
 41
0.1
 42
0.0625
 43
0.38
 44
0.125
 45
0.0
 46
0.0
 47
0.001
 48
0.001
140
0.08
141
0.09
142
0.0
143
25.4
144
1.0
145
0.0
146
1.0
147
0.09
 71
1.0
 72
0.0
 73
1
 74
1
 75
0
 76
0
 77
0
 78
4
 79
1
170
1
171
2
172
0
173
0
174
0
175
0
176
0
177
0
178
0
270
2
179
3
271
3
272
3
273
2
274
2
275
0
280
0
281
0
282
0
283
1
284
4
285
0
286
0
287
3
288
0
340
11
278
46
341
207
342
207
343
207
344
207
  0
ENDTAB
  0
ENDSEC
  0
SECTION
  2
BLOCKS
  0
BLOCK
  5
20
100
AcDbEntity
  8
0
100
AcDbBlockBegin
  2
*Model_Space
 70
0
 10
0.0
 20
0.0
 30
0.0
  3
*Model_Space
  1

  0
ENDBLK
  5
21
100
AcDbEntity
  8
0
100
AcDbBlockEnd
  0
BLOCK
  5
1C
100
AcDbEntity
  8
0
100
AcDbBlockBegin
  2
*Paper_Space
 70
0
 10
0.0
 20
0.0
 30
0.0
  3
*Paper_Space
  1

  0
ENDBLK
  5
1D
100
AcDbEntity
  8
0
100
AcDbBlockEnd
  0
BLOCK
  5
209
100
AcDbEntity
  8
0
100
AcDbBlockBegin
  2
_FILLED
 70
64
 10
0.0
 20
0.0
  3
_FILLED
  1

  0
SOLID
  5
20A
100
AcDbEntity
  8
0
  6
BYBLOCK
 62
0
100
AcDbTrace
 10
0.0
 20
0.0
 11
-1.0
 21
0.2
 12
-1.0
 22
-0.2
 13
-1.0
 23
-0.2
  0
ENDBLK
  5
20B
100
AcDbEntity
  8
0
  6
BYBLOCK
 62
0
100
AcDbBlockEnd
  0
ENDSEC
  0
SECTION
  2
ENTITIES
  0
LINE
  5
20C
100
AcDbEntity
  8
0
100
AcDbLine
 62
9
  6
CONTINUOUS
 10
9.7919156638
 20
10.7599460093
 11
9.820199935
 21
10.7882302805
  0
LINE
  5
20D
100
AcDbEntity
  8
0
100
AcDbLine
 62
7
  6
CONTINUOUS
 10
9.1951921709
 20
7.5426695021
 11
9.1951921709
 21
7.7726695021
  0
LINE
  5
20E
100
AcDbEntity
  8
0
100
AcDbLine
 62
7
  6
CONTINUOUS
 10
11.0451918273
 20
7.5426695021
 11
9.1951923931
 21
7.5426695021
  0
LINE
  5
20F
100
AcDbEntity
  8
0
100
AcDbLine
 62
9
  6
CONTINUOUS
 10
9.1951921709
 20
7.7726695021
 11
11.0451918273
 21
7.7726695021
  0
LINE
  5
210
100
AcDbEntity
  8
0
100
AcDbLine
 62
7
  6
CONTINUOUS
 10
9.2151920503
 20
7.7926695021
 11
11.0251918347
 21
7.7926695021
  0
LINE
  5
211
100
AcDbEntity
  8
0
100
AcDbLine
 62
7
  6
CONTINUOUS
 10
9.4931921709
 20
10.9526695021
 11
9.4931921709
 21
10.0486695021
  0
LINE
  5
212
100
AcDbEntity
  8
0
100
AcDbLine
 62
9
  6
CONTINUOUS
 10
9.5331921709
 20
10.9926695021
 11
9.5331921709
 21
10.0086695021
  0
LINE
  5
213
100
AcDbEntity
  8
0
100
AcDbLine
 62
9
  6
CONTINUOUS
 10
9.677545585
 20
10.7423856252
 11
9.677545585
 21
10.0486695021
  0
LINE
  5
214
100
AcDbEntity
  8
0
100
AcDbLine
 62
7
  6
CONTINUOUS
 10
9.6901921709
 20
7.7926695021
 11
9.6901921709
 21
8.1686695021
  0
LINE
  5
215
100
AcDbEntity
  8
0
100
AcDbLine
 62
7
  6
CONTINUOUS
 10
9.6901921709
 20
8.2186695021
 11
9.6901921709
 21
9.9686695021
  0
LINE
  5
216
100
AcDbEntity
  8
0
100
AcDbLine
 62
9
  6
CONTINUOUS
 10
9.7152176349
 20
10.7424024142
 11
9.7152176349
 21
10.0486695021
  0
LINE
  5
217
100
AcDbEntity
  8
0
100
AcDbLine
 62
7
  6
CONTINUOUS
 10
9.7801921709
 20
8.1686695021
 11
9.7801921709
 21
8.2186695021
  0
LINE
  5
218
100
AcDbEntity
  8
0
100
AcDbLine
 62
7
  6
CONTINUOUS
 10
9.6901972093
 20
8.1686695021
 11
10.5501871325
 21
8.1686695021
  0
LINE
  5
219
100
AcDbEntity
  8
0
100
AcDbLine
 62
7
  6
CONTINUOUS
 10
9.6901921709
 20
8.2186695021
 11
10.5501921709
 21
8.2186695021
  0
LINE
  5
21A
100
AcDbEntity
  8
0
100
AcDbLine
 62
9
  6
CONTINUOUS
 10
10.5050374821
 20
10.0468241909
 11
10.5333217534
 21
10.0751084622
  0
LINE
  5
21B
100
AcDbEntity
  8
0
100
AcDbLine
 62
9
  6
CONTINUOUS
 10
10.5175926162
 20
10.0307314903
 11
10.5526860629
 21
10.0486695022
  0
LINE
  5
21C
100
AcDbEntity
  8
0
100
AcDbLine
 62
7
  6
CONTINUOUS
 10
10.4601921709
 20
8.1686695021
 11
10.4601921709
 21
8.2186695021
  0
LINE
  5
21D
100
AcDbEntity
  8
0
100
AcDbLine
 62
7
  6
CONTINUOUS
 10
10.5501921709
 20
7.7926695021
 11
10.5501921709
 21
8.1686695021
  0
LINE
  5
21E
100
AcDbEntity
  8
0
100
AcDbLine
 62
7
  6
CONTINUOUS
 10
10.5501921709
 20
8.2186695021
 11
10.5501921709
 21
9.9686695021
  0
LINE
  5
21F
100
AcDbEntity
  8
0
100
AcDbLine
 62
7
  6
CONTINUOUS
 10
11.0451921709
 20
7.5426695021
 11
11.0451921709
 21
7.7726695021
  0
LINE
  5
220
100
AcDbEntity
  8
0
100
AcDbLine
 62
7
  6
CONTINUOUS
 10
9.7919156793
 20
10.7599459937
 11
10.5050374712
 21
10.0468242019
  0
LINE
  5
221
100
AcDbEntity
  8
0
100
AcDbLine
 62
9
  6
CONTINUOUS
 10
9.820199935
 20
10.7882302805
 11
10.5333217534
 21
10.0751084622
  0
LINE
  5
222
100
AcDbEntity
  8
0
100
AcDbLine
 62
9
  6
CONTINUOUS
 10
10.5501921709
 20
9.9686695021
 11
10.5442293243
 21
9.9686695021
  0
LINE
  5
223
100
AcDbEntity
  8
0
100
AcDbLine
 62
9
  6
CONTINUOUS
 10
9.6961550175
 20
9.9686695021
 11
9.6901921709
 21
9.9686695021
  0
LINE
  5
224
100
AcDbEntity
  8
0
100
AcDbLine
 62
7
  6
CONTINUOUS
 10
12.6401921709
 20
10.0086695021
 11
10.5836746409
 21
10.0086695021
  0
LINE
  5
225
100
AcDbEntity
  8
0
100
AcDbLine
 62
7
  6
CONTINUOUS
 10
9.6567097009
 20
10.0086695021
 11
9.5331921709
 21
10.0086695021
  0
LINE
  5
226
100
AcDbEntity
  8
0
100
AcDbLine
 62
9
  6
CONTINUOUS
 10
12.6801921709
 20
10.0486695021
 11
10.552686063
 21
10.0486695021
  0
LINE
  5
227
100
AcDbEntity
  8
0
100
AcDbLine
 62
9
  6
CONTINUOUS
 10
9.4931921709
 20
10.0486695021
 11
9.7152176349
 21
10.0486695021
  0
LINE
  5
228
100
AcDbEntity
  8
0
100
AcDbLine
 62
9
  6
CONTINUOUS
 10
12.6401921709
 20
10.0086695021
 11
12.6401921709
 21
10.9926695021
  0
LINE
  5
229
100
AcDbEntity
  8
0
100
AcDbLine
 62
7
  6
CONTINUOUS
 10
12.6801921709
 20
10.9526695021
 11
12.6801921709
 21
10.0486695021
  0
LINE
  5
22A
100
AcDbEntity
  8
0
100
AcDbLine
 62
9
  6
CONTINUOUS
 10
9.4931921709
 20
10.9526695021
 11
12.6801921709
 21
10.9526695021
  0
LINE
  5
22B
100
AcDbEntity
  8
0
100
AcDbLine
 62
7
  6
CONTINUOUS
 10
9.5331921709
 20
10.9926695021
 11
12.6401921709
 21
10.9926695021
  0
ARC
  5
22C
100
AcDbEntity
  8
0
100
AcDbCircle
 62
7
  6
CONTINUOUS
 10
10.5901921709
 20
9.9686695021
 40
0.04
100
AcDbArc
 50
99.3056614547
 51
180.0
  0
ARC
  5
22D
100
AcDbEntity
  8
0
100
AcDbCircle
 62
7
  6
CONTINUOUS
 10
9.6501921709
 20
9.9686695021
 40
0.04
100
AcDbArc
 50
0.0
 51
80.6943385453
  0
ARC
  5
22E
100
AcDbEntity
  8
0
100
AcDbCircle
 62
7
  6
CONTINUOUS
 10
9.5331921709
 20
10.9526695021
 40
0.04
100
AcDbArc
 50
90.0
 51
180.0
  0
ARC
  5
22F
100
AcDbEntity
  8
0
100
AcDbCircle
 62
7
  6
CONTINUOUS
 10
12.6401921709
 20
10.0486695021
 40
0.04
100
AcDbArc
 50
270.0
 51
360.0
  0
ARC
  5
230
100
AcDbEntity
  8
0
100
AcDbCircle
 62
7
  6
CONTINUOUS
 10
9.5331921709
 20
10.0486695021
 40
0.04
100
AcDbArc
 50
180.0
 51
270.0
  0
ARC
  5
231
100
AcDbEntity
  8
0
100
AcDbCircle
 62
7
  6
CONTINUOUS
 10
12.6401921709
 20
10.9526695021
 40
0.04
100
AcDbArc
 50
0.0
 51
90.0
  0
ARC
  5
232
100
AcDbEntity
  8
0
100
AcDbCircle
 62
7
  6
CONTINUOUS
 10
9.2151921709
 20
7.7726695021
 40
0.02
100
AcDbArc
 50
90.0
 51
180.0
  0
ARC
  5
233
100
AcDbEntity
  8
0
100
AcDbCircle
 62
7
  6
CONTINUOUS
 10
11.0251921709
 20
7.7726695021
 40
0.02
100
AcDbArc
 50
0.0
 51
90.0
  0
SPLINE
  5
234
100
AcDbEntity
  8
0
100
AcDbSpline
 62
9
  6
CONTINUOUS
 70
0
 71
3
 72
20
 73
16
 74
0
 42
0.0000001
 43
0.0000001
 44
0.0000000001
 40
0.0
 40
0.0
 40
0.0
 40
0.0
 40
0.1727996579
 40
0.3386772833
 40
0.4926065032
 40
0.5640808602
 40
0.631478933
 40
0.6945466132
 40
0.7530471607
 40
0.8067404581
 40
0.8554166251
 40
0.8989301942
 40
0.9372817562
 40
0.9707334722
 40
1.0
 40
1.0
 40
1.0
 40
1.0
 10
9.677545585
 20
10.0486695021
 30
0.0
 10
9.6775461844
 20
10.0459142757
 30
0.0
 10
9.6771452623
 20
10.0405054479
 30
0.0
 10
9.6754404711
 20
10.0328137875
 30
0.0
 10
9.673273296
 20
10.0269420405
 30
0.0
 10
9.6712312211
 20
10.0227408019
 30
0.0
 10
9.6696394644
 20
10.0199392079
 30
0.0
 10
9.6679819009
 20
10.01742051
 30
0.0
 10
9.6662891893
 20
10.0151941443
 30
0.0
 10
9.6645892522
 20
10.0132698912
 30
0.0
 10
9.6629069155
 20
10.0116590242
 30
0.0
 10
9.6612657926
 20
10.0103721616
 30
0.0
 10
9.6596834995
 20
10.0094231638
 30
0.0
 10
9.6581777064
 20
10.0088260676
 30
0.0
 10
9.6571763449
 20
10.0086694687
 30
0.0
 10
9.6567097009
 20
10.0086695021
 30
0.0
  0
SPLINE
  5
235
100
AcDbEntity
  8
0
100
AcDbSpline
 62
9
  6
CONTINUOUS
 70
0
 71
3
 72
26
 73
22
 74
0
 42
0.0000001
 43
0.0000001
 44
0.0000000001
 40
0.0
 40
0.0
 40
0.0
 40
0.0
 40
0.1801513371
 40
0.3548051157
 40
0.4383906707
 40
0.5185889338
 40
0.5947320531
 40
0.6661564737
 40
0.73220415
 40
0.7922254898
 40
0.8455887252
 40
0.8695889705
 40
0.8917128331
 40
0.9119045244
 40
0.9301179837
 40
0.9463306332
 40
0.9605510179
 40
0.9728281083
 40
0.9832886504
 40
0.9921940684
 40
1.0
 40
1.0
 40
1.0
 40
1.0
 10
9.7152176349
 20
10.0486695021
 30
0.0
 10
9.7152184724
 20
10.0436082945
 30
0.0
 10
9.7149089035
 20
10.0336377311
 30
0.0
 10
9.7137669223
 20
10.0213660966
 30
0.0
 10
9.7124321945
 20
10.0119506824
 30
0.0
 10
9.7112721668
 20
10.0053094529
 30
0.0
 10
9.7099628637
 20
9.9990446952
 30
0.0
 10
9.7085315063
 20
9.9932152248
 30
0.0
 10
9.7070077678
 20
9.9878786149
 30
0.0
 10
9.7054232623
 20
9.9830915209
 30
0.0
 10
9.7040348224
 20
9.9794878642
 30
0.0
 10
9.7029087948
 20
9.9769291984
 30
0.0
 10
9.7020988835
 20
9.9752508652
 30
0.0
 10
9.7012975331
 20
9.9737503676
 30
0.0
 10
9.7005085292
 20
9.9724334379
 30
0.0
 10
9.6997354453
 20
9.9713051448
 30
0.0
 10
9.6989814244
 20
9.9703697525
 30
0.0
 10
9.6982487389
 20
9.9696306759
 30
0.0
 10
9.6975371414
 20
9.9690910652
 30
0.0
 10
9.6968452856
 20
9.9687539091
 30
0.0
 10
9.6963743189
 20
9.9686694516
 30
0.0
 10
9.6961550175
 20
9.9686695021
 30
0.0
  0
LINE
  5
236
100
AcDbEntity
  8
0
100
AcDbLine
 62
9
  6
CONTINUOUS
 10
9.677545585
 20
10.7423533507
 11
9.7152176349
 21
10.7424024142
  0
SPLINE
  5
237
100
AcDbEntity
  8
0
100
AcDbSpline
 62
9
  6
CONTINUOUS
 70
0
 71
3
 72
29
 73
25
 74
0
 42
0.0000001
 43
0.0000001
 44
0.0000000001
 40
0.0
 40
0.0
 40
0.0
 40
0.0
 40
0.062474716
 40
0.124961356
 40
0.1562209598
 40
0.1874850065
 40
0.2187492204
 40
0.2500135237
 40
0.2812770432
 40
0.3125404679
 40
0.3438046844
 40
0.3750681448
 40
0.4375426302
 40
0.5000196773
 40
0.5624992103
 40
0.6249814599
 40
0.6562450992
 40
0.6875063828
 40
0.7499967787
 40
0.8124893976
 40
0.8749774308
 40
0.9062441252
 40
0.9375157248
 40
1.0
 40
1.0
 40
1.0
 40
1.0
 10
9.677545585
 20
10.7423856252
 30
0.0
 10
9.6775437015
 20
10.7464280488
 30
0.0
 10
9.6781417576
 20
10.7545267866
 30
0.0
 10
9.6804324292
 20
10.7644168683
 30
0.0
 10
9.6831887126
 20
10.7720296574
 30
0.0
 10
9.6857139482
 20
10.7775554998
 30
0.0
 10
9.6886829454
 20
10.7828563655
 30
0.0
 10
9.6920825714
 20
10.7878920799
 30
0.0
 10
9.6958892795
 20
10.7926276013
 30
0.0
 10
9.7000804706
 20
10.7970264158
 30
0.0
 10
9.7046254655
 20
10.8010591492
 30
0.0
 10
9.7111099278
 20
10.805906664
 30
0.0
 10
9.7199409694
 20
10.8109270295
 30
0.0
 10
9.7313688262
 20
10.8151392714
 30
0.0
 10
9.7433161728
 20
10.8174923654
 30
0.0
 10
9.7534563642
 20
10.8179151863
 30
0.0
 10
9.761532311
 20
10.817368797
 30
0.0
 10
9.7695495899
 20
10.8162492511
 30
0.0
 10
9.7793960207
 20
10.813811824
 30
0.0
 10
9.7907157577
 20
10.8093645287
 30
0.0
 10
9.7996160037
 20
10.8045122928
 30
0.0
 10
9.8063499681
 20
10.8000219345
 30
0.0
 10
9.812811893
 20
10.795149686
 30
0.0
 10
9.8173411822
 20
10.7910892533
 30
0.0
 10
9.820199935
 20
10.7882302805
 30
0.0
  0
SPLINE
  5
238
100
AcDbEntity
  8
0
100
AcDbSpline
 62
9
  6
CONTINUOUS
 70
0
 71
3
 72
27
 73
23
 74
0
 42
0.0000001
 43
0.0000001
 44
0.0000000001
 40
0.0
 40
0.0
 40
0.0
 40
0.0
 40
0.0627225957
 40
0.1259087165
 40
0.1576762347
 40
0.1895451793
 40
0.2214858064
 40
0.2534826357
 40
0.2855065686
 40
0.3175333658
 40
0.3495381335
 40
0.3814906096
 40
0.4133771673
 40
0.4451697425
 40
0.5083857844
 40
0.5711632449
 40
0.6334892766
 40
0.6645158668
 40
0.6954315307
 40
0.7569677411
 40
0.878945669
 40
1.0
 40
1.0
 40
1.0
 40
1.0
 10
9.7152185533
 20
10.7424026269
 30
0.0
 10
9.7150438914
 20
10.7446124454
 30
0.0
 10
9.7150283077
 20
10.7490834316
 30
0.0
 10
9.7159554792
 20
10.7546107426
 30
0.0
 10
9.7173127849
 20
10.7588888959
 30
0.0
 10
9.7186493107
 20
10.7619973997
 30
0.0
 10
9.7202985225
 20
10.7649614984
 30
0.0
 10
9.7222551176
 20
10.7677394269
 30
0.0
 10
9.7244976031
 20
10.7702964266
 30
0.0
 10
9.7270041451
 20
10.7725956119
 30
0.0
 10
9.7297388906
 20
10.7746135456
 30
0.0
 10
9.7326678065
 20
10.7763272048
 30
0.0
 10
9.7357495669
 20
10.7777292653
 30
0.0
 10
9.7400019647
 20
10.7791730626
 30
0.0
 10
9.7455165662
 20
10.7802049646
 30
0.0
 10
9.7521991557
 20
10.780292656
 30
0.0
 10
9.7576838532
 20
10.7795251178
 30
0.0
 10
9.7619521239
 20
10.7784807694
 30
0.0
 10
9.7661198495
 20
10.7771779081
 30
0.0
 10
9.7731383032
 20
10.7742773578
 30
0.0
 10
9.7823825523
 20
10.7686310514
 30
0.0
 10
9.7888905793
 20
10.7629712713
 30
0.0
 10
9.7919157128
 20
10.7599460583
 30
0.0
  0
SPLINE
  5
239
100
AcDbEntity
  8
0
100
AcDbSpline
 62
9
  6
CONTINUOUS
 70
0
 71
3
 72
17
 73
13
 74
0
 42
0.0000001
 43
0.0000001
 44
0.0000000001
 40
0.0
 40
0.0
 40
0.0
 40
0.0
 40
0.0729194684
 40
0.114393087
 40
0.159640219
 40
0.2088357615
 40
0.2620479691
 40
0.380409921
 40
0.5143257477
 40
0.6629264114
 40
0.825027764
 40
1.0
 40
1.0
 40
1.0
 40
1.0
 10
10.5836746409
 20
10.0086695021
 30
0.0
 10
10.5830748204
 20
10.0086694927
 30
0.0
 10
10.5821321671
 20
10.0088580322
 30
0.0
 10
10.5809147267
 20
10.0093506715
 30
0.0
 10
10.5799270461
 20
10.0098797706
 30
0.0
 10
10.5789115056
 20
10.0105482051
 30
0.0
 10
10.5774742651
 20
10.0116607058
 30
0.0
 10
10.575648104
 20
10.0133963638
 30
0.0
 10
10.5735022744
 20
10.0159061264
 30
0.0
 10
10.5713799881
 20
10.0188904777
 30
0.0
 10
10.569347048
 20
10.0223348145
 30
0.0
 10
10.5681421257
 20
10.0248363892
 30
0.0
 10
10.5675712347
 20
10.0261576107
 30
0.0
  0
SPLINE
  5
23A
100
AcDbEntity
  8
0
100
AcDbSpline
 62
9
  6
CONTINUOUS
 70
0
 71
3
 72
15
 73
11
 74
0
 42
0.0000001
 43
0.0000001
 44
0.0000000001
 40
0.0
 40
0.0
 40
0.0
 40
0.0
 40
0.1241316763
 40
0.24842321
 40
0.3729306258
 40
0.4977632945
 40
0.6229365555
 40
0.7484134743
 40
0.874156563
 40
1.0
 40
1.0
 40
1.0
 40
1.0
 10
10.5836746409
 20
10.0086695021
 30
0.0
 10
10.5810969829
 20
10.0086695021
 30
0.0
 10
10.5759237557
 20
10.0081527937
 30
0.0
 10
10.5684756825
 20
10.0058603652
 30
0.0
 10
10.5616105324
 20
10.0021365955
 30
0.0
 10
10.5555952482
 20
9.997128387
 30
0.0
 10
10.5506607649
 20
9.9910271112
 30
0.0
 10
10.5469939454
 20
9.9840679189
 30
0.0
 10
10.5447376029
 20
9.976521057
 30
0.0
 10
10.5442293243
 20
9.9712827058
 30
0.0
 10
10.5442293243
 20
9.9686695021
 30
0.0
  0
SPLINE
  5
23B
100
AcDbEntity
  8
0
100
AcDbSpline
 62
9
  6
CONTINUOUS
 70
0
 71
3
 72
24
 73
20
 74
0
 42
0.0000001
 43
0.0000001
 44
0.0000000001
 40
0.0
 40
0.0
 40
0.0
 40
0.0
 40
0.0100771512
 40
0.0208488509
 40
0.0326091731
 40
0.0455776443
 40
0.0756918602
 40
0.11195479
 40
0.1546193608
 40
0.2037191557
 40
0.2591382401
 40
0.3206878643
 40
0.3881224825
 40
0.461133337
 40
0.5393958865
 40
0.6226431437
 40
0.7106653847
 40
0.8032290108
 40
1.0
 40
1.0
 40
1.0
 40
1.0
 10
10.5442293243
 20
9.9686695021
 30
0.0
 10
10.5440974237
 20
9.9686694981
 30
0.0
 10
10.5438239578
 20
9.9686985088
 30
0.0
 10
10.543413301
 20
9.9688217907
 30
0.0
 10
10.542993027
 20
9.9690237101
 30
0.0
 10
10.5423900798
 20
9.9694161561
 30
0.0
 10
10.541618308
 20
9.9701201004
 30
0.0
 10
10.5407031566
 20
9.9712184908
 30
0.0
 10
10.5397585942
 20
9.9726051873
 30
0.0
 10
10.5387907066
 20
9.9742722744
 30
0.0
 10
10.5378059308
 20
9.9762111279
 30
0.0
 10
10.5368119328
 20
9.9784113739
 30
0.0
 10
10.5358161674
 20
9.9808612127
 30
0.0
 10
10.5348254046
 20
9.9835474516
 30
0.0
 10
10.5338461365
 20
9.986457125
 30
0.0
 10
10.5328867346
 20
9.989579558
 30
0.0
 10
10.5319565455
 20
9.9929056515
 30
0.0
 10
10.5307445436
 20
9.9976942822
 30
0.0
 10
10.5299396564
 20
10.001396311
 30
0.0
 10
10.5294367329
 20
10.0039222816
 30
0.0
  0
SPLINE
  5
23C
100
AcDbEntity
  8
0
100
AcDbSpline
 62
9
  6
CONTINUOUS
 70
0
 71
3
 72
9
 73
5
 74
0
 42
0.0000001
 43
0.0000001
 44
0.0000000001
 40
0.0
 40
0.0
 40
0.0
 40
0.0
 40
0.2492459778
 40
1.0
 40
1.0
 40
1.0
 40
1.0
 10
10.5050374115
 20
10.0468241203
 30
0.0
 10
10.506238297
 20
10.0456232569
 30
0.0
 10
10.5109204925
 20
10.0406739393
 30
0.0
 10
10.5150216069
 20
10.0351538752
 30
0.0
 10
10.5175926861
 20
10.0307315261
 30
0.0
  0
SPLINE
  5
23D
100
AcDbEntity
  8
0
100
AcDbSpline
 62
9
  6
CONTINUOUS
 70
0
 71
3
 72
9
 73
5
 74
0
 42
0.0000001
 43
0.0000001
 44
0.0000000001
 40
0.0
 40
0.0
 40
0.0
 40
0.0
 40
0.5000276256
 40
1.0
 40
1.0
 40
1.0
 40
1.0
 10
10.5333217534
 20
10.0751084622
 30
0.0
 10
10.5371961639
 20
10.0712343951
 30
0.0
 10
10.5443838154
 20
10.0629026868
 30
0.0
 10
10.5501932879
 20
10.0535479129
 30
0.0
 10
10.552686063
 20
10.0486695021
 30
0.0
  0
SPLINE
  5
23E
100
AcDbEntity
  8
0
100
AcDbSpline
 62
9
  6
CONTINUOUS
 70
0
 71
3
 72
22
 73
18
 74
0
 42
0.0000001
 43
0.0000001
 44
0.0000000001
 40
0.0
 40
0.0
 40
0.0
 40
0.0
 40
0.0714422861
 40
0.1431154879
 40
0.1789096374
 40
0.2146243165
 40
0.2856976453
 40
0.3560484955
 40
0.4252642606
 40
0.4929636773
 40
0.5588410548
 40
0.6226321023
 40
0.6841454906
 40
0.7997679671
 40
0.9051326163
 40
0.95391844
 40
1.0
 40
1.0
 40
1.0
 40
1.0
 10
10.567350135
 20
10.0266071074
 30
0.0
 10
10.5662731295
 20
10.0264410865
 30
0.0
 10
10.5641200984
 20
10.0260780464
 30
0.0
 10
10.5614494818
 20
10.0255107688
 30
0.0
 10
10.5593341466
 20
10.0249660907
 30
0.0
 10
10.5572467953
 20
10.0243541351
 30
0.0
 10
10.5546917189
 20
10.0234701391
 30
0.0
 10
10.5517137449
 20
10.0222612481
 30
0.0
 10
10.5488345007
 20
10.0209536123
 30
0.0
 10
10.5460706155
 20
10.0195626314
 30
0.0
 10
10.5434442191
 20
10.0180889309
 30
0.0
 10
10.5409745221
 20
10.01653551
 30
0.0
 10
10.53797644
 20
10.0144076395
 30
0.0
 10
10.5346982831
 20
10.0115898817
 30
0.0
 10
10.5320065435
 20
10.0084487992
 30
0.0
 10
10.530359295
 20
10.0058722306
 30
0.0
 10
10.5297021171
 20
10.0045794908
 30
0.0
 10
10.5294193478
 20
10.0039359845
 30
0.0
  0
SPLINE
  5
23F
100
AcDbEntity
  8
0
100
AcDbSpline
 62
9
  6
CONTINUOUS
 70
0
 71
3
 72
11
 73
7
 74
0
 42
0.0000001
 43
0.0000001
 44
0.0000000001
 40
0.0
 40
0.0
 40
0.0
 40
0.0
 40
0.2173709307
 40
0.4576145239
 40
0.7194878274
 40
1.0
 40
1.0
 40
1.0
 40
1.0
 10
10.5294193478
 20
10.0039359845
 30
0.0
 10
10.5286828035
 20
10.0059290526
 30
0.0
 10
10.5271286797
 20
10.0101236434
 30
0.0
 10
10.5245413201
 20
10.0166647932
 30
0.0
 10
10.521432302
 20
10.0236577337
 30
0.0
 10
10.5189732436
 20
10.0283624117
 30
0.0
 10
10.5175926162
 20
10.0307314903
 30
0.0
  0
SPLINE
  5
240
100
AcDbEntity
  8
0
100
AcDbSpline
 62
9
  6
CONTINUOUS
 70
0
 71
3
 72
12
 73
8
 74
0
 42
0.0000001
 43
0.0000001
 44
0.0000000001
 40
0.0
 40
0.0
 40
0.0
 40
0.0
 40
0.2609980321
 40
0.390617317
 40
0.5187875744
 40
0.7674821607
 40
1.0
 40
1.0
 40
1.0
 40
1.0
 10
10.552686063
 20
10.0486695021
 30
0.0
 10
10.5543705744
 20
10.0470125821
 30
0.0
 10
10.5567612906
 20
10.0443930359
 30
0.0
 10
10.5596054879
 20
10.0406530585
 30
0.0
 10
10.5621717852
 20
10.0368503919
 30
0.0
 10
10.5648855489
 20
10.0320368436
 30
0.0
 10
10.566727095
 20
10.0280859362
 30
0.0
 10
10.5675712347
 20
10.0261576107
 30
0.0
  0
LINE
  5
241
100
AcDbEntity
  8
0
100
AcDbLine
 62
9
  6
CONTINUOUS
 10
9.7152176349
 20
10.7424022227
 11
10.5294367329
 21
10.0039222816
  0
SPLINE
  5
242
100
AcDbEntity
  8
0
100
AcDbSpline
 62
9
  6
CONTINUOUS
 70
0
 71
3
 72
15
 73
11
 74
0
 42
0.0000001
 43
0.0000001
 44
0.0000000001
 40
0.0
 40
0.0
 40
0.0
 40
0.0
 40
0.1241316735
 40
0.2484232053
 40
0.3729306203
 40
0.4977632892
 40
0.6229365512
 40
0.7484134715
 40
0.8741565618
 40
1.0
 40
1.0
 40
1.0
 40
1.0
 10
9.6567097009
 20
10.0086695021
 30
0.0
 10
9.6592873589
 20
10.0086695021
 30
0.0
 10
9.664460586
 20
10.0081527937
 30
0.0
 10
9.671908659
 20
10.0058603652
 30
0.0
 10
9.6787738089
 20
10.0021365955
 30
0.0
 10
9.6847890932
 20
9.997128387
 30
0.0
 10
9.6897235765
 20
9.9910271112
 30
0.0
 10
9.6933903961
 20
9.9840679189
 30
0.0
 10
9.6956467387
 20
9.9765210571
 30
0.0
 10
9.6961550175
 20
9.9712827058
 30
0.0
 10
9.6961550175
 20
9.9686695021
 30
0.0
  0
ENDSEC
  0
SECTION
  2
OBJECTS
  0
DICTIONARY
  5
C
100
AcDbDictionary
280
0
281
1
  3
ACAD_GROUP
350
D
  3
ACAD_MLINESTYLE
350
17
  3
ACAD_LAYOUT
350
1A
  3
ACAD_PLOTSETTINGS
350
19
  3
ACAD_PLOTSTYLENAME
350
E
  0
DICTIONARY
  5
D
102
{ACAD_REACTORS
330
C
102
}
100
AcDbDictionary
280
0
281
1
  0
ACDBDICTIONARYWDFLT
  5
E
102
{ACAD_REACTORS
330
C
102
}
100
AcDbDictionary
281
1
  3
Normal
350
F
100
AcDbDictionaryWithDefault
340
F
  0
DICTIONARY
  5
17
102
{ACAD_REACTORS
330
C
102
}
100
AcDbDictionary
280
0
281
1
  3
Standard
350
18
  0
DICTIONARY
  5
19
102
{ACAD_REACTORS
330
C
102
}
100
AcDbDictionary
281
1
  0
DICTIONARY
  5
1A
102
{ACAD_REACTORS
330
C
102
}
100
AcDbDictionary
281
1
  3
Model
350
243
  3
Layout1
350
244
  0
ACDBPLACEHOLDER
  5
F
102
{ACAD_REACTORS
330
E
102
}
  0
MLINESTYLE
  5
18
102
{ACAD_REACTORS
330
17
102
}
100
AcDbMlineStyle
  2
STANDARD
 70
0
  3

 62
256
 51
90.0
 52
90.0
 71
2
 49
0.5
 62
256
  6
BYLAYER
 49
-0.5
 62
256
  6
BYLAYER
  0
LAYOUT
  5
243
102
{ACAD_REACTORS
330
1A
102
}
100
AcDbPlotSettings
  1

  2
none_device
  4
ANSI_C_(22.00_x_17.00_Inches)
  6

 40
0.0
 41
0.0
 42
0.0
 43
0.0
 44
558.8
 45
431.8
 46
0.0
 47
0.0
 48
0.0
 49
0.0
140
0.0
141
0.0
142
1.0
143
1.0
 70
1024
 72
0
 73
0
 74
0
  7

 75
0
147
1.0
148
0.0
149
0.0
100
AcDbLayout
  1
Model
 70
0
 71
0
 10
0.0
 20
0.0
 11
22.0
 21
17.0
 12
0.0
 22
0.0
 32
0.0
 14
0.0
 24
0.0
 34
0.0
 15
0.0
 25
0.0
 35
0.0
146
0.0
 13
0.0
 23
0.0
 33
0.0
 16
1.0
 26
0.0
 36
0.0
 17
0.0
 27
1.0
 37
0.0
 76
0
330
205
345
0
346
0
  0
LAYOUT
  5
244
102
{ACAD_REACTORS
330
1A
102
}
100
AcDbPlotSettings
  1

  2
none_device
  4
ANSI_C_(22.00_x_17.00_Inches)
  6

 40
0.0
 41
0.0
 42
0.0
 43
0.0
 44
558.8
 45
431.8
 46
0.0
 47
0.0
 48
0.0
 49
0.0
140
0.0
141
0.0
142
1.0
143
1.0
 70
0
 72
0
 73
0
 74
0
  7

 75
0
147
1.0
148
0.0
149
0.0
100
AcDbLayout
  1
Layout1
 70
0
 71
1
 10
0.0
 20
0.0
 11
22.0
 21
17.0
 12
0.0
 22
0.0
 32
0.0
 14
0.0
 24
0.0
 34
0.0
 15
0.0
 25
0.0
 35
0.0
146
0.0
 13
0.0
 23
0.0
 33
0.0
 16
1.0
 26
0.0
 36
0.0
 17
0.0
 27
1.0
 37
0.0
 76
0
330
206
345
0
346
0
  0
ENDSEC
  0
EOF
