999
DXF file: E:\BT Custom\CADOUTPUT\_RIGHT.dxf
999
Pro/ENGINEER 2018400 by Parametric Technology Corporation
  0
SECTION
  2
HEADER
  9
$ACADVER
  1
AC1018
  9
$DWGCODEPAGE
  3
ANSI_1252
  9
$EXTMAX
 10
22.0
 20
17.0
 30
0.0
  9
$EXTMIN
 10
0.0
 20
0.0
 30
0.0
  9
$LIMMIN
 10
0.0
 20
0.0
  9
$LIMMAX
 10
22.0
 20
17.0
  9
$VIEWCTR
 10
11.0
 20
8.5
  9
$VIEWSIZE
 40
17.0
  9
$CLAYER
  8
0
  9
$LTSCALE
 40
1.21
  9
$CELTYPE
  6
BYLAYER
  9
$DIMSCALE
 40
1.0
  9
$DIMASZ
 40
0.1
  9
$DIMEXO
 40
0.0625
  9
$DIMDLI
 40
0.836
  9
$DIMEXE
 40
0.125
  9
$DIMCEN
 40
0.198
  9
$DIMLFAC
 40
1.0
  9
$DIMBLK
  1
_FILLED
  9
$DIMALT
 70
1
  9
$DIMALTD
 70
2
  9
$DIMALTTD
 70
2
  9
$DIMALTF
 40
25.4
  9
$DIMTXT
 40
0.08
  9
$DIMTOL
 70
1
  9
$DIMLIM
 70
0
  9
$DIMTFAC
 40
1.0
  9
$DIMTP
 40
0.001
  9
$DIMTM
 40
0.001
  9
$DIMGAP
 40
0.09
  9
$DIMDSEP
 70
46
  9
$AUNITS
 70
0
  9
$PDMODE
 70
3
  9
$PDSIZE
 40
0.06
  9
$HANDSEED
  5
24B
  9
$TILEMODE
 70
1
  9
$MEASUREMENT
 70
0
  9
$INSUNITS
 70
1
  0
ENDSEC
  0
SECTION
  2
CLASSES
  0
CLASS
  1
ACDBDICTIONARYWDFLT
  2
AcDbDictionaryWithDefault
  3
AutoCAD 2000
 90
0
 91
1
280
0
281
0
  0
CLASS
  1
ACDBPLACEHOLDER
  2
AcDbPlaceHolder
  3
AutoCAD 2000
 90
0
 91
1
280
0
281
0
  0
CLASS
  1
LAYOUT
  2
AcDbLayout
  3
AutoCAD 2000
 90
0
 91
0
280
0
281
0
  0
ENDSEC
  0
SECTION
  2
TABLES
  0
TABLE
  2
VPORT
  5
8
100
AcDbSymbolTable
 70
2
  0
VPORT
  5
1F4
100
AcDbSymbolTableRecord
100
AcDbViewportTableRecord
  2
*ACTIVE
 70
0
 10
0.0
 20
0.0
 11
1.0
 21
1.0
 12
11.0
 22
8.5
 13
0.0
 23
0.0
 14
1.0
 24
1.0
 15
0.0
 25
0.0
 16
0.0
 26
0.0
 36
1.0
 17
0.0
 27
0.0
 37
0.0
 40
17.0
 41
1.2941176471
 42
50.0
 43
0.0
 44
0.0
 50
0.0
 51
0.0
 71
0
 72
100
 73
1
 74
1
 75
0
 76
0
 77
0
 78
0
  0
ENDTAB
  0
TABLE
  2
LTYPE
  5
5
100
AcDbSymbolTable
 70
6
  0
LTYPE
  5
14
100
AcDbSymbolTableRecord
100
AcDbLinetypeTableRecord
  2
BYBLOCK
 70
0
  3

 72
65
 73
0
 40
0.0
  0
LTYPE
  5
15
100
AcDbSymbolTableRecord
100
AcDbLinetypeTableRecord
  2
BYLAYER
 70
0
  3

 72
65
 73
0
 40
0.0
  0
LTYPE
  5
16
100
AcDbSymbolTableRecord
100
AcDbLinetypeTableRecord
  2
CONTINUOUS
 70
64
  3
Solid line
 72
65
 73
0
 40
0.0
  0
LTYPE
  5
1F5
100
AcDbSymbolTableRecord
100
AcDbLinetypeTableRecord
  2
CENTER
 70
64
  3
____ _ ____ _ ____ _ ____ _ ____ _ ____ _ ____
 72
65
 73
4
 40
0.6
 49
0.375
 74
0
 49
-0.075
 74
0
 49
0.075
 74
0
 49
-0.075
 74
0
  0
LTYPE
  5
1F6
100
AcDbSymbolTableRecord
100
AcDbLinetypeTableRecord
  2
HIDDEN
 70
64
  3
- - - - - - - - - - - - - - - - - - - -
 72
65
 73
2
 40
0.2
 49
0.1
 74
0
 49
-0.1
 74
0
  0
LTYPE
  5
1F7
100
AcDbSymbolTableRecord
100
AcDbLinetypeTableRecord
  2
PHANTOM
 70
64
  3
_____ _ _ _____ _ _ _____ _ _ _____
 72
65
 73
6
 40
0.8
 49
0.45
 74
0
 49
-0.05
 74
0
 49
0.1
 74
0
 49
-0.05
 74
0
 49
0.1
 74
0
 49
-0.05
 74
0
  0
LTYPE
  5
1F8
100
AcDbSymbolTableRecord
100
AcDbLinetypeTableRecord
  2
DOT
 70
64
  3
. . . . . . . . . . . . . . . . . . . .
 72
65
 73
2
 40
0.2
 49
0.1
 74
0
 49
-0.1
 74
0
  0
LTYPE
  5
1F9
100
AcDbSymbolTableRecord
100
AcDbLinetypeTableRecord
  2
DASHED
 70
64
  3
- - - - - - - - - - - - - - - - - - - -
 72
65
 73
2
 40
0.2
 49
0.1
 74
0
 49
-0.1
 74
0
  0
ENDTAB
  0
TABLE
  2
LAYER
  5
2
100
AcDbSymbolTable
 70
36
  0
LAYER
  5
10
100
AcDbSymbolTableRecord
100
AcDbLayerTableRecord
  2
0
 70
0
 62
7
  6
CONTINUOUS
370
-3
390
F
  0
LAYER
  5
1FA
100
AcDbSymbolTableRecord
100
AcDbLayerTableRecord
  2
DEFAULT_1
 70
0
 62
7
  6
CENTER
370
-3
390
F
  0
LAYER
  5
1FB
100
AcDbSymbolTableRecord
100
AcDbLayerTableRecord
  2
DEFAULT_2
 70
0
 62
8
  6
HIDDEN
370
-3
390
F
  0
LAYER
  5
1FC
100
AcDbSymbolTableRecord
100
AcDbLayerTableRecord
  2
DEFAULT_3
 70
0
 62
7
  6
PHANTOM
370
-3
390
F
  0
LAYER
  5
1FD
100
AcDbSymbolTableRecord
100
AcDbLayerTableRecord
  2
ALL_FEATURES
 70
0
 62
7
  6
CONTINUOUS
370
-3
390
F
  0
LAYER
  5
1FE
100
AcDbSymbolTableRecord
100
AcDbLayerTableRecord
  2
AXES_FEATURES
 70
0
 62
7
  6
CONTINUOUS
370
-3
390
F
  0
LAYER
  5
1FF
100
AcDbSymbolTableRecord
100
AcDbLayerTableRecord
  2
DIMENSIONS
 70
0
 62
7
  6
CONTINUOUS
370
-3
390
F
  0
ENDTAB
  0
TABLE
  2
STYLE
  5
3
100
AcDbSymbolTable
 70
1
  0
STYLE
  5
11
100
AcDbSymbolTableRecord
100
AcDbTextStyleTableRecord
  2
STANDARD
 70
0
 40
0.0
 41
0.8
 50
0.0
 71
0
 42
0.2
  3
txt
  4

  0
STYLE
  5
200
100
AcDbSymbolTableRecord
100
AcDbTextStyleTableRecord
  2
TEXTSTYLE_1
 70
0
 40
0.0
 41
0.8
 50
0.0
 71
0
 42
0.2
  3
gdt
  4

  0
ENDTAB
  0
TABLE
  2
VIEW
  5
6
100
AcDbSymbolTable
 70
0
  0
ENDTAB
  0
TABLE
  2
UCS
  5
7
100
AcDbSymbolTable
 70
0
  0
ENDTAB
  0
TABLE
  2
APPID
  5
9
100
AcDbSymbolTable
 70
1
  0
APPID
  5
201
100
AcDbSymbolTableRecord
100
AcDbRegAppTableRecord
  2
ACAD
 70
0
  0
ENDTAB
  0
TABLE
  2
BLOCK_RECORD
  5
1
100
AcDbSymbolTable
 70
0
  0
BLOCK_RECORD
  5
202
100
AcDbSymbolTableRecord
100
AcDbBlockTableRecord
  2
*Model_Space
  0
BLOCK_RECORD
  5
203
100
AcDbSymbolTableRecord
100
AcDbBlockTableRecord
  2
*Paper_Space
  0
BLOCK_RECORD
  5
204
100
AcDbSymbolTableRecord
100
AcDbBlockTableRecord
  2
_FILLED
  0
ENDTAB
  0
TABLE
  2
DIMSTYLE
  5
A
100
AcDbSymbolTable
 70
1
100
AcDbDimStyleTable
 71
0
  0
DIMSTYLE
105
205
100
AcDbSymbolTableRecord
100
AcDbDimStyleTableRecord
  2
STANDARD
 70
0
  3

  4

 40
1.0
 41
0.1
 42
0.0625
 43
0.38
 44
0.125
 45
0.0
 46
0.0
 47
0.001
 48
0.001
140
0.08
141
0.09
142
0.0
143
25.4
144
1.0
145
0.0
146
1.0
147
0.09
 71
1.0
 72
0.0
 73
1
 74
1
 75
0
 76
0
 77
0
 78
4
 79
1
170
1
171
2
172
0
173
0
174
0
175
0
176
0
177
0
178
0
270
2
179
3
271
3
272
3
273
2
274
2
275
0
280
0
281
0
282
0
283
1
284
4
285
0
286
0
287
3
288
0
340
11
278
46
341
204
342
204
343
204
344
204
  0
ENDTAB
  0
ENDSEC
  0
SECTION
  2
BLOCKS
  0
BLOCK
  5
20
100
AcDbEntity
  8
0
100
AcDbBlockBegin
  2
*Model_Space
 70
0
 10
0.0
 20
0.0
 30
0.0
  3
*Model_Space
  1

  0
ENDBLK
  5
21
100
AcDbEntity
  8
0
100
AcDbBlockEnd
  0
BLOCK
  5
1C
100
AcDbEntity
  8
0
100
AcDbBlockBegin
  2
*Paper_Space
 70
0
 10
0.0
 20
0.0
 30
0.0
  3
*Paper_Space
  1

  0
ENDBLK
  5
1D
100
AcDbEntity
  8
0
100
AcDbBlockEnd
  0
BLOCK
  5
206
100
AcDbEntity
  8
0
100
AcDbBlockBegin
  2
_FILLED
 70
64
 10
0.0
 20
0.0
  3
_FILLED
  1

  0
SOLID
  5
207
100
AcDbEntity
  8
0
  6
BYBLOCK
 62
0
100
AcDbTrace
 10
0.0
 20
0.0
 11
-1.0
 21
0.2
 12
-1.0
 22
-0.2
 13
-1.0
 23
-0.2
  0
ENDBLK
  5
208
100
AcDbEntity
  8
0
  6
BYBLOCK
 62
0
100
AcDbBlockEnd
  0
ENDSEC
  0
SECTION
  2
ENTITIES
  0
LINE
  5
209
100
AcDbEntity
  8
0
100
AcDbLine
 62
7
  6
CONTINUOUS
 10
9.6099834891
 20
7.254891804
 11
11.8099834891
 21
7.254891804
  0
LINE
  5
20A
100
AcDbEntity
  8
0
100
AcDbLine
 62
7
  6
CONTINUOUS
 10
10.5654080639
 20
10.5522884163
 11
10.5654037732
 21
10.5522868897
  0
LWPOLYLINE
  5
20B
100
AcDbEntity
  8
0
100
AcDbPolyline
 62
7
  6
CONTINUOUS
 90
8
 70
0
 10
10.5654080639
 20
10.5522884163
 10
10.5091981297
 20
10.5275675751
 10
10.4462884963
 20
10.4869792228
 10
10.3927793888
 20
10.4376388402
 10
10.3483427854
 20
10.3799538795
 10
10.3134650346
 20
10.3136761725
 10
10.2897008784
 20
10.2382219561
 10
10.2799834734
 20
10.1473885029
  0
LINE
  5
20C
100
AcDbEntity
  8
0
100
AcDbLine
 62
9
  6
CONTINUOUS
 10
11.8099834891
 20
7.524891804
 11
9.6099834891
 21
7.524891804
  0
LINE
  5
20D
100
AcDbEntity
  8
0
100
AcDbLine
 62
7
  6
CONTINUOUS
 10
9.6499834891
 20
7.564891804
 11
11.7699834891
 21
7.564891804
  0
LINE
  5
20E
100
AcDbEntity
  8
0
100
AcDbLine
 62
7
  6
CONTINUOUS
 10
9.6099834891
 20
7.254891804
 11
9.6099834891
 21
7.524891804
  0
LINE
  5
20F
100
AcDbEntity
  8
0
100
AcDbLine
 62
9
  6
CONTINUOUS
 10
9.6499834891
 20
7.564891804
 11
9.6499834891
 21
7.254891804
  0
LINE
  5
210
100
AcDbEntity
  8
0
100
AcDbLine
 62
7
  6
CONTINUOUS
 10
11.1399834891
 20
7.940891804
 11
10.2799834891
 21
7.940891804
  0
LINE
  5
211
100
AcDbEntity
  8
0
100
AcDbLine
 62
7
  6
CONTINUOUS
 10
10.2799843073
 20
7.990891804
 11
11.139982671
 21
7.990891804
  0
LINE
  5
212
100
AcDbEntity
  8
0
100
AcDbLine
 62
7
  6
CONTINUOUS
 10
10.2799834891
 20
7.940891804
 11
10.2799834891
 21
7.564891804
  0
LINE
  5
213
100
AcDbEntity
  8
0
100
AcDbLine
 62
7
  6
CONTINUOUS
 10
10.2799834891
 20
7.990891804
 11
10.2799834891
 21
10.1473240031
  0
LINE
  5
214
100
AcDbEntity
  8
0
100
AcDbLine
 62
7
  6
CONTINUOUS
 10
10.3699834891
 20
7.940891804
 11
10.3699834891
 21
7.990891804
  0
LWPOLYLINE
  5
215
100
AcDbEntity
  8
0
100
AcDbPolyline
 62
7
  6
CONTINUOUS
 90
5
 70
0
 10
10.5919834919
 20
10.5899683709
 10
10.589519828
 20
10.5761472548
 10
10.5824217056
 20
10.5640162178
 10
10.5715740523
 20
10.5550941962
 10
10.5654318894
 20
10.5522969195
  0
LINE
  5
216
100
AcDbEntity
  8
0
100
AcDbLine
 62
9
  6
CONTINUOUS
 10
10.5519834891
 20
9.8190464956
 11
10.5519834891
 21
10.5321683073
  0
LINE
  5
217
100
AcDbEntity
  8
0
100
AcDbLine
 62
7
  6
CONTINUOUS
 10
10.5919834891
 20
9.820891804
 11
10.5919834891
 21
10.724891804
  0
LINE
  5
218
100
AcDbEntity
  8
0
100
AcDbLine
 62
9
  6
CONTINUOUS
 10
10.6319834891
 20
10.764891804
 11
10.6319834891
 21
9.780891804
  0
LINE
  5
219
100
AcDbEntity
  8
0
100
AcDbLine
 62
9
  6
CONTINUOUS
 10
10.7879834891
 20
9.780891804
 11
10.7879834891
 21
10.764891804
  0
LINE
  5
21A
100
AcDbEntity
  8
0
100
AcDbLine
 62
7
  6
CONTINUOUS
 10
10.8279834891
 20
10.724891804
 11
10.8279834891
 21
9.820891804
  0
LINE
  5
21B
100
AcDbEntity
  8
0
100
AcDbLine
 62
9
  6
CONTINUOUS
 10
10.8679834891
 20
10.5321685753
 11
10.8679834891
 21
9.8190467573
  0
LINE
  5
21C
100
AcDbEntity
  8
0
100
AcDbLine
 62
7
  6
CONTINUOUS
 10
11.0499834891
 20
7.940891804
 11
11.0499834891
 21
7.990891804
  0
LINE
  5
21D
100
AcDbEntity
  8
0
100
AcDbLine
 62
7
  6
CONTINUOUS
 10
11.1399834891
 20
7.940891804
 11
11.1399834891
 21
7.564891804
  0
LINE
  5
21E
100
AcDbEntity
  8
0
100
AcDbLine
 62
7
  6
CONTINUOUS
 10
11.1399834891
 20
7.990891804
 11
11.1399834891
 21
10.14732252
  0
LWPOLYLINE
  5
21F
100
AcDbEntity
  8
0
100
AcDbPolyline
 62
7
  6
CONTINUOUS
 90
7
 70
0
 10
11.1399835079
 20
10.1472911054
 10
11.130433051
 20
10.2374463669
 10
11.1067860712
 20
10.3129981697
 10
11.0720138982
 20
10.3793477623
 10
11.027683211
 20
10.4370967646
 10
10.9742759696
 20
10.486514545
 10
10.9114460047
 20
10.5272090845
  0
LINE
  5
220
100
AcDbEntity
  8
0
100
AcDbLine
 62
9
  6
CONTINUOUS
 10
10.7813451913
 20
9.740891804
 11
10.638621787
 21
9.740891804
  0
LINE
  5
221
100
AcDbEntity
  8
0
100
AcDbLine
 62
7
  6
CONTINUOUS
 10
10.7879834891
 20
9.780891804
 11
10.6319834891
 21
9.780891804
  0
LINE
  5
222
100
AcDbEntity
  8
0
100
AcDbLine
 62
9
  6
CONTINUOUS
 10
10.5919834891
 20
9.820891804
 11
10.8279834891
 21
9.820891804
  0
LINE
  5
223
100
AcDbEntity
  8
0
100
AcDbLine
 62
9
  6
CONTINUOUS
 10
11.7699834891
 20
7.254891804
 11
11.7699834891
 21
7.564891804
  0
LINE
  5
224
100
AcDbEntity
  8
0
100
AcDbLine
 62
7
  6
CONTINUOUS
 10
11.8099834891
 20
7.524891804
 11
11.8099834891
 21
7.254891804
  0
LINE
  5
225
100
AcDbEntity
  8
0
100
AcDbLine
 62
7
  6
CONTINUOUS
 10
10.854539958
 20
10.5522949691
 11
10.8545360348
 21
10.5522963646
  0
LINE
  5
226
100
AcDbEntity
  8
0
100
AcDbLine
 62
7
  6
CONTINUOUS
 10
10.9114460047
 20
10.5272090845
 11
10.8545360348
 21
10.5522963646
  0
LWPOLYLINE
  5
227
100
AcDbEntity
  8
0
100
AcDbPolyline
 62
7
  6
CONTINUOUS
 90
5
 70
0
 10
10.8545359537
 20
10.5522962479
 10
10.8483931547
 20
10.5550936638
 10
10.8375472593
 20
10.5640133855
 10
10.8304488483
 20
10.5761420257
 10
10.8279834728
 20
10.5899677029
  0
LINE
  5
228
100
AcDbEntity
  8
0
100
AcDbLine
 62
9
  6
CONTINUOUS
 10
10.8279834891
 20
10.724891804
 11
10.5919834891
 21
10.724891804
  0
LINE
  5
229
100
AcDbEntity
  8
0
100
AcDbLine
 62
7
  6
CONTINUOUS
 10
10.6319834891
 20
10.764891804
 11
10.7879834891
 21
10.764891804
  0
ARC
  5
22A
100
AcDbEntity
  8
0
100
AcDbCircle
 62
9
  6
CONTINUOUS
 10
10.7099978074
 20
10.1756075058
 40
0.3899929303
100
AcDbArc
 50
293.8972744064
 51
66.1027449294
  0
ARC
  5
22B
100
AcDbEntity
  8
0
100
AcDbCircle
 62
9
  6
CONTINUOUS
 10
10.7099691447
 20
10.1756075464
 40
0.3899929092
100
AcDbArc
 50
113.8972702054
 51
246.1027470951
  0
ARC
  5
22C
100
AcDbEntity
  8
0
100
AcDbCircle
 62
7
  6
CONTINUOUS
 10
10.6319834891
 20
9.820891804
 40
0.04
100
AcDbArc
 50
179.9999999899
 51
270.0
  0
ARC
  5
22D
100
AcDbEntity
  8
0
100
AcDbCircle
 62
7
  6
CONTINUOUS
 10
10.6319834891
 20
10.724891804
 40
0.04
100
AcDbArc
 50
90.0
 51
180.0
  0
ARC
  5
22E
100
AcDbEntity
  8
0
100
AcDbCircle
 62
7
  6
CONTINUOUS
 10
9.6499834891
 20
7.524891804
 40
0.04
100
AcDbArc
 50
90.0
 51
180.0
  0
ARC
  5
22F
100
AcDbEntity
  8
0
100
AcDbCircle
 62
7
  6
CONTINUOUS
 10
10.7879834891
 20
10.724891804
 40
0.04
100
AcDbArc
 50
0.0
 51
90.0
  0
ARC
  5
230
100
AcDbEntity
  8
0
100
AcDbCircle
 62
7
  6
CONTINUOUS
 10
11.7699834891
 20
7.524891804
 40
0.04
100
AcDbArc
 50
0.0
 51
90.0
  0
ARC
  5
231
100
AcDbEntity
  8
0
100
AcDbCircle
 62
7
  6
CONTINUOUS
 10
10.7879834891
 20
9.820891804
 40
0.04
100
AcDbArc
 50
270.0
 51
360.0
  0
SPLINE
  5
232
100
AcDbEntity
  8
0
100
AcDbSpline
 62
9
  6
CONTINUOUS
 70
0
 71
3
 72
21
 73
17
 74
0
 42
0.0000001
 43
0.0000001
 44
0.0000000001
 40
0.0
 40
0.0
 40
0.0
 40
0.0
 40
0.1966792747
 40
0.3804278845
 40
0.5456550243
 40
0.6201908632
 40
0.6889175553
 40
0.7515989276
 40
0.8079166848
 40
0.8574710182
 40
0.8998144173
 40
0.9345996284
 40
0.9620923195
 40
0.9733682523
 40
0.9832355414
 40
1.0
 40
1.0
 40
1.0
 40
1.0
 10
10.5779580024
 20
9.7761546178
 30
0.0
 10
10.5796105233
 20
9.7773869807
 30
0.0
 10
10.5827661748
 20
9.7798260432
 30
0.0
 10
10.5871757682
 20
9.7834687166
 30
0.0
 10
10.5905106451
 20
9.7864012414
 30
0.0
 10
10.592832306
 20
9.788652712
 30
0.0
 10
10.5943150577
 20
9.7902227956
 30
0.0
 10
10.5955792221
 20
9.7917321595
 30
0.0
 10
10.5966308593
 20
9.7931530478
 30
0.0
 10
10.5974771048
 20
9.7944569935
 30
0.0
 10
10.5981255993
 20
9.7956170176
 30
0.0
 10
10.5985875542
 20
9.7966125291
 30
0.0
 10
10.5988283531
 20
9.797349229
 30
0.0
 10
10.5989014048
 20
9.7978556309
 30
0.0
 10
10.5989008161
 20
9.7982531224
 30
0.0
 10
10.5988160771
 20
9.7985335705
 30
0.0
 10
10.5987183397
 20
9.7986795918
 30
0.0
  0
LINE
  5
233
100
AcDbEntity
  8
0
100
AcDbLine
 62
9
  6
CONTINUOUS
 10
10.5654231114
 20
10.5522697974
 11
10.565077811
 21
10.5521202788
  0
SPLINE
  5
234
100
AcDbEntity
  8
0
100
AcDbSpline
 62
9
  6
CONTINUOUS
 70
0
 71
3
 72
14
 73
10
 74
0
 42
0.0000001
 43
0.0000001
 44
0.0000000001
 40
0.0
 40
0.0
 40
0.0
 40
0.0
 40
0.0619602062
 40
0.1425778055
 40
0.2424732895
 40
0.3612061547
 40
0.4976892761
 40
0.6506084185
 40
1.0
 40
1.0
 40
1.0
 40
1.0
 10
10.565077811
 20
10.5521202788
 30
0.0
 10
10.5646328405
 20
10.5518983883
 30
0.0
 10
10.5637045679
 20
10.5512051049
 30
0.0
 10
10.5623597508
 20
10.5497959627
 30
0.0
 10
10.5608847504
 20
10.5478962464
 30
0.0
 10
10.5592917842
 20
10.5455320593
 30
0.0
 10
10.5575881821
 20
10.5427336254
 30
0.0
 10
10.5550714552
 20
10.5382669757
 30
0.0
 10
10.5532296698
 20
10.5346795772
 30
0.0
 10
10.5519830624
 20
10.5321681017
 30
0.0
  0
SPLINE
  5
235
100
AcDbEntity
  8
0
100
AcDbSpline
 62
9
  6
CONTINUOUS
 70
0
 71
3
 72
23
 73
19
 74
0
 42
0.0000001
 43
0.0000001
 44
0.0000000001
 40
0.0
 40
0.0
 40
0.0
 40
0.0
 40
0.0763863764
 40
0.1505315006
 40
0.2223218732
 40
0.2917545873
 40
0.3589189349
 40
0.4239555282
 40
0.4870437545
 40
0.5483775731
 40
0.6081586295
 40
0.6665941769
 40
0.723884068
 40
0.7802279347
 40
0.8358226122
 40
0.8908576218
 40
0.9455210236
 40
1.0
 40
1.0
 40
1.0
 40
1.0
 10
10.8420142226
 20
9.7761513927
 30
0.0
 10
10.8544875485
 20
9.7798021321
 30
0.0
 10
10.8787721251
 20
9.7880540526
 30
0.0
 10
10.9134872173
 20
9.8031826489
 30
0.0
 10
10.9457705559
 20
9.8206089418
 30
0.0
 10
10.9755147527
 20
9.8399788588
 30
0.0
 10
11.0026646492
 20
9.8610127752
 30
0.0
 10
11.0272303465
 20
9.8834393659
 30
0.0
 10
11.0492369281
 20
9.9070410075
 30
0.0
 10
11.0687349763
 20
9.9316204151
 30
0.0
 10
11.0857804452
 20
9.9570107092
 30
0.0
 10
11.1004243594
 20
9.9830703897
 30
0.0
 10
11.1127225
 20
10.0096718593
 30
0.0
 10
11.1227195422
 20
10.0367054787
 30
0.0
 10
11.1304536576
 20
10.0640722092
 30
0.0
 10
11.1359568449
 20
10.0916819436
 30
0.0
 10
11.139250338
 20
10.1194483231
 30
0.0
 10
11.1399829739
 20
10.1380263206
 30
0.0
 10
11.1399836154
 20
10.1472955359
 30
0.0
  0
SPLINE
  5
236
100
AcDbEntity
  8
0
100
AcDbSpline
 62
9
  6
CONTINUOUS
 70
0
 71
3
 72
11
 73
7
 74
0
 42
0.0000001
 43
0.0000001
 44
0.0000000001
 40
0.0
 40
0.0
 40
0.0
 40
0.0
 40
0.2506383368
 40
0.5000021933
 40
0.7494031996
 40
1.0
 40
1.0
 40
1.0
 40
1.0
 10
10.5779582116
 20
9.776154618
 30
0.0
 10
10.5811671117
 20
9.7709564497
 30
0.0
 10
10.5887669324
 20
9.7612639282
 30
0.0
 10
10.6033084462
 20
9.7499072747
 30
0.0
 10
10.6202637336
 20
9.7425889304
 30
0.0
 10
10.6325139539
 20
9.7408917733
 30
0.0
 10
10.638621787
 20
9.740891804
 30
0.0
  0
SPLINE
  5
237
100
AcDbEntity
  8
0
100
AcDbSpline
 62
9
  6
CONTINUOUS
 70
0
 71
3
 72
15
 73
11
 74
0
 42
0.0000001
 43
0.0000001
 44
0.0000000001
 40
0.0
 40
0.0
 40
0.0
 40
0.0
 40
0.121843533
 40
0.2476228843
 40
0.375812896
 40
0.5050811862
 40
0.6338482185
 40
0.7602665555
 40
0.8826868163
 40
1.0
 40
1.0
 40
1.0
 40
1.0
 10
10.5519834891
 20
9.8190465349
 30
0.0
 10
10.553392125
 20
9.8190465349
 30
0.0
 10
10.5562559922
 20
9.8191556023
 30
0.0
 10
10.5605767837
 20
9.8196488906
 30
0.0
 10
10.5649300584
 20
9.8205008722
 30
0.0
 10
10.5692258673
 20
9.8217411254
 30
0.0
 10
10.5733712729
 20
9.8233620697
 30
0.0
 10
10.5772739048
 20
9.8253346052
 30
0.0
 10
10.5808362326
 20
9.827637316
 30
0.0
 10
10.5829728155
 20
9.8294156604
 30
0.0
 10
10.5839587171
 20
9.830347025
 30
0.0
  0
SPLINE
  5
238
100
AcDbEntity
  8
0
100
AcDbSpline
 62
9
  6
CONTINUOUS
 70
0
 71
3
 72
12
 73
8
 74
0
 42
0.0000001
 43
0.0000001
 44
0.0000000001
 40
0.0
 40
0.0
 40
0.0
 40
0.0
 40
0.2809579471
 40
0.4133103488
 40
0.5399942528
 40
0.7782047354
 40
1.0
 40
1.0
 40
1.0
 40
1.0
 10
10.5839587171
 20
9.830347025
 30
0.0
 10
10.5852725267
 20
9.8315881588
 30
0.0
 10
10.5870593843
 20
9.8335834907
 30
0.0
 10
10.588976544
 20
9.8364860156
 30
0.0
 10
10.5904536782
 20
9.8393291961
 30
0.0
 10
10.5916582061
 20
9.842936847
 30
0.0
 10
10.5919839901
 20
9.8459038494
 30
0.0
 10
10.59198398
 20
9.8473306158
 30
0.0
  0
SPLINE
  5
239
100
AcDbEntity
  8
0
100
AcDbSpline
 62
9
  6
CONTINUOUS
 70
0
 71
3
 72
17
 73
13
 74
0
 42
0.0000001
 43
0.0000001
 44
0.0000000001
 40
0.0
 40
0.0
 40
0.0
 40
0.0
 40
0.0379968124
 40
0.0779256524
 40
0.1667785689
 40
0.217533075
 40
0.2728855573
 40
0.3970034832
 40
0.5373552925
 40
0.6887932487
 40
0.8449721991
 40
1.0
 40
1.0
 40
1.0
 40
1.0
 10
10.5919832798
 20
9.8208918945
 30
0.0
 10
10.5919832875
 20
9.8203795722
 30
0.0
 10
10.591882155
 20
9.8193264622
 30
0.0
 10
10.5912620801
 20
9.8171541679
 30
0.0
 10
10.5899844653
 20
9.8150421599
 30
0.0
 10
10.58819834
 20
9.8131093875
 30
0.0
 10
10.5858387049
 20
9.8110822095
 30
0.0
 10
10.5821585344
 20
9.8087874929
 30
0.0
 10
10.5769923786
 20
9.8065689945
 30
0.0
 10
10.5711993151
 20
9.8048207869
 30
0.0
 10
10.5650731094
 20
9.8036041464
 30
0.0
 10
10.56090056
 20
9.8031183469
 30
0.0
 10
10.558816752
 20
9.8029539096
 30
0.0
  0
SPLINE
  5
23A
100
AcDbEntity
  8
0
100
AcDbSpline
 62
9
  6
CONTINUOUS
 70
0
 71
3
 72
12
 73
8
 74
0
 42
0.0000001
 43
0.0000001
 44
0.0000000001
 40
0.0
 40
0.0
 40
0.0
 40
0.0
 40
0.2396144129
 40
0.3631801056
 40
0.4884389187
 40
0.7426560662
 40
1.0
 40
1.0
 40
1.0
 40
1.0
 10
10.5588167257
 20
9.8029538811
 30
0.0
 10
10.559728479
 20
9.8004581306
 30
0.0
 10
10.5613828635
 20
9.7967674409
 30
0.0
 10
10.5641016503
 20
9.7920794359
 30
0.0
 10
10.5672285688
 20
9.7874551341
 30
0.0
 10
10.5717295309
 20
9.7819911682
 30
0.0
 10
10.5758102387
 20
9.7780331398
 30
0.0
 10
10.5779584118
 20
9.776154618
 30
0.0
  0
SPLINE
  5
23B
100
AcDbEntity
  8
0
100
AcDbSpline
 62
9
  6
CONTINUOUS
 70
0
 71
3
 72
22
 73
18
 74
0
 42
0.0000001
 43
0.0000001
 44
0.0000000001
 40
0.0
 40
0.0
 40
0.0
 40
0.0
 40
0.0763950154
 40
0.1505489091
 40
0.2223473615
 40
0.2917877508
 40
0.4238947676
 40
0.4869896245
 40
0.5483298455
 40
0.6081168744
 40
0.6665584697
 40
0.7238543055
 40
0.7802039813
 40
0.8358045069
 40
0.89084541
 40
0.9455148257
 40
1.0
 40
1.0
 40
1.0
 40
1.0
 10
10.5779582116
 20
9.776154618
 30
0.0
 10
10.5654840452
 20
9.7798056381
 30
0.0
 10
10.5411949703
 20
9.7880506014
 30
0.0
 10
10.5064796018
 20
9.8031837007
 30
0.0
 10
10.4741912897
 20
9.820612084
 30
0.0
 10
10.4351882473
 20
9.8460104279
 30
0.0
 10
10.4005113088
 20
9.8750982885
 30
0.0
 10
10.3707233055
 20
9.9070491363
 30
0.0
 10
10.3512234824
 20
9.9316320737
 30
0.0
 10
10.334178221
 20
9.9570240114
 30
0.0
 10
10.3195345888
 20
9.9830859801
 30
0.0
 10
10.307237088
 20
10.0096895977
 30
0.0
 10
10.2972408971
 20
10.0367253603
 30
0.0
 10
10.2895079747
 20
10.0640942081
 30
0.0
 10
10.2840062586
 20
10.0917060328
 30
0.0
 10
10.2807145262
 20
10.1194744639
 30
0.0
 10
10.2799832662
 20
10.138053764
 30
0.0
 10
10.2799833609
 20
10.1473236171
 30
0.0
  0
SPLINE
  5
23C
100
AcDbEntity
  8
0
100
AcDbSpline
 62
9
  6
CONTINUOUS
 70
0
 71
3
 72
17
 73
13
 74
0
 42
0.0000001
 43
0.0000001
 44
0.0000000001
 40
0.0
 40
0.0
 40
0.0
 40
0.0
 40
0.1353217601
 40
0.2760058906
 40
0.4174475419
 40
0.4867818636
 40
0.5542536718
 40
0.681767422
 40
0.741579959
 40
0.7984840031
 40
0.9037096915
 40
1.0
 40
1.0
 40
1.0
 40
1.0
 10
10.8679834891
 20
10.5321685474
 30
0.0
 10
10.865549795
 20
10.5321685474
 30
0.0
 10
10.8605805088
 20
10.53249263
 30
0.0
 10
10.853195571
 20
10.5339704803
 30
0.0
 10
10.8472306481
 20
10.5361498337
 30
0.0
 10
10.8427723758
 20
10.5384352076
 30
0.0
 10
10.8387502356
 20
10.5409782264
 30
0.0
 10
10.8352525826
 20
10.5440004504
 30
0.0
 10
10.8324414545
 20
10.547385763
 30
0.0
 10
10.8302575597
 20
10.5507368553
 30
0.0
 10
10.8284676658
 20
10.5550831939
 30
0.0
 10
10.8279826525
 20
10.5587211816
 30
0.0
 10
10.8279826335
 20
10.5604529146
 30
0.0
  0
SPLINE
  5
23D
100
AcDbEntity
  8
0
100
AcDbSpline
 62
9
  6
CONTINUOUS
 70
0
 71
3
 72
11
 73
7
 74
0
 42
0.0000001
 43
0.0000001
 44
0.0000000001
 40
0.0
 40
0.0
 40
0.0
 40
0.0
 40
0.2506001378
 40
0.500000211
 40
0.7493622779
 40
1.0
 40
1.0
 40
1.0
 40
1.0
 10
10.7813451913
 20
9.740891804
 30
0.0
 10
10.7874531436
 20
9.7408915765
 30
0.0
 10
10.7997029551
 20
9.7425902326
 30
0.0
 10
10.81666045
 20
9.749905734
 30
0.0
 10
10.8311958242
 20
9.7612685459
 30
0.0
 10
10.8388058909
 20
9.7709528467
 30
0.0
 10
10.8420142226
 20
9.7761513927
 30
0.0
  0
SPLINE
  5
23E
100
AcDbEntity
  8
0
100
AcDbSpline
 62
9
  6
CONTINUOUS
 70
0
 71
3
 72
11
 73
7
 74
0
 42
0.0000001
 43
0.0000001
 44
0.0000000001
 40
0.0
 40
0.0
 40
0.0
 40
0.0
 40
0.2574312295
 40
0.5116269019
 40
0.7603896356
 40
1.0
 40
1.0
 40
1.0
 40
1.0
 10
10.8420140981
 20
9.7761513928
 30
0.0
 10
10.8441555415
 20
9.7780382114
 30
0.0
 10
10.8482386215
 20
9.7819924223
 30
0.0
 10
10.8536108633
 20
9.7885155906
 30
0.0
 10
10.858015678
 20
9.7954964444
 30
0.0
 10
10.8602607361
 20
9.8004505275
 30
0.0
 10
10.86114996
 20
9.8029538004
 30
0.0
  0
SPLINE
  5
23F
100
AcDbEntity
  8
0
100
AcDbSpline
 62
9
  6
CONTINUOUS
 70
0
 71
3
 72
9
 73
5
 74
0
 42
0.0000001
 43
0.0000001
 44
0.0000000001
 40
0.0
 40
0.0
 40
0.0
 40
0.0
 40
0.5127131069
 40
1.0
 40
1.0
 40
1.0
 40
1.0
 10
10.8611497572
 20
9.8029538138
 30
0.0
 10
10.8621651021
 20
9.8057654047
 30
0.0
 10
10.8642914358
 20
9.8111976987
 30
0.0
 10
10.8667202731
 20
9.8165022801
 30
0.0
 10
10.8679835613
 20
9.8190470301
 30
0.0
  0
SPLINE
  5
240
100
AcDbEntity
  8
0
100
AcDbSpline
 62
9
  6
CONTINUOUS
 70
0
 71
3
 72
16
 73
12
 74
0
 42
0.0000001
 43
0.0000001
 44
0.0000000001
 40
0.0
 40
0.0
 40
0.0
 40
0.0
 40
0.356043531
 40
0.5108068922
 40
0.6479557447
 40
0.7660613032
 40
0.864011174
 40
0.9053250709
 40
0.941593153
 40
0.9730135092
 40
1.0
 40
1.0
 40
1.0
 40
1.0
 10
10.8679837791
 20
10.5321683897
 30
0.0
 10
10.8666931065
 20
10.534768243
 30
0.0
 10
10.8647889538
 20
10.5384736874
 30
0.0
 10
10.862183393
 20
10.5430695303
 30
0.0
 10
10.8604303125
 20
10.5459168959
 30
0.0
 10
10.8587978498
 20
10.5482903714
 30
0.0
 10
10.8574811681
 20
10.5499291342
 30
0.0
 10
10.8564819061
 20
10.5509550058
 30
0.0
 10
10.8558112852
 20
10.5515401165
 30
0.0
 10
10.8551770633
 20
10.5519829142
 30
0.0
 10
10.8547475808
 20
10.5521956545
 30
0.0
 10
10.8545407705
 20
10.5522706954
 30
0.0
  0
SPLINE
  5
241
100
AcDbEntity
  8
0
100
AcDbSpline
 62
9
  6
CONTINUOUS
 70
0
 71
3
 72
18
 73
14
 74
0
 42
0.0000001
 43
0.0000001
 44
0.0000000001
 40
0.0
 40
0.0
 40
0.0
 40
0.0
 40
0.0368703747
 40
0.0756875595
 40
0.1622742298
 40
0.2118900307
 40
0.2661675649
 40
0.3886661113
 40
0.4567656714
 40
0.528768397
 40
0.6814731143
 40
0.8406356712
 40
1.0
 40
1.0
 40
1.0
 40
1.0
 10
10.827983498
 20
9.8208918589
 30
0.0
 10
10.8279834969
 20
9.8203946777
 30
0.0
 10
10.8280784217
 20
9.8193718355
 30
0.0
 10
10.8286647288
 20
9.8172536603
 30
0.0
 10
10.8298850453
 20
9.8151806897
 30
0.0
 10
10.8316057075
 20
9.8132695277
 30
0.0
 10
10.8339010736
 20
9.8112471228
 30
0.0
 10
10.8367017941
 20
9.809459157
 30
0.0
 10
10.839883798
 20
9.8079024538
 30
0.0
 10
10.8435419841
 20
9.8064092645
 30
0.0
 10
10.8485002872
 20
9.8048839583
 30
0.0
 10
10.8547367808
 20
9.8036251857
 30
0.0
 10
10.8590076934
 20
9.8031229082
 30
0.0
 10
10.8611499925
 20
9.802953849
 30
0.0
  0
SPLINE
  5
242
100
AcDbEntity
  8
0
100
AcDbSpline
 62
9
  6
CONTINUOUS
 70
0
 71
3
 72
9
 73
5
 74
0
 42
0.0000001
 43
0.0000001
 44
0.0000000001
 40
0.0
 40
0.0
 40
0.0
 40
0.0
 40
0.4872892128
 40
1.0
 40
1.0
 40
1.0
 40
1.0
 10
10.5519833999
 20
9.8190467674
 30
0.0
 10
10.5532466672
 20
9.8165020687
 30
0.0
 10
10.5556754147
 20
9.8111975996
 30
0.0
 10
10.5578016328
 20
9.8057654122
 30
0.0
 10
10.5588169219
 20
9.8029538923
 30
0.0
  0
SPLINE
  5
243
100
AcDbEntity
  8
0
100
AcDbSpline
 62
9
  6
CONTINUOUS
 70
0
 71
3
 72
19
 73
15
 74
0
 42
0.0000001
 43
0.0000001
 44
0.0000000001
 40
0.0
 40
0.0
 40
0.0
 40
0.0
 40
0.0221345331
 40
0.0468431869
 40
0.0761443362
 40
0.1112172707
 40
0.1527063848
 40
0.2008945868
 40
0.2558105752
 40
0.3173420659
 40
0.459147176
 40
0.6230812236
 40
0.8051723793
 40
1.0
 40
1.0
 40
1.0
 40
1.0
 10
10.8213296294
 20
9.7988009808
 30
0.0
 10
10.82120065
 20
9.7986057337
 30
0.0
 10
10.8210120814
 20
9.7981323686
 30
0.0
 10
10.8209952887
 20
9.7973156603
 30
0.0
 10
10.8212150599
 20
9.7963927506
 30
0.0
 10
10.8216661636
 20
9.7953639207
 30
0.0
 10
10.8223485107
 20
9.7942324201
 30
0.0
 10
10.8232504805
 20
9.7929966725
 30
0.0
 10
10.8243620445
 20
9.7916563253
 30
0.0
 10
10.8261971411
 20
9.7896340412
 30
0.0
 10
10.8289489997
 20
9.7868915449
 30
0.0
 10
10.8327806265
 20
9.7834369808
 30
0.0
 10
10.8371946081
 20
9.7797999662
 30
0.0
 10
10.8403593175
 20
9.7773772908
 30
0.0
 10
10.8420144519
 20
9.7761513925
 30
0.0
  0
SPLINE
  5
244
100
AcDbEntity
  8
0
100
AcDbSpline
 62
9
  6
CONTINUOUS
 70
0
 71
3
 72
21
 73
17
 74
0
 42
0.0000001
 43
0.0000001
 44
0.0000000001
 40
0.0
 40
0.0
 40
0.0
 40
0.0
 40
0.1756615602
 40
0.355191009
 40
0.5285051092
 40
0.684142292
 40
0.7518503237
 40
0.8117169248
 40
0.8632532861
 40
0.9060271005
 40
0.9399111688
 40
0.9657184243
 40
0.9760399103
 40
0.9849518013
 40
0.992794104
 40
1.0
 40
1.0
 40
1.0
 40
1.0
 10
10.7813451919
 20
9.740891804
 30
0.0
 10
10.7813451918
 20
9.7433205753
 30
0.0
 10
10.781419984
 20
9.7482318506
 30
0.0
 10
10.7817590817
 20
9.7555328535
 30
0.0
 10
10.7823536739
 20
9.7625397029
 30
0.0
 10
10.783056486
 20
9.7679821949
 30
0.0
 10
10.7837599296
 20
9.7718351738
 30
0.0
 10
10.7843041614
 20
9.7742520183
 30
0.0
 10
10.7848773305
 20
9.776306237
 30
0.0
 10
10.7854681627
 20
9.7779798339
 30
0.0
 10
10.786072763
 20
9.7792635964
 30
0.0
 10
10.7866156094
 20
9.7800745021
 30
0.0
 10
10.7870594594
 20
9.7805144022
 30
0.0
 10
10.7873672857
 20
9.7807313584
 30
0.0
 10
10.7876749059
 20
9.7808620024
 30
0.0
 10
10.7878838581
 20
9.7808918063
 30
0.0
 10
10.7879834898
 20
9.7808918063
 30
0.0
  0
SPLINE
  5
245
100
AcDbEntity
  8
0
100
AcDbSpline
 62
9
  6
CONTINUOUS
 70
0
 71
3
 72
12
 73
8
 74
0
 42
0.0000001
 43
0.0000001
 44
0.0000000001
 40
0.0
 40
0.0
 40
0.0
 40
0.0
 40
0.2224741111
 40
0.4609705969
 40
0.5875666458
 40
0.7196972357
 40
1.0
 40
1.0
 40
1.0
 40
1.0
 10
10.8279830064
 20
9.847330848
 30
0.0
 10
10.8279829962
 20
9.8459378909
 30
0.0
 10
10.8282931324
 20
9.8430442898
 30
0.0
 10
10.8294404045
 20
9.8395201811
 30
0.0
 10
10.8308469176
 20
9.8367372395
 30
0.0
 10
10.8326731909
 20
9.8338936141
 30
0.0
 10
10.8343795283
 20
9.831930642
 30
0.0
 10
10.8356356649
 20
9.8307049721
 30
0.0
  0
SPLINE
  5
246
100
AcDbEntity
  8
0
100
AcDbSpline
 62
9
  6
CONTINUOUS
 70
0
 71
3
 72
15
 73
11
 74
0
 42
0.0000001
 43
0.0000001
 44
0.0000000001
 40
0.0
 40
0.0
 40
0.0
 40
0.0
 40
0.1168117601
 40
0.2388948797
 40
0.3651901722
 40
0.4940222315
 40
0.6234873175
 40
0.7519223199
 40
0.8779507385
 40
1.0
 40
1.0
 40
1.0
 40
1.0
 10
10.8356356649
 20
9.8307049721
 30
0.0
 10
10.8366166095
 20
9.8297478195
 30
0.0
 10
10.8387507603
 20
9.8279173169
 30
0.0
 10
10.8423283113
 20
9.8255424619
 30
0.0
 10
10.8462674389
 20
9.8235076852
 30
0.0
 10
10.8504649827
 20
9.821833542
 30
0.0
 10
10.8548240131
 20
9.820550449
 30
0.0
 10
10.8592472682
 20
9.8196693312
 30
0.0
 10
10.8636396649
 20
9.8191594761
 30
0.0
 10
10.8665514929
 20
9.8190467602
 30
0.0
 10
10.8679834891
 20
9.8190467601
 30
0.0
  0
SPLINE
  5
247
100
AcDbEntity
  8
0
100
AcDbSpline
 62
9
  6
CONTINUOUS
 70
0
 71
3
 72
17
 73
13
 74
0
 42
0.0000001
 43
0.0000001
 44
0.0000000001
 40
0.0
 40
0.0
 40
0.0
 40
0.0
 40
0.0962901212
 40
0.2015156158
 40
0.2584195831
 40
0.3182320603
 40
0.4457457609
 40
0.5132175899
 40
0.5825519585
 40
0.7239937558
 40
0.8646780686
 40
1.0
 40
1.0
 40
1.0
 40
1.0
 10
10.5919844453
 20
10.5604527769
 30
0.0
 10
10.5919844369
 20
10.5587210403
 30
0.0
 10
10.5914994432
 20
10.5550830417
 30
0.0
 10
10.5897095632
 20
10.5507366852
 30
0.0
 10
10.5875256731
 20
10.5473855776
 30
0.0
 10
10.5847145445
 20
10.5440002468
 30
0.0
 10
10.5812168832
 20
10.5409780058
 30
0.0
 10
10.5771947291
 20
10.5384349726
 30
0.0
 10
10.5727364372
 20
10.5361495843
 30
0.0
 10
10.5667714848
 20
10.5339702171
 30
0.0
 10
10.5593865087
 20
10.532492358
 30
0.0
 10
10.5544171961
 20
10.5321682734
 30
0.0
 10
10.5519834891
 20
10.5321682733
 30
0.0
  0
SPLINE
  5
248
100
AcDbEntity
  8
0
100
AcDbSpline
 62
9
  6
CONTINUOUS
 70
0
 71
3
 72
21
 73
17
 74
0
 42
0.0000001
 43
0.0000001
 44
0.0000000001
 40
0.0
 40
0.0
 40
0.0
 40
0.0
 40
0.007205891
 40
0.0150481877
 40
0.0239600725
 40
0.0342815525
 40
0.0600887971
 40
0.0939728561
 40
0.1367466628
 40
0.1882830177
 40
0.2481496137
 40
0.3158576418
 40
0.4714948223
 40
0.6448089305
 40
0.8243384016
 40
1.0
 40
1.0
 40
1.0
 40
1.0
 10
10.6319834859
 20
9.7808917958
 30
0.0
 10
10.6320831175
 20
9.7808917959
 30
0.0
 10
10.6322920695
 20
9.7808619921
 30
0.0
 10
10.6325996894
 20
9.7807313484
 30
0.0
 10
10.6329075155
 20
9.7805143924
 30
0.0
 10
10.633351365
 20
9.7800744925
 30
0.0
 10
10.6338942109
 20
9.7792635872
 30
0.0
 10
10.6344988106
 20
9.7779798254
 30
0.0
 10
10.6350896422
 20
9.7763062291
 30
0.0
 10
10.6356628106
 20
9.7742520112
 30
0.0
 10
10.6362070419
 20
9.7718351675
 30
0.0
 10
10.6369104847
 20
9.7679821898
 30
0.0
 10
10.6376132961
 20
9.7625396993
 30
0.0
 10
10.6382078878
 20
9.7555328515
 30
0.0
 10
10.6385469854
 20
9.7482318498
 30
0.0
 10
10.6386217777
 20
9.7433205751
 30
0.0
 10
10.6386217777
 20
9.740891804
 30
0.0
  0
ENDSEC
  0
SECTION
  2
OBJECTS
  0
DICTIONARY
  5
C
100
AcDbDictionary
280
0
281
1
  3
ACAD_GROUP
350
D
  3
ACAD_MLINESTYLE
350
17
  3
ACAD_LAYOUT
350
1A
  3
ACAD_PLOTSETTINGS
350
19
  3
ACAD_PLOTSTYLENAME
350
E
  0
DICTIONARY
  5
D
102
{ACAD_REACTORS
330
C
102
}
100
AcDbDictionary
280
0
281
1
  0
ACDBDICTIONARYWDFLT
  5
E
102
{ACAD_REACTORS
330
C
102
}
100
AcDbDictionary
281
1
  3
Normal
350
F
100
AcDbDictionaryWithDefault
340
F
  0
DICTIONARY
  5
17
102
{ACAD_REACTORS
330
C
102
}
100
AcDbDictionary
280
0
281
1
  3
Standard
350
18
  0
DICTIONARY
  5
19
102
{ACAD_REACTORS
330
C
102
}
100
AcDbDictionary
281
1
  0
DICTIONARY
  5
1A
102
{ACAD_REACTORS
330
C
102
}
100
AcDbDictionary
281
1
  3
Model
350
249
  3
Layout1
350
24A
  0
ACDBPLACEHOLDER
  5
F
102
{ACAD_REACTORS
330
E
102
}
  0
MLINESTYLE
  5
18
102
{ACAD_REACTORS
330
17
102
}
100
AcDbMlineStyle
  2
STANDARD
 70
0
  3

 62
256
 51
90.0
 52
90.0
 71
2
 49
0.5
 62
256
  6
BYLAYER
 49
-0.5
 62
256
  6
BYLAYER
  0
LAYOUT
  5
249
102
{ACAD_REACTORS
330
1A
102
}
100
AcDbPlotSettings
  1

  2
none_device
  4
ANSI_C_(22.00_x_17.00_Inches)
  6

 40
0.0
 41
0.0
 42
0.0
 43
0.0
 44
558.8
 45
431.8
 46
0.0
 47
0.0
 48
0.0
 49
0.0
140
0.0
141
0.0
142
1.0
143
1.0
 70
1024
 72
0
 73
0
 74
0
  7

 75
0
147
1.0
148
0.0
149
0.0
100
AcDbLayout
  1
Model
 70
0
 71
0
 10
0.0
 20
0.0
 11
22.0
 21
17.0
 12
0.0
 22
0.0
 32
0.0
 14
0.0
 24
0.0
 34
0.0
 15
0.0
 25
0.0
 35
0.0
146
0.0
 13
0.0
 23
0.0
 33
0.0
 16
1.0
 26
0.0
 36
0.0
 17
0.0
 27
1.0
 37
0.0
 76
0
330
202
345
0
346
0
  0
LAYOUT
  5
24A
102
{ACAD_REACTORS
330
1A
102
}
100
AcDbPlotSettings
  1

  2
none_device
  4
ANSI_C_(22.00_x_17.00_Inches)
  6

 40
0.0
 41
0.0
 42
0.0
 43
0.0
 44
558.8
 45
431.8
 46
0.0
 47
0.0
 48
0.0
 49
0.0
140
0.0
141
0.0
142
1.0
143
1.0
 70
0
 72
0
 73
0
 74
0
  7

 75
0
147
1.0
148
0.0
149
0.0
100
AcDbLayout
  1
Layout1
 70
0
 71
1
 10
0.0
 20
0.0
 11
22.0
 21
17.0
 12
0.0
 22
0.0
 32
0.0
 14
0.0
 24
0.0
 34
0.0
 15
0.0
 25
0.0
 35
0.0
146
0.0
 13
0.0
 23
0.0
 33
0.0
 16
1.0
 26
0.0
 36
0.0
 17
0.0
 27
1.0
 37
0.0
 76
0
330
203
345
0
346
0
  0
ENDSEC
  0
EOF
