999
DXF file: E:\BT Custom\CADOUTPUT\_TOP.dxf
999
Pro/ENGINEER 2018400 by Parametric Technology Corporation
  0
SECTION
  2
HEADER
  9
$ACADVER
  1
AC1018
  9
$DWGCODEPAGE
  3
ANSI_1252
  9
$EXTMAX
 10
22.0
 20
17.0
 30
0.0
  9
$EXTMIN
 10
0.0
 20
0.0
 30
0.0
  9
$LIMMIN
 10
0.0
 20
0.0
  9
$LIMMAX
 10
22.0
 20
17.0
  9
$VIEWCTR
 10
11.0
 20
8.5
  9
$VIEWSIZE
 40
17.0
  9
$CLAYER
  8
0
  9
$LTSCALE
 40
1.21
  9
$CELTYPE
  6
BYLAYER
  9
$DIMSCALE
 40
1.0
  9
$DIMASZ
 40
0.1
  9
$DIMEXO
 40
0.0625
  9
$DIMDLI
 40
0.836
  9
$DIMEXE
 40
0.125
  9
$DIMCEN
 40
0.198
  9
$DIMLFAC
 40
1.0
  9
$DIMBLK
  1
_FILLED
  9
$DIMALT
 70
1
  9
$DIMALTD
 70
2
  9
$DIMALTTD
 70
2
  9
$DIMALTF
 40
25.4
  9
$DIMTXT
 40
0.08
  9
$DIMTOL
 70
1
  9
$DIMLIM
 70
0
  9
$DIMTFAC
 40
1.0
  9
$DIMTP
 40
0.001
  9
$DIMTM
 40
0.001
  9
$DIMGAP
 40
0.09
  9
$DIMDSEP
 70
46
  9
$AUNITS
 70
0
  9
$PDMODE
 70
3
  9
$PDSIZE
 40
0.06
  9
$HANDSEED
  5
249
  9
$TILEMODE
 70
1
  9
$MEASUREMENT
 70
0
  9
$INSUNITS
 70
1
  0
ENDSEC
  0
SECTION
  2
CLASSES
  0
CLASS
  1
ACDBDICTIONARYWDFLT
  2
AcDbDictionaryWithDefault
  3
AutoCAD 2000
 90
0
 91
1
280
0
281
0
  0
CLASS
  1
ACDBPLACEHOLDER
  2
AcDbPlaceHolder
  3
AutoCAD 2000
 90
0
 91
1
280
0
281
0
  0
CLASS
  1
LAYOUT
  2
AcDbLayout
  3
AutoCAD 2000
 90
0
 91
0
280
0
281
0
  0
ENDSEC
  0
SECTION
  2
TABLES
  0
TABLE
  2
VPORT
  5
8
100
AcDbSymbolTable
 70
2
  0
VPORT
  5
1F4
100
AcDbSymbolTableRecord
100
AcDbViewportTableRecord
  2
*ACTIVE
 70
0
 10
0.0
 20
0.0
 11
1.0
 21
1.0
 12
11.0
 22
8.5
 13
0.0
 23
0.0
 14
1.0
 24
1.0
 15
0.0
 25
0.0
 16
0.0
 26
0.0
 36
1.0
 17
0.0
 27
0.0
 37
0.0
 40
17.0
 41
1.2941176471
 42
50.0
 43
0.0
 44
0.0
 50
0.0
 51
0.0
 71
0
 72
100
 73
1
 74
1
 75
0
 76
0
 77
0
 78
0
  0
ENDTAB
  0
TABLE
  2
LTYPE
  5
5
100
AcDbSymbolTable
 70
6
  0
LTYPE
  5
14
100
AcDbSymbolTableRecord
100
AcDbLinetypeTableRecord
  2
BYBLOCK
 70
0
  3

 72
65
 73
0
 40
0.0
  0
LTYPE
  5
15
100
AcDbSymbolTableRecord
100
AcDbLinetypeTableRecord
  2
BYLAYER
 70
0
  3

 72
65
 73
0
 40
0.0
  0
LTYPE
  5
16
100
AcDbSymbolTableRecord
100
AcDbLinetypeTableRecord
  2
CONTINUOUS
 70
64
  3
Solid line
 72
65
 73
0
 40
0.0
  0
LTYPE
  5
1F5
100
AcDbSymbolTableRecord
100
AcDbLinetypeTableRecord
  2
CENTER
 70
64
  3
____ _ ____ _ ____ _ ____ _ ____ _ ____ _ ____
 72
65
 73
4
 40
0.6
 49
0.375
 74
0
 49
-0.075
 74
0
 49
0.075
 74
0
 49
-0.075
 74
0
  0
LTYPE
  5
1F6
100
AcDbSymbolTableRecord
100
AcDbLinetypeTableRecord
  2
HIDDEN
 70
64
  3
- - - - - - - - - - - - - - - - - - - -
 72
65
 73
2
 40
0.2
 49
0.1
 74
0
 49
-0.1
 74
0
  0
LTYPE
  5
1F7
100
AcDbSymbolTableRecord
100
AcDbLinetypeTableRecord
  2
PHANTOM
 70
64
  3
_____ _ _ _____ _ _ _____ _ _ _____
 72
65
 73
6
 40
0.8
 49
0.45
 74
0
 49
-0.05
 74
0
 49
0.1
 74
0
 49
-0.05
 74
0
 49
0.1
 74
0
 49
-0.05
 74
0
  0
LTYPE
  5
1F8
100
AcDbSymbolTableRecord
100
AcDbLinetypeTableRecord
  2
DOT
 70
64
  3
. . . . . . . . . . . . . . . . . . . .
 72
65
 73
2
 40
0.2
 49
0.1
 74
0
 49
-0.1
 74
0
  0
LTYPE
  5
1F9
100
AcDbSymbolTableRecord
100
AcDbLinetypeTableRecord
  2
DASHED
 70
64
  3
- - - - - - - - - - - - - - - - - - - -
 72
65
 73
2
 40
0.2
 49
0.1
 74
0
 49
-0.1
 74
0
  0
ENDTAB
  0
TABLE
  2
LAYER
  5
2
100
AcDbSymbolTable
 70
36
  0
LAYER
  5
10
100
AcDbSymbolTableRecord
100
AcDbLayerTableRecord
  2
0
 70
0
 62
7
  6
CONTINUOUS
370
-3
390
F
  0
LAYER
  5
1FA
100
AcDbSymbolTableRecord
100
AcDbLayerTableRecord
  2
DEFAULT_1
 70
0
 62
7
  6
CENTER
370
-3
390
F
  0
LAYER
  5
1FB
100
AcDbSymbolTableRecord
100
AcDbLayerTableRecord
  2
DEFAULT_2
 70
0
 62
8
  6
HIDDEN
370
-3
390
F
  0
LAYER
  5
1FC
100
AcDbSymbolTableRecord
100
AcDbLayerTableRecord
  2
DEFAULT_3
 70
0
 62
7
  6
PHANTOM
370
-3
390
F
  0
LAYER
  5
1FD
100
AcDbSymbolTableRecord
100
AcDbLayerTableRecord
  2
ALL_FEATURES
 70
0
 62
7
  6
CONTINUOUS
370
-3
390
F
  0
LAYER
  5
1FE
100
AcDbSymbolTableRecord
100
AcDbLayerTableRecord
  2
AXES_FEATURES
 70
0
 62
7
  6
CONTINUOUS
370
-3
390
F
  0
LAYER
  5
1FF
100
AcDbSymbolTableRecord
100
AcDbLayerTableRecord
  2
DIMENSIONS
 70
0
 62
7
  6
CONTINUOUS
370
-3
390
F
  0
ENDTAB
  0
TABLE
  2
STYLE
  5
3
100
AcDbSymbolTable
 70
1
  0
STYLE
  5
11
100
AcDbSymbolTableRecord
100
AcDbTextStyleTableRecord
  2
STANDARD
 70
0
 40
0.0
 41
0.8
 50
0.0
 71
0
 42
0.2
  3
txt
  4

  0
STYLE
  5
200
100
AcDbSymbolTableRecord
100
AcDbTextStyleTableRecord
  2
TEXTSTYLE_1
 70
0
 40
0.0
 41
0.8
 50
0.0
 71
0
 42
0.2
  3
gdt
  4

  0
ENDTAB
  0
TABLE
  2
VIEW
  5
6
100
AcDbSymbolTable
 70
0
  0
ENDTAB
  0
TABLE
  2
UCS
  5
7
100
AcDbSymbolTable
 70
0
  0
ENDTAB
  0
TABLE
  2
APPID
  5
9
100
AcDbSymbolTable
 70
1
  0
APPID
  5
201
100
AcDbSymbolTableRecord
100
AcDbRegAppTableRecord
  2
ACAD
 70
0
  0
ENDTAB
  0
TABLE
  2
BLOCK_RECORD
  5
1
100
AcDbSymbolTable
 70
0
  0
BLOCK_RECORD
  5
202
100
AcDbSymbolTableRecord
100
AcDbBlockTableRecord
  2
*Model_Space
  0
BLOCK_RECORD
  5
203
100
AcDbSymbolTableRecord
100
AcDbBlockTableRecord
  2
*Paper_Space
  0
BLOCK_RECORD
  5
204
100
AcDbSymbolTableRecord
100
AcDbBlockTableRecord
  2
_FILLED
  0
ENDTAB
  0
TABLE
  2
DIMSTYLE
  5
A
100
AcDbSymbolTable
 70
1
100
AcDbDimStyleTable
 71
0
  0
DIMSTYLE
105
205
100
AcDbSymbolTableRecord
100
AcDbDimStyleTableRecord
  2
STANDARD
 70
0
  3

  4

 40
1.0
 41
0.1
 42
0.0625
 43
0.38
 44
0.125
 45
0.0
 46
0.0
 47
0.001
 48
0.001
140
0.08
141
0.09
142
0.0
143
25.4
144
1.0
145
0.0
146
1.0
147
0.09
 71
1.0
 72
0.0
 73
1
 74
1
 75
0
 76
0
 77
0
 78
4
 79
1
170
1
171
2
172
0
173
0
174
0
175
0
176
0
177
0
178
0
270
2
179
3
271
3
272
3
273
2
274
2
275
0
280
0
281
0
282
0
283
1
284
4
285
0
286
0
287
3
288
0
340
11
278
46
341
204
342
204
343
204
344
204
  0
ENDTAB
  0
ENDSEC
  0
SECTION
  2
BLOCKS
  0
BLOCK
  5
20
100
AcDbEntity
  8
0
100
AcDbBlockBegin
  2
*Model_Space
 70
0
 10
0.0
 20
0.0
 30
0.0
  3
*Model_Space
  1

  0
ENDBLK
  5
21
100
AcDbEntity
  8
0
100
AcDbBlockEnd
  0
BLOCK
  5
1C
100
AcDbEntity
  8
0
100
AcDbBlockBegin
  2
*Paper_Space
 70
0
 10
0.0
 20
0.0
 30
0.0
  3
*Paper_Space
  1

  0
ENDBLK
  5
1D
100
AcDbEntity
  8
0
100
AcDbBlockEnd
  0
BLOCK
  5
206
100
AcDbEntity
  8
0
100
AcDbBlockBegin
  2
_FILLED
 70
64
 10
0.0
 20
0.0
  3
_FILLED
  1

  0
SOLID
  5
207
100
AcDbEntity
  8
0
  6
BYBLOCK
 62
0
100
AcDbTrace
 10
0.0
 20
0.0
 11
-1.0
 21
0.2
 12
-1.0
 22
-0.2
 13
-1.0
 23
-0.2
  0
ENDBLK
  5
208
100
AcDbEntity
  8
0
  6
BYBLOCK
 62
0
100
AcDbBlockEnd
  0
ENDSEC
  0
SECTION
  2
ENTITIES
  0
LINE
  5
209
100
AcDbEntity
  8
0
100
AcDbLine
 62
7
  6
CONTINUOUS
 10
9.1673183383
 20
6.4223318604
 11
9.1673183383
 21
8.5423318604
  0
LINE
  5
20A
100
AcDbEntity
  8
0
100
AcDbLine
 62
9
  6
CONTINUOUS
 10
9.2073183383
 20
8.5823318604
 11
9.2073183383
 21
6.3823318604
  0
LINE
  5
20B
100
AcDbEntity
  8
0
100
AcDbLine
 62
7
  6
CONTINUOUS
 10
9.7403183383
 20
7.4043318604
 11
9.7403183383
 21
7.5603318604
  0
LINE
  5
20C
100
AcDbEntity
  8
0
100
AcDbLine
 62
9
  6
CONTINUOUS
 10
9.7803183383
 20
7.6003318604
 11
9.7803183383
 21
7.3643318604
  0
LINE
  5
20D
100
AcDbEntity
  8
0
100
AcDbLine
 62
7
  6
CONTINUOUS
 10
12.7873183383
 20
6.3823318604
 11
9.2073183383
 21
6.3823318604
  0
LINE
  5
20E
100
AcDbEntity
  8
0
100
AcDbLine
 62
9
  6
CONTINUOUS
 10
9.1673183383
 20
6.4223318604
 11
12.8273183383
 21
6.4223318604
  0
LWPOLYLINE
  5
20F
100
AcDbEntity
  8
0
100
AcDbPolyline
 62
7
  6
CONTINUOUS
 90
3
 70
0
 10
10.7764569117
 20
7.3500331428
 10
10.7768418015
 20
7.3508050485
 10
10.7787669211
 20
7.3537458853
  0
LINE
  5
210
100
AcDbEntity
  8
0
100
AcDbLine
 62
9
  6
CONTINUOUS
 10
10.7521636467
 20
7.3243318604
 11
10.039041835
 21
7.3243318604
  0
LWPOLYLINE
  5
211
100
AcDbEntity
  8
0
100
AcDbPolyline
 62
7
  6
CONTINUOUS
 90
3
 70
0
 10
10.7775584929
 20
7.6126309528
 10
10.7768046731
 20
7.6139303369
 10
10.7767108473
 20
7.6141133904
  0
LWPOLYLINE
  5
212
100
AcDbEntity
  8
0
100
AcDbPolyline
 62
7
  6
CONTINUOUS
 90
4
 70
0
 10
10.7767108473
 20
7.6141133904
 10
10.7764436291
 20
7.6146834916
 10
10.7764493454
 20
7.6146534267
 10
10.7765473653
 20
7.6143602491
  0
LINE
  5
213
100
AcDbEntity
  8
0
100
AcDbLine
 62
7
  6
CONTINUOUS
 10
10.7765481963
 20
7.6143605159
 11
10.7765474513
 21
7.6143628231
  0
LWPOLYLINE
  5
214
100
AcDbEntity
  8
0
100
AcDbPolyline
 62
7
  6
CONTINUOUS
 90
3
 70
0
 10
10.7787669211
 20
7.3537458853
 10
10.781921672
 20
7.3571258749
 10
10.7856170998
 20
7.3599394921
  0
LWPOLYLINE
  5
215
100
AcDbEntity
  8
0
100
AcDbPolyline
 62
7
  6
CONTINUOUS
 90
3
 70
0
 10
10.7856170998
 20
7.3599394921
 10
10.7893925911
 20
7.3619775018
 10
10.7930050393
 20
7.3633066787
  0
LINE
  5
216
100
AcDbEntity
  8
0
100
AcDbLine
 62
7
  6
CONTINUOUS
 10
12.8873183383
 20
7.3643318604
 11
9.7803183383
 21
7.3643318604
  0
LINE
  5
217
100
AcDbEntity
  8
0
100
AcDbLine
 62
9
  6
CONTINUOUS
 10
9.7403183383
 20
7.4043318604
 11
12.9273183383
 21
7.4043318604
  0
LWPOLYLINE
  5
218
100
AcDbEntity
  8
0
100
AcDbPolyline
 62
7
  6
CONTINUOUS
 90
6
 70
0
 10
10.785399362
 20
7.604864941
 10
10.7835175401
 20
7.6062044675
 10
10.7817424707
 20
7.6077005922
 10
10.7801111081
 20
7.6093291244
 10
10.7786840749
 20
7.6110253972
 10
10.7775584929
 20
7.6126309528
  0
LINE
  5
219
100
AcDbEntity
  8
0
100
AcDbLine
 62
9
  6
CONTINUOUS
 10
12.9273183383
 20
7.5603318604
 11
9.7403183383
 21
7.5603318604
  0
LINE
  5
21A
100
AcDbEntity
  8
0
100
AcDbLine
 62
7
  6
CONTINUOUS
 10
9.7803183383
 20
7.6003318604
 11
12.8873183383
 21
7.6003318604
  0
LINE
  5
21B
100
AcDbEntity
  8
0
100
AcDbLine
 62
9
  6
CONTINUOUS
 10
10.039041567
 20
7.6403318604
 11
10.7521633851
 21
7.6403318604
  0
LWPOLYLINE
  5
21C
100
AcDbEntity
  8
0
100
AcDbPolyline
 62
7
  6
CONTINUOUS
 90
5
 70
0
 10
10.7931422019
 20
7.6013174428
 10
10.7912539676
 20
7.6019314085
 10
10.7893088126
 20
7.6027238564
 10
10.7873439854
 20
7.6037017165
 10
10.785399362
 20
7.604864941
  0
LINE
  5
21D
100
AcDbEntity
  8
0
100
AcDbLine
 62
9
  6
CONTINUOUS
 10
12.8273183383
 20
8.5423318604
 11
9.1673183383
 21
8.5423318604
  0
LINE
  5
21E
100
AcDbEntity
  8
0
100
AcDbLine
 62
7
  6
CONTINUOUS
 10
9.2073183383
 20
8.5823318604
 11
12.7873183383
 21
8.5823318604
  0
LINE
  5
21F
100
AcDbEntity
  8
0
100
AcDbLine
 62
9
  6
CONTINUOUS
 10
12.7873183383
 20
6.3823318604
 11
12.7873183383
 21
7.3643318604
  0
LINE
  5
220
100
AcDbEntity
  8
0
100
AcDbLine
 62
9
  6
CONTINUOUS
 10
12.7873183383
 20
7.6003318604
 11
12.7873183383
 21
8.5823318604
  0
LINE
  5
221
100
AcDbEntity
  8
0
100
AcDbLine
 62
7
  6
CONTINUOUS
 10
12.8273183383
 20
8.5423318604
 11
12.8273183383
 21
7.6003318604
  0
LINE
  5
222
100
AcDbEntity
  8
0
100
AcDbLine
 62
7
  6
CONTINUOUS
 10
12.8273183383
 20
7.3643318604
 11
12.8273183383
 21
6.4223318604
  0
LINE
  5
223
100
AcDbEntity
  8
0
100
AcDbLine
 62
9
  6
CONTINUOUS
 10
12.8873183383
 20
7.3643318604
 11
12.8873183383
 21
7.6003318604
  0
LINE
  5
224
100
AcDbEntity
  8
0
100
AcDbLine
 62
7
  6
CONTINUOUS
 10
12.9273183383
 20
7.5603318604
 11
12.9273183383
 21
7.4043318604
  0
ARC
  5
225
100
AcDbEntity
  8
0
100
AcDbCircle
 62
9
  6
CONTINUOUS
 10
10.3956025837
 20
7.4823175404
 40
0.3899929288
100
AcDbArc
 50
203.8972742119
 51
336.1027445534
  0
ARC
  5
226
100
AcDbEntity
  8
0
100
AcDbCircle
 62
7
  6
CONTINUOUS
 10
9.2073183383
 20
6.4223318604
 40
0.04
100
AcDbArc
 50
180.0
 51
270.0
  0
ARC
  5
227
100
AcDbEntity
  8
0
100
AcDbCircle
 62
7
  6
CONTINUOUS
 10
9.9246717524
 20
7.3243318604
 40
0.04
100
AcDbArc
 50
19.6451044273
 51
90.0
  0
ARC
  5
228
100
AcDbEntity
  8
0
100
AcDbCircle
 62
7
  6
CONTINUOUS
 10
9.7803183383
 20
7.4043318604
 40
0.04
100
AcDbArc
 50
180.0
 51
270.0
  0
ARC
  5
229
100
AcDbEntity
  8
0
100
AcDbCircle
 62
9
  6
CONTINUOUS
 10
10.8003687434
 20
7.3308793523
 40
0.0335522235
100
AcDbArc
 50
112.5308086151
 51
120.2579195887
  0
ARC
  5
22A
100
AcDbEntity
  8
0
100
AcDbCircle
 62
9
  6
CONTINUOUS
 10
10.7998933593
 20
7.3319729988
 40
0.0323598996
100
AcDbArc
 50
106.1610012602
 51
112.4953330991
  0
ARC
  5
22B
100
AcDbEntity
  8
0
100
AcDbCircle
 62
7
  6
CONTINUOUS
 10
10.3673183383
 20
7.4823318604
 40
0.43
100
AcDbArc
 50
199.6435843226
 51
342.1193317834
  0
ARC
  5
22C
100
AcDbEntity
  8
0
100
AcDbCircle
 62
7
  6
CONTINUOUS
 10
10.3673183383
 20
7.4823318604
 40
0.43
100
AcDbArc
 50
17.8814320925
 51
160.3474116999
  0
ARC
  5
22D
100
AcDbEntity
  8
0
100
AcDbCircle
 62
9
  6
CONTINUOUS
 10
10.3956026228
 20
7.4823462043
 40
0.3899929096
100
AcDbArc
 50
23.8972701457
 51
156.1027475561
  0
ARC
  5
22E
100
AcDbEntity
  8
0
100
AcDbCircle
 62
7
  6
CONTINUOUS
 10
9.2073183383
 20
8.5423318604
 40
0.04
100
AcDbArc
 50
90.0
 51
180.0
  0
ARC
  5
22F
100
AcDbEntity
  8
0
100
AcDbCircle
 62
7
  6
CONTINUOUS
 10
9.7803183383
 20
7.5603318604
 40
0.04
100
AcDbArc
 50
90.0
 51
180.0
  0
ARC
  5
230
100
AcDbEntity
  8
0
100
AcDbCircle
 62
7
  6
CONTINUOUS
 10
9.9246717524
 20
7.6403318604
 40
0.04
100
AcDbArc
 50
270.0
 51
340.354918535
  0
ARC
  5
231
100
AcDbEntity
  8
0
100
AcDbCircle
 62
9
  6
CONTINUOUS
 10
10.8004405723
 20
7.6339353528
 40
0.0337189922
100
AcDbArc
 50
239.7663478578
 51
247.4523825981
  0
ARC
  5
232
100
AcDbEntity
  8
0
100
AcDbCircle
 62
9
  6
CONTINUOUS
 10
10.7998799928
 20
7.6326232192
 40
0.0322922049
100
AcDbArc
 50
247.4782701621
 51
253.298495031
  0
ARC
  5
233
100
AcDbEntity
  8
0
100
AcDbCircle
 62
7
  6
CONTINUOUS
 10
12.7873183383
 20
6.4223318604
 40
0.04
100
AcDbArc
 50
270.0
 51
360.0
  0
ARC
  5
234
100
AcDbEntity
  8
0
100
AcDbCircle
 62
7
  6
CONTINUOUS
 10
12.8873183383
 20
7.4043318604
 40
0.04
100
AcDbArc
 50
270.0
 51
360.0
  0
ARC
  5
235
100
AcDbEntity
  8
0
100
AcDbCircle
 62
7
  6
CONTINUOUS
 10
12.7873183383
 20
8.5423318604
 40
0.04
100
AcDbArc
 50
0.0
 51
90.0
  0
ARC
  5
236
100
AcDbEntity
  8
0
100
AcDbCircle
 62
7
  6
CONTINUOUS
 10
12.8873183383
 20
7.5603318604
 40
0.04
100
AcDbArc
 50
0.0
 51
90.0
  0
SPLINE
  5
237
100
AcDbEntity
  8
0
100
AcDbSpline
 62
9
  6
CONTINUOUS
 70
0
 71
3
 72
26
 73
22
 74
0
 42
0.0000001
 43
0.0000001
 44
0.0000000001
 40
0.0
 40
0.0
 40
0.0
 40
0.0
 40
0.0087143765
 40
0.0166175896
 40
0.0250266809
 40
0.0350402483
 40
0.0473170542
 40
0.0622049401
 40
0.0798870814
 40
0.1004626473
 40
0.1239519933
 40
0.1502120548
 40
0.2102490745
 40
0.2788640666
 40
0.3540175176
 40
0.4336897677
 40
0.5162772811
 40
0.6002772836
 40
0.6841924925
 40
0.847147333
 40
1.0
 40
1.0
 40
1.0
 40
1.0
 10
9.9623449152
 20
7.3377805036
 30
0.0
 10
9.962265612
 20
7.3380029216
 30
0.0
 10
9.9621684095
 20
7.3384542755
 30
0.0
 10
9.962312422
 20
7.3391389243
 30
0.0
 10
9.9627510955
 20
7.3397238021
 30
0.0
 10
9.9634387722
 20
7.3402065694
 30
0.0
 10
9.964367549
 20
7.3406082234
 30
0.0
 10
9.965541083
 20
7.3409335558
 30
0.0
 10
9.9669610651
 20
7.341182735
 30
0.0
 10
9.9686265375
 20
7.3413536484
 30
0.0
 10
9.9705306939
 20
7.3414444324
 30
0.0
 10
9.9735062078
 20
7.3414597342
 30
0.0
 10
9.9777018361
 20
7.3412585218
 30
0.0
 10
9.9831996886
 20
7.3407207891
 30
0.0
 10
9.9891976076
 20
7.3398826663
 30
0.0
 10
9.9955319504
 20
7.338751377
 30
0.0
 10
10.0020571739
 20
7.3373492071
 30
0.0
 10
10.0086424832
 20
7.3356976871
 30
0.0
 10
10.0172586028
 20
7.3332128788
 30
0.0
 10
10.0274904817
 20
7.3296273903
 30
0.0
 10
10.0353322265
 20
7.3261730042
 30
0.0
 10
10.0390421387
 20
7.3243314337
 30
0.0
  0
SPLINE
  5
238
100
AcDbEntity
  8
0
100
AcDbSpline
 62
9
  6
CONTINUOUS
 70
0
 71
3
 72
9
 73
5
 74
0
 42
0.0000001
 43
0.0000001
 44
0.0000000001
 40
0.0
 40
0.0
 40
0.0
 40
0.0
 40
0.5415976501
 40
1.0
 40
1.0
 40
1.0
 40
1.0
 10
10.7521632336
 20
7.3243317712
 30
0.0
 10
10.7544753717
 20
7.3254795319
 30
0.0
 10
10.7587159073
 20
7.3276567163
 30
0.0
 10
10.7628629752
 20
7.3300124029
 30
0.0
 10
10.7647188548
 20
7.3311652932
 30
0.0
  0
SPLINE
  5
239
100
AcDbEntity
  8
0
100
AcDbSpline
 62
9
  6
CONTINUOUS
 70
0
 71
3
 72
17
 73
13
 74
0
 42
0.0000001
 43
0.0000001
 44
0.0000000001
 40
0.0
 40
0.0
 40
0.0
 40
0.0
 40
0.0962889514
 40
0.2015134295
 40
0.2584170207
 40
0.3182292346
 40
0.4457427836
 40
0.5132147267
 40
0.5825493205
 40
0.7239918315
 40
0.8646770766
 40
1.0
 40
1.0
 40
1.0
 40
1.0
 10
10.0673259079
 20
7.3643328166
 30
0.0
 10
10.0655942052
 20
7.3643328082
 30
0.0
 10
10.0619562726
 20
7.363847813
 30
0.0
 10
10.0576100035
 20
7.3620579309
 30
0.0
 10
10.0542589659
 20
7.3598740423
 30
0.0
 10
10.0508736989
 20
7.35706291
 30
0.0
 10
10.0478515198
 20
7.3535652479
 30
0.0
 10
10.0453085403
 20
7.3495430979
 30
0.0
 10
10.0430231966
 20
7.3450848036
 30
0.0
 10
10.0408438735
 20
7.3391198503
 30
0.0
 10
10.0393660451
 20
7.3317348773
 30
0.0
 10
10.0390419671
 20
7.3267655672
 30
0.0
 10
10.0390419671
 20
7.3243318604
 30
0.0
  0
SPLINE
  5
23A
100
AcDbEntity
  8
0
100
AcDbSpline
 62
9
  6
CONTINUOUS
 70
0
 71
3
 72
11
 73
7
 74
0
 42
0.0000001
 43
0.0000001
 44
0.0000000001
 40
0.0
 40
0.0
 40
0.0
 40
0.0
 40
0.2315755914
 40
0.475100746
 40
0.7314127254
 40
1.0
 40
1.0
 40
1.0
 40
1.0
 10
10.7738850795
 20
7.6014240721
 30
0.0
 10
10.772998354
 20
7.601722215
 30
0.0
 10
10.7712166812
 20
7.602452194
 30
0.0
 10
10.7686409402
 20
7.6039149777
 30
0.0
 10
10.7661394125
 20
7.6057642858
 30
0.0
 10
10.7645794178
 20
7.6072074554
 30
0.0
 10
10.7638216588
 20
7.6079840361
 30
0.0
  0
SPLINE
  5
23B
100
AcDbEntity
  8
0
100
AcDbSpline
 62
9
  6
CONTINUOUS
 70
0
 71
3
 72
15
 73
11
 74
0
 42
0.0000001
 43
0.0000001
 44
0.0000000001
 40
0.0
 40
0.0
 40
0.0
 40
0.0
 40
0.1168123462
 40
0.2388958198
 40
0.3651912581
 40
0.4940232908
 40
0.6234882142
 40
0.7519229585
 40
0.8779510662
 40
1.0
 40
1.0
 40
1.0
 40
1.0
 10
10.7638216588
 20
7.6079840361
 30
0.0
 10
10.7628644898
 20
7.6089649797
 30
0.0
 10
10.7610339556
 20
7.611099128
 30
0.0
 10
10.7586590566
 20
7.6146766793
 30
0.0
 10
10.7566242423
 20
7.6186158074
 30
0.0
 10
10.7549500682
 20
7.6228133518
 30
0.0
 10
10.7536669515
 20
7.6271723827
 30
0.0
 10
10.7527858175
 20
7.6315956384
 30
0.0
 10
10.7522759529
 20
7.6359880357
 30
0.0
 10
10.7521632349
 20
7.6388998641
 30
0.0
 10
10.7521632349
 20
7.6403318604
 30
0.0
  0
SPLINE
  5
23C
100
AcDbEntity
  8
0
100
AcDbSpline
 62
9
  6
CONTINUOUS
 70
0
 71
3
 72
12
 73
8
 74
0
 42
0.0000001
 43
0.0000001
 44
0.0000000001
 40
0.0
 40
0.0
 40
0.0
 40
0.0
 40
0.2443752373
 40
0.3687131753
 40
0.4941442362
 40
0.7469710523
 40
1.0
 40
1.0
 40
1.0
 40
1.0
 10
10.783462133
 20
7.6048028446
 30
0.0
 10
10.781940874
 20
7.6056870864
 30
0.0
 10
10.7797416362
 20
7.6071968727
 30
0.0
 10
10.777046443
 20
7.6095232207
 30
0.0
 10
10.7744912065
 20
7.6120903805
 30
0.0
 10
10.7716417298
 20
7.6156513013
 30
0.0
 10
10.7697607203
 20
7.6187847066
 30
0.0
 10
10.7689294833
 20
7.6204059149
 30
0.0
  0
SPLINE
  5
23D
100
AcDbEntity
  8
0
100
AcDbSpline
 62
9
  6
CONTINUOUS
 70
0
 71
3
 72
9
 73
5
 74
0
 42
0.0000001
 43
0.0000001
 44
0.0000000001
 40
0.0
 40
0.0
 40
0.0
 40
0.0
 40
0.2562225233
 40
1.0
 40
1.0
 40
1.0
 40
1.0
 10
10.7689294833
 20
7.6204059149
 30
0.0
 10
10.7683922535
 20
7.6214537046
 30
0.0
 10
10.766475445
 20
7.6256336166
 30
0.0
 10
10.7652404419
 20
7.6301203042
 30
0.0
 10
10.7647189125
 20
7.6334983638
 30
0.0
  0
SPLINE
  5
23E
100
AcDbEntity
  8
0
100
AcDbSpline
 62
9
  6
CONTINUOUS
 70
0
 71
3
 72
26
 73
22
 74
0
 42
0.0000001
 43
0.0000001
 44
0.0000000001
 40
0.0
 40
0.0
 40
0.0
 40
0.0
 40
0.1528442151
 40
0.3157951935
 40
0.3997122928
 40
0.4837157623
 40
0.5663067262
 40
0.6459808391
 40
0.7211337256
 40
0.7897475223
 40
0.8497844971
 40
0.8760448239
 40
0.8995344469
 40
0.9201101662
 40
0.9377923679
 40
0.9526803452
 40
0.9649573976
 40
0.9749714688
 40
0.9833813197
 40
0.9912852936
 40
1.0
 40
1.0
 40
1.0
 40
1.0
 10
10.0390419723
 20
7.6403321504
 30
0.0
 10
10.0353323358
 20
7.6384905876
 30
0.0
 10
10.0274909174
 20
7.6350363681
 30
0.0
 10
10.0172592772
 20
7.6314512308
 30
0.0
 10
10.0086431469
 20
7.6289664859
 30
0.0
 10
10.0020576463
 20
7.6273148948
 30
0.0
 10
9.9955322415
 20
7.6259126026
 30
0.0
 10
9.9891978259
 20
7.6247811801
 30
0.0
 10
9.9831999507
 20
7.6239429489
 30
0.0
 10
9.9777021826
 20
7.6234051453
 30
0.0
 10
9.9735066038
 20
7.6232038936
 30
0.0
 10
9.9705310916
 20
7.6232191821
 30
0.0
 10
9.9686269261
 20
7.6233099689
 30
0.0
 10
9.9669614506
 20
7.6234809015
 30
0.0
 10
9.9655414731
 20
7.6237301149
 30
0.0
 10
9.9643679464
 20
7.624055493
 30
0.0
 10
9.9634391731
 20
7.624457201
 30
0.0
 10
9.9627514933
 20
7.6249400285
 30
0.0
 10
9.9623128079
 20
7.6255249548
 30
0.0
 10
9.9621687384
 20
7.6262096312
 30
0.0
 10
9.962265877
 20
7.6266610242
 30
0.0
 10
9.9623451496
 20
7.6268834613
 30
0.0
  0
SPLINE
  5
23F
100
AcDbEntity
  8
0
100
AcDbSpline
 62
9
  6
CONTINUOUS
 70
0
 71
3
 72
9
 73
5
 74
0
 42
0.0000001
 43
0.0000001
 44
0.0000000001
 40
0.0
 40
0.0
 40
0.0
 40
0.0
 40
0.4584066037
 40
1.0
 40
1.0
 40
1.0
 40
1.0
 10
10.7647189091
 20
7.6334981284
 30
0.0
 10
10.7628629659
 20
7.6346510762
 30
0.0
 10
10.758715804
 20
7.6370068801
 30
0.0
 10
10.7544751552
 20
7.6391841522
 30
0.0
 10
10.752162965
 20
7.6403319326
 30
0.0
  0
SPLINE
  5
240
100
AcDbEntity
  8
0
100
AcDbSpline
 62
9
  6
CONTINUOUS
 70
0
 71
3
 72
14
 73
10
 74
0
 42
0.0000001
 43
0.0000001
 44
0.0000000001
 40
0.0
 40
0.0
 40
0.0
 40
0.0
 40
0.2844097149
 40
0.4176185264
 40
0.5443606215
 40
0.664944129
 40
0.7801795447
 40
0.8912881619
 40
1.0
 40
1.0
 40
1.0
 40
1.0
 10
10.7765463549
 20
7.6143624693
 30
0.0
 10
10.7758785973
 20
7.6164326537
 30
0.0
 10
10.774807765
 20
7.6194471183
 30
0.0
 10
10.773112524
 20
7.6232519725
 30
0.0
 10
10.7717574132
 20
7.6258305827
 30
0.0
 10
10.7702681048
 20
7.6281741564
 30
0.0
 10
10.7686204549
 20
7.6302612398
 30
0.0
 10
10.7667913536
 20
7.6320663506
 30
0.0
 10
10.7654281545
 20
7.6330642557
 30
0.0
 10
10.764719012
 20
7.6334983313
 30
0.0
  0
SPLINE
  5
241
100
AcDbEntity
  8
0
100
AcDbSpline
 62
9
  6
CONTINUOUS
 70
0
 71
3
 72
17
 73
13
 74
0
 42
0.0000001
 43
0.0000001
 44
0.0000000001
 40
0.0
 40
0.0
 40
0.0
 40
0.0
 40
0.1353224859
 40
0.2760072985
 40
0.4174494719
 40
0.4867839585
 40
0.5542558501
 40
0.6817694894
 40
0.7415818338
 40
0.7984856027
 40
0.9037105474
 40
1.0
 40
1.0
 40
1.0
 40
1.0
 10
10.0390418146
 20
7.6403318604
 30
0.0
 10
10.0390418147
 20
7.6378981664
 30
0.0
 10
10.0393658924
 20
7.632928882
 30
0.0
 10
10.0408437203
 20
7.6255439465
 30
0.0
 10
10.0430230414
 20
7.6195790229
 30
0.0
 10
10.0453083826
 20
7.6151207489
 30
0.0
 10
10.0478513622
 20
7.6110986116
 30
0.0
 10
10.0508735408
 20
7.607600958
 30
0.0
 10
10.0542588067
 20
7.6047898273
 30
0.0
 10
10.0576098478
 20
7.6026059335
 30
0.0
 10
10.0619561225
 20
7.6008160382
 30
0.0
 10
10.065594062
 20
7.6003310237
 30
0.0
 10
10.0673257702
 20
7.6003310048
 30
0.0
  0
SPLINE
  5
242
100
AcDbEntity
  8
0
100
AcDbSpline
 62
9
  6
CONTINUOUS
 70
0
 71
3
 72
15
 73
11
 74
0
 42
0.0000001
 43
0.0000001
 44
0.0000000001
 40
0.0
 40
0.0
 40
0.0
 40
0.0
 40
0.1218432118
 40
0.2476222582
 40
0.3758120169
 40
0.5050801473
 40
0.6338471532
 40
0.7602656325
 40
0.8826862397
 40
1.0
 40
1.0
 40
1.0
 40
1.0
 10
10.7521634661
 20
7.3243318604
 30
0.0
 10
10.7521634662
 20
7.3257404963
 30
0.0
 10
10.7522725356
 20
7.328604364
 30
0.0
 10
10.7527658331
 20
7.332925156
 30
0.0
 10
10.7536178306
 20
7.3372784313
 30
0.0
 10
10.7548581071
 20
7.3415742408
 30
0.0
 10
10.7564790818
 20
7.3457196469
 30
0.0
 10
10.7584516544
 20
7.3496222792
 30
0.0
 10
10.7607544084
 20
7.3531846074
 30
0.0
 10
10.7625327841
 20
7.3553211878
 30
0.0
 10
10.7634641649
 20
7.3563070884
 30
0.0
  0
SPLINE
  5
243
100
AcDbEntity
  8
0
100
AcDbSpline
 62
9
  6
CONTINUOUS
 70
0
 71
3
 72
11
 73
7
 74
0
 42
0.0000001
 43
0.0000001
 44
0.0000000001
 40
0.0
 40
0.0
 40
0.0
 40
0.0
 40
0.2683409354
 40
0.5246562518
 40
0.768364639
 40
1.0
 40
1.0
 40
1.0
 40
1.0
 10
10.7634641649
 20
7.3563070884
 30
0.0
 10
10.7642117299
 20
7.3570984131
 30
0.0
 10
10.7657531658
 20
7.3585728199
 30
0.0
 10
10.7682309091
 20
7.3604746562
 30
0.0
 10
10.7707874467
 20
7.3619968771
 30
0.0
 10
10.7725615602
 20
7.3627681167
 30
0.0
 10
10.7734456476
 20
7.3630865696
 30
0.0
  0
SPLINE
  5
244
100
AcDbEntity
  8
0
100
AcDbSpline
 62
9
  6
CONTINUOUS
 70
0
 71
3
 72
11
 73
7
 74
0
 42
0.0000001
 43
0.0000001
 44
0.0000000001
 40
0.0
 40
0.0
 40
0.0
 40
0.0
 40
0.2467569706
 40
0.4972042588
 40
0.7492375344
 40
1.0
 40
1.0
 40
1.0
 40
1.0
 10
10.7834620003
 20
7.3598606177
 30
0.0
 10
10.7819266021
 20
7.3589675215
 30
0.0
 10
10.7789641823
 20
7.3569311302
 30
0.0
 10
10.7750107834
 20
7.3532341124
 30
0.0
 10
10.7716211041
 20
7.3489801961
 30
0.0
 10
10.7697544336
 20
7.3458653076
 30
0.0
 10
10.7689305478
 20
7.3442592125
 30
0.0
  0
SPLINE
  5
245
100
AcDbEntity
  8
0
100
AcDbSpline
 62
9
  6
CONTINUOUS
 70
0
 71
3
 72
9
 73
5
 74
0
 42
0.0000001
 43
0.0000001
 44
0.0000000001
 40
0.0
 40
0.0
 40
0.0
 40
0.0
 40
0.257821945
 40
1.0
 40
1.0
 40
1.0
 40
1.0
 10
10.7689305478
 20
7.3442592125
 30
0.0
 10
10.768389672
 20
7.3432048211
 30
0.0
 10
10.7664720043
 20
7.3390243808
 30
0.0
 10
10.7652392858
 20
7.3345364555
 30
0.0
 10
10.7647188129
 20
7.3311651232
 30
0.0
  0
SPLINE
  5
246
100
AcDbEntity
  8
0
100
AcDbSpline
 62
9
  6
CONTINUOUS
 70
0
 71
3
 72
13
 73
9
 74
0
 42
0.0000001
 43
0.0000001
 44
0.0000000001
 40
0.0
 40
0.0
 40
0.0
 40
0.0
 40
0.1090867816
 40
0.219963821
 40
0.4552968096
 40
0.5821595142
 40
0.7153463924
 40
1.0
 40
1.0
 40
1.0
 40
1.0
 10
10.7647189575
 20
7.3311650969
 30
0.0
 10
10.7654255998
 20
7.331608441
 30
0.0
 10
10.7667860194
 20
7.3326096499
 30
0.0
 10
10.7692803884
 20
7.3350523877
 30
0.0
 10
10.7713524322
 20
7.3380572571
 30
0.0
 10
10.7731120807
 20
7.3414121943
 30
0.0
 10
10.7748082039
 20
7.3452198638
 30
0.0
 10
10.7758795241
 20
7.3482351343
 30
0.0
 10
10.7765478805
 20
7.3503067831
 30
0.0
  0
ENDSEC
  0
SECTION
  2
OBJECTS
  0
DICTIONARY
  5
C
100
AcDbDictionary
280
0
281
1
  3
ACAD_GROUP
350
D
  3
ACAD_MLINESTYLE
350
17
  3
ACAD_LAYOUT
350
1A
  3
ACAD_PLOTSETTINGS
350
19
  3
ACAD_PLOTSTYLENAME
350
E
  0
DICTIONARY
  5
D
102
{ACAD_REACTORS
330
C
102
}
100
AcDbDictionary
280
0
281
1
  0
ACDBDICTIONARYWDFLT
  5
E
102
{ACAD_REACTORS
330
C
102
}
100
AcDbDictionary
281
1
  3
Normal
350
F
100
AcDbDictionaryWithDefault
340
F
  0
DICTIONARY
  5
17
102
{ACAD_REACTORS
330
C
102
}
100
AcDbDictionary
280
0
281
1
  3
Standard
350
18
  0
DICTIONARY
  5
19
102
{ACAD_REACTORS
330
C
102
}
100
AcDbDictionary
281
1
  0
DICTIONARY
  5
1A
102
{ACAD_REACTORS
330
C
102
}
100
AcDbDictionary
281
1
  3
Model
350
247
  3
Layout1
350
248
  0
ACDBPLACEHOLDER
  5
F
102
{ACAD_REACTORS
330
E
102
}
  0
MLINESTYLE
  5
18
102
{ACAD_REACTORS
330
17
102
}
100
AcDbMlineStyle
  2
STANDARD
 70
0
  3

 62
256
 51
90.0
 52
90.0
 71
2
 49
0.5
 62
256
  6
BYLAYER
 49
-0.5
 62
256
  6
BYLAYER
  0
LAYOUT
  5
247
102
{ACAD_REACTORS
330
1A
102
}
100
AcDbPlotSettings
  1

  2
none_device
  4
ANSI_C_(22.00_x_17.00_Inches)
  6

 40
0.0
 41
0.0
 42
0.0
 43
0.0
 44
558.8
 45
431.8
 46
0.0
 47
0.0
 48
0.0
 49
0.0
140
0.0
141
0.0
142
1.0
143
1.0
 70
1024
 72
0
 73
0
 74
0
  7

 75
0
147
1.0
148
0.0
149
0.0
100
AcDbLayout
  1
Model
 70
0
 71
0
 10
0.0
 20
0.0
 11
22.0
 21
17.0
 12
0.0
 22
0.0
 32
0.0
 14
0.0
 24
0.0
 34
0.0
 15
0.0
 25
0.0
 35
0.0
146
0.0
 13
0.0
 23
0.0
 33
0.0
 16
1.0
 26
0.0
 36
0.0
 17
0.0
 27
1.0
 37
0.0
 76
0
330
202
345
0
346
0
  0
LAYOUT
  5
248
102
{ACAD_REACTORS
330
1A
102
}
100
AcDbPlotSettings
  1

  2
none_device
  4
ANSI_C_(22.00_x_17.00_Inches)
  6

 40
0.0
 41
0.0
 42
0.0
 43
0.0
 44
558.8
 45
431.8
 46
0.0
 47
0.0
 48
0.0
 49
0.0
140
0.0
141
0.0
142
1.0
143
1.0
 70
0
 72
0
 73
0
 74
0
  7

 75
0
147
1.0
148
0.0
149
0.0
100
AcDbLayout
  1
Layout1
 70
0
 71
1
 10
0.0
 20
0.0
 11
22.0
 21
17.0
 12
0.0
 22
0.0
 32
0.0
 14
0.0
 24
0.0
 34
0.0
 15
0.0
 25
0.0
 35
0.0
146
0.0
 13
0.0
 23
0.0
 33
0.0
 16
1.0
 26
0.0
 36
0.0
 17
0.0
 27
1.0
 37
0.0
 76
0
330
203
345
0
346
0
  0
ENDSEC
  0
EOF
