999
DXF file: 3-641_FRONT.dxf
999
Pro/ENGINEER 2019352 by Parametric Technology Corporation
  0
SECTION
  2
HEADER
  9
$ACADVER
  1
AC1032
  9
$DWGCODEPAGE
  3
ANSI_1252
  9
$EXTMAX
 10
11.0
 20
8.5
 30
0.0
  9
$EXTMIN
 10
0.0
 20
0.0
 30
0.0
  9
$LIMMIN
 10
0.0
 20
0.0
  9
$LIMMAX
 10
11.0
 20
8.5
  9
$VIEWCTR
 10
5.5
 20
4.25
  9
$VIEWSIZE
 40
8.5
  9
$CLAYER
  8
0
  9
$LTSCALE
 40
0.605
  9
$CELTYPE
  6
BYLAYER
  9
$DIMSCALE
 40
1.0
  9
$DIMASZ
 40
0.1
  9
$DIMEXO
 40
0.0625
  9
$DIMDLI
 40
0.418
  9
$DIMEXE
 40
0.125
  9
$DIMCEN
 40
0.099
  9
$DIMLFAC
 40
1.0
  9
$DIMBLK
  1
_FILLED
  9
$DIMALT
 70
1
  9
$DIMALTD
 70
2
  9
$DIMALTTD
 70
2
  9
$DIMALTF
 40
25.4
  9
$DIMTXT
 40
0.08
  9
$DIMTOL
 70
1
  9
$DIMLIM
 70
0
  9
$DIMTFAC
 40
1.0
  9
$DIMTP
 40
0.001
  9
$DIMTM
 40
0.001
  9
$DIMGAP
 40
0.09
  9
$DIMDSEP
 70
46
  9
$AUNITS
 70
0
  9
$PDMODE
 70
3
  9
$PDSIZE
 40
0.3125
  9
$HANDSEED
  5
3F3
  9
$TILEMODE
 70
1
  9
$MEASUREMENT
 70
0
  9
$INSUNITS
 70
1
  0
ENDSEC
  0
SECTION
  2
CLASSES
  0
CLASS
  1
ACDBDICTIONARYWDFLT
  2
AcDbDictionaryWithDefault
  3
AutoCAD 2000
 90
0
 91
1
280
0
281
0
  0
CLASS
  1
ACDBPLACEHOLDER
  2
AcDbPlaceHolder
  3
AutoCAD 2000
 90
0
 91
1
280
0
281
0
  0
CLASS
  1
LAYOUT
  2
AcDbLayout
  3
AutoCAD 2000
 90
0
 91
0
280
0
281
0
  0
ENDSEC
  0
SECTION
  2
TABLES
  0
TABLE
  2
VPORT
  5
8
100
AcDbSymbolTable
 70
2
  0
VPORT
  5
1F4
100
AcDbSymbolTableRecord
100
AcDbViewportTableRecord
  2
*ACTIVE
 70
0
 10
0.0
 20
0.0
 11
1.0
 21
1.0
 12
5.5
 22
4.25
 13
0.0
 23
0.0
 14
1.0
 24
1.0
 15
0.0
 25
0.0
 16
0.0
 26
0.0
 36
1.0
 17
0.0
 27
0.0
 37
0.0
 40
8.5
 41
1.2941176471
 42
50.0
 43
0.0
 44
0.0
 50
0.0
 51
0.0
 71
0
 72
100
 73
1
 74
1
 75
0
 76
0
 77
0
 78
0
  0
ENDTAB
  0
TABLE
  2
LTYPE
  5
5
100
AcDbSymbolTable
 70
6
  0
LTYPE
  5
14
100
AcDbSymbolTableRecord
100
AcDbLinetypeTableRecord
  2
BYBLOCK
 70
0
  3

 72
65
 73
0
 40
0.0
  0
LTYPE
  5
15
100
AcDbSymbolTableRecord
100
AcDbLinetypeTableRecord
  2
BYLAYER
 70
0
  3

 72
65
 73
0
 40
0.0
  0
LTYPE
  5
16
100
AcDbSymbolTableRecord
100
AcDbLinetypeTableRecord
  2
CONTINUOUS
 70
64
  3
Solid line
 72
65
 73
0
 40
0.0
  0
LTYPE
  5
1F5
100
AcDbSymbolTableRecord
100
AcDbLinetypeTableRecord
  2
CENTER
 70
64
  3
____ _ ____ _ ____ _ ____ _ ____ _ ____ _ ____
 72
65
 73
4
 40
0.6
 49
0.375
 74
0
 49
-0.075
 74
0
 49
0.075
 74
0
 49
-0.075
 74
0
  0
LTYPE
  5
1F6
100
AcDbSymbolTableRecord
100
AcDbLinetypeTableRecord
  2
HIDDEN
 70
64
  3
- - - - - - - - - - - - - - - - - - - -
 72
65
 73
2
 40
0.2
 49
0.1
 74
0
 49
-0.1
 74
0
  0
LTYPE
  5
1F7
100
AcDbSymbolTableRecord
100
AcDbLinetypeTableRecord
  2
PHANTOM
 70
64
  3
_____ _ _ _____ _ _ _____ _ _ _____
 72
65
 73
6
 40
0.8
 49
0.45
 74
0
 49
-0.05
 74
0
 49
0.1
 74
0
 49
-0.05
 74
0
 49
0.1
 74
0
 49
-0.05
 74
0
  0
LTYPE
  5
1F8
100
AcDbSymbolTableRecord
100
AcDbLinetypeTableRecord
  2
DOT
 70
64
  3
. . . . . . . . . . . . . . . . . . . .
 72
65
 73
2
 40
0.2
 49
0.1
 74
0
 49
-0.1
 74
0
  0
LTYPE
  5
1F9
100
AcDbSymbolTableRecord
100
AcDbLinetypeTableRecord
  2
DASHED
 70
64
  3
- - - - - - - - - - - - - - - - - - - -
 72
65
 73
2
 40
0.2
 49
0.1
 74
0
 49
-0.1
 74
0
  0
ENDTAB
  0
TABLE
  2
LAYER
  5
2
100
AcDbSymbolTable
 70
36
  0
LAYER
  5
10
100
AcDbSymbolTableRecord
100
AcDbLayerTableRecord
  2
0
 70
0
 62
7
  6
CONTINUOUS
370
-3
390
F
  0
LAYER
  5
1FA
100
AcDbSymbolTableRecord
100
AcDbLayerTableRecord
  2
DEFAULT_1
 70
0
 62
7
  6
CENTER
370
-3
390
F
  0
LAYER
  5
1FB
100
AcDbSymbolTableRecord
100
AcDbLayerTableRecord
  2
DEFAULT_2
 70
0
 62
8
  6
HIDDEN
370
-3
390
F
  0
LAYER
  5
1FC
100
AcDbSymbolTableRecord
100
AcDbLayerTableRecord
  2
DEFAULT_3
 70
0
 62
7
  6
PHANTOM
370
-3
390
F
  0
LAYER
  5
1FD
100
AcDbSymbolTableRecord
100
AcDbLayerTableRecord
  2
DEFAULT_COORDINATE_SYSTEM
 70
0
 62
7
  6
CONTINUOUS
370
-3
390
F
  0
LAYER
  5
1FE
100
AcDbSymbolTableRecord
100
AcDbLayerTableRecord
  2
DEFAULT_DATUM_AXES
 70
0
 62
7
  6
CONTINUOUS
370
-3
390
F
  0
LAYER
  5
1FF
100
AcDbSymbolTableRecord
100
AcDbLayerTableRecord
  2
DEFAULT_DATUM_PLANES
 70
0
 62
7
  6
CONTINUOUS
370
-3
390
F
  0
ENDTAB
  0
TABLE
  2
STYLE
  5
3
100
AcDbSymbolTable
 70
1
  0
STYLE
  5
11
100
AcDbSymbolTableRecord
100
AcDbTextStyleTableRecord
  2
STANDARD
 70
0
 40
0.0
 41
0.8
 50
0.0
 71
0
 42
0.2
  3
txt
  4

  0
STYLE
  5
200
100
AcDbSymbolTableRecord
100
AcDbTextStyleTableRecord
  2
TEXTSTYLE_1
 70
0
 40
0.0
 41
0.8
 50
0.0
 71
0
 42
0.2
  3
gdt
  4

  0
ENDTAB
  0
TABLE
  2
VIEW
  5
6
100
AcDbSymbolTable
 70
0
  0
ENDTAB
  0
TABLE
  2
UCS
  5
7
100
AcDbSymbolTable
 70
0
  0
ENDTAB
  0
TABLE
  2
APPID
  5
9
100
AcDbSymbolTable
 70
1
  0
APPID
  5
201
100
AcDbSymbolTableRecord
100
AcDbRegAppTableRecord
  2
ACAD
 70
0
  0
ENDTAB
  0
TABLE
  2
BLOCK_RECORD
  5
1
100
AcDbSymbolTable
 70
0
  0
BLOCK_RECORD
  5
202
100
AcDbSymbolTableRecord
100
AcDbBlockTableRecord
  2
*Model_Space
  0
BLOCK_RECORD
  5
203
100
AcDbSymbolTableRecord
100
AcDbBlockTableRecord
  2
*Paper_Space
  0
BLOCK_RECORD
  5
204
100
AcDbSymbolTableRecord
100
AcDbBlockTableRecord
  2
_FILLED
  0
ENDTAB
  0
TABLE
  2
DIMSTYLE
  5
A
100
AcDbSymbolTable
 70
1
100
AcDbDimStyleTable
 71
0
  0
DIMSTYLE
105
205
100
AcDbSymbolTableRecord
100
AcDbDimStyleTableRecord
  2
STANDARD
 70
0
  3

  4

 40
1.0
 41
0.1
 42
0.0625
 43
0.38
 44
0.125
 45
0.0
 46
0.0
 47
0.001
 48
0.001
140
0.08
141
0.09
142
0.0
143
25.4
144
1.0
145
0.0
146
1.0
147
0.09
 71
1.0
 72
0.0
 73
1
 74
1
 75
0
 76
0
 77
0
 78
4
 79
1
170
1
171
2
172
0
173
0
174
0
175
0
176
0
177
0
178
0
270
2
179
3
271
3
272
3
273
2
274
2
275
0
280
0
281
0
282
0
283
1
284
4
285
0
286
0
287
3
288
0
340
11
278
46
341
204
342
204
343
204
344
204
  0
ENDTAB
  0
ENDSEC
  0
SECTION
  2
BLOCKS
  0
BLOCK
  5
20
100
AcDbEntity
  8
0
100
AcDbBlockBegin
  2
*Model_Space
 70
0
 10
0.0
 20
0.0
 30
0.0
  3
*Model_Space
  1

  0
ENDBLK
  5
21
100
AcDbEntity
  8
0
100
AcDbBlockEnd
  0
BLOCK
  5
1C
100
AcDbEntity
  8
0
100
AcDbBlockBegin
  2
*Paper_Space
 70
0
 10
0.0
 20
0.0
 30
0.0
  3
*Paper_Space
  1

  0
ENDBLK
  5
1D
100
AcDbEntity
  8
0
100
AcDbBlockEnd
  0
BLOCK
  5
206
100
AcDbEntity
  8
0
100
AcDbBlockBegin
  2
_FILLED
 70
64
 10
0.0
 20
0.0
  3
_FILLED
  1

  0
SOLID
  5
207
100
AcDbEntity
  8
0
  6
BYBLOCK
 62
0
100
AcDbTrace
 10
0.0
 20
0.0
 11
-1.0
 21
0.2
 12
-1.0
 22
-0.2
 13
-1.0
 23
-0.2
  0
ENDBLK
  5
208
100
AcDbEntity
  8
0
  6
BYBLOCK
 62
0
100
AcDbBlockEnd
  0
ENDSEC
  0
SECTION
  2
ENTITIES
  0
MTEXT
  5
209
100
AcDbEntity
  8
0
100
AcDbMText
 62
2
  6
CONTINUOUS
  7
STANDARD
 71
3
 72
1
 10
5.30785367
 20
1.5390472083
 30
0.0
 11
1.0
 21
0.0
 31
0.0
 73
2
 44
0.9
  1
SCALE 0.500
 40
0.08
 41
0.704
  0
LINE
  5
20A
100
AcDbEntity
  8
0
100
AcDbLine
 62
7
  6
CONTINUOUS
 10
0.0
 20
0.0
 11
0.0
 21
8.5
  0
LINE
  5
20B
100
AcDbEntity
  8
0
100
AcDbLine
 62
7
  6
CONTINUOUS
 10
0.0
 20
0.0
 11
11.0
 21
0.0
  0
LINE
  5
20C
100
AcDbEntity
  8
0
100
AcDbLine
 62
7
  6
CONTINUOUS
 10
0.0
 20
8.5
 11
11.0
 21
8.5
  0
LINE
  5
20D
100
AcDbEntity
  8
0
100
AcDbLine
 62
7
  6
CONTINUOUS
 10
11.0
 20
0.0
 11
11.0
 21
8.5
  0
LINE
  5
20E
100
AcDbEntity
  8
0
100
AcDbLine
 62
7
  6
CONTINUOUS
 10
4.68856101
 20
3.054765527
 11
5.15856101
 21
3.054765527
  0
LINE
  5
20F
100
AcDbEntity
  8
0
100
AcDbLine
 62
7
  6
CONTINUOUS
 10
4.6736391472
 20
3.069765527
 11
4.6742299822
 21
3.069765527
  0
LINE
  5
210
100
AcDbEntity
  8
0
100
AcDbLine
 62
7
  6
CONTINUOUS
 10
4.6796606403
 20
3.069765527
 11
4.6825864195
 21
3.069765527
  0
LINE
  5
211
100
AcDbEntity
  8
0
100
AcDbLine
 62
7
  6
CONTINUOUS
 10
4.6754551965
 20
3.069765527
 11
4.6772220113
 21
3.069765527
  0
LINE
  5
212
100
AcDbEntity
  8
0
100
AcDbLine
 62
7
  6
CONTINUOUS
 10
4.686214978
 20
3.069765527
 11
4.6902715448
 21
3.069765527
  0
LINE
  5
213
100
AcDbEntity
  8
0
100
AcDbLine
 62
7
  6
CONTINUOUS
 10
4.6950550877
 20
3.069765527
 11
4.7002033752
 21
3.069765527
  0
LINE
  5
214
100
AcDbEntity
  8
0
100
AcDbLine
 62
7
  6
CONTINUOUS
 10
4.7060958344
 20
3.069765527
 11
4.7122862617
 21
3.069765527
  0
LINE
  5
215
100
AcDbEntity
  8
0
100
AcDbLine
 62
7
  6
CONTINUOUS
 10
4.7192308896
 20
3.069765527
 11
4.7264038396
 21
3.069765527
  0
LINE
  5
216
100
AcDbEntity
  8
0
100
AcDbLine
 62
7
  6
CONTINUOUS
 10
4.7343337556
 20
3.069765527
 11
4.7424201487
 21
3.069765527
  0
LINE
  5
217
100
AcDbEntity
  8
0
100
AcDbLine
 62
7
  6
CONTINUOUS
 10
4.7512589835
 20
3.069765527
 11
4.7601809434
 21
3.069765527
  0
LINE
  5
218
100
AcDbEntity
  8
0
100
AcDbLine
 62
7
  6
CONTINUOUS
 10
4.7698435741
 20
3.069765527
 11
4.7795151774
 21
3.069765527
  0
LINE
  5
219
100
AcDbEntity
  8
0
100
AcDbLine
 62
7
  6
CONTINUOUS
 10
4.7899085476
 20
3.069765527
 11
4.8002366516
 21
3.069765527
  0
LINE
  5
21A
100
AcDbEntity
  8
0
100
AcDbLine
 62
7
  6
CONTINUOUS
 10
4.8112606674
 20
3.069765527
 11
4.8221458067
 21
3.069765527
  0
LINE
  5
21B
100
AcDbEntity
  8
0
100
AcDbLine
 62
7
  6
CONTINUOUS
 10
4.8336943008
 20
3.069765527
 11
4.8450316457
 21
3.069765527
  0
LINE
  5
21C
100
AcDbEntity
  8
0
100
AcDbLine
 62
7
  6
CONTINUOUS
 10
4.8569933999
 20
3.069765527
 11
4.8686737653
 21
3.069765527
  0
LINE
  5
21D
100
AcDbEntity
  8
0
100
AcDbLine
 62
7
  6
CONTINUOUS
 10
4.8809335813
 20
3.069765527
 11
4.8928444792
 21
3.069765527
  0
LINE
  5
21E
100
AcDbEntity
  8
0
100
AcDbLine
 62
7
  6
CONTINUOUS
 10
4.9052842883
 20
3.069765527
 11
4.91731101
 21
3.069765527
  0
LINE
  5
21F
100
AcDbEntity
  8
0
100
AcDbLine
 62
7
  6
CONTINUOUS
 10
4.92981101
 20
3.069765527
 11
4.9418377318
 21
3.069765527
  0
LINE
  5
220
100
AcDbEntity
  8
0
100
AcDbLine
 62
7
  6
CONTINUOUS
 10
4.9542775409
 20
3.069765527
 11
4.9661884387
 21
3.069765527
  0
LINE
  5
221
100
AcDbEntity
  8
0
100
AcDbLine
 62
7
  6
CONTINUOUS
 10
4.9784482547
 20
3.069765527
 11
4.9901286202
 21
3.069765527
  0
LINE
  5
222
100
AcDbEntity
  8
0
100
AcDbLine
 62
7
  6
CONTINUOUS
 10
5.0020903744
 20
3.069765527
 11
5.0134277192
 21
3.069765527
  0
LINE
  5
223
100
AcDbEntity
  8
0
100
AcDbLine
 62
7
  6
CONTINUOUS
 10
5.0249762134
 20
3.069765527
 11
5.0358613527
 21
3.069765527
  0
LINE
  5
224
100
AcDbEntity
  8
0
100
AcDbLine
 62
7
  6
CONTINUOUS
 10
5.0468853685
 20
3.069765527
 11
5.0572134725
 21
3.069765527
  0
LINE
  5
225
100
AcDbEntity
  8
0
100
AcDbLine
 62
7
  6
CONTINUOUS
 10
5.0676068427
 20
3.069765527
 11
5.077278446
 21
3.069765527
  0
LINE
  5
226
100
AcDbEntity
  8
0
100
AcDbLine
 62
7
  6
CONTINUOUS
 10
5.0869410767
 20
3.069765527
 11
5.0958630366
 21
3.069765527
  0
LINE
  5
227
100
AcDbEntity
  8
0
100
AcDbLine
 62
7
  6
CONTINUOUS
 10
5.1047018714
 20
3.069765527
 11
5.1127882645
 21
3.069765527
  0
LINE
  5
228
100
AcDbEntity
  8
0
100
AcDbLine
 62
7
  6
CONTINUOUS
 10
5.1207181805
 20
3.069765527
 11
5.1278911304
 21
3.069765527
  0
LINE
  5
229
100
AcDbEntity
  8
0
100
AcDbLine
 62
7
  6
CONTINUOUS
 10
5.1348357584
 20
3.069765527
 11
5.1410261857
 21
3.069765527
  0
LINE
  5
22A
100
AcDbEntity
  8
0
100
AcDbLine
 62
7
  6
CONTINUOUS
 10
5.1469186449
 20
3.069765527
 11
5.1520669323
 21
3.069765527
  0
LINE
  5
22B
100
AcDbEntity
  8
0
100
AcDbLine
 62
7
  6
CONTINUOUS
 10
5.1568504752
 20
3.069765527
 11
5.1609070421
 21
3.069765527
  0
LINE
  5
22C
100
AcDbEntity
  8
0
100
AcDbLine
 62
7
  6
CONTINUOUS
 10
5.1645356006
 20
3.069765527
 11
5.1674613798
 21
3.069765527
  0
LINE
  5
22D
100
AcDbEntity
  8
0
100
AcDbLine
 62
7
  6
CONTINUOUS
 10
5.1699000088
 20
3.069765527
 11
5.1716668236
 21
3.069765527
  0
LINE
  5
22E
100
AcDbEntity
  8
0
100
AcDbLine
 62
7
  6
CONTINUOUS
 10
5.1728920379
 20
3.069765527
 11
5.1734828728
 21
3.069765527
  0
LINE
  5
22F
100
AcDbEntity
  8
0
100
AcDbLine
 62
7
  6
CONTINUOUS
 10
5.0289961524
 20
5.005373825
 11
5.0208283502
 21
5.0000984991
  0
LINE
  5
230
100
AcDbEntity
  8
0
100
AcDbLine
 62
7
  6
CONTINUOUS
 10
4.5972531019
 20
4.7339485306
 11
4.5889563209
 21
4.7288784733
  0
LINE
  5
231
100
AcDbEntity
  8
0
100
AcDbLine
 62
7
  6
CONTINUOUS
 10
5.0526604225
 20
4.9965981611
 11
5.0441212335
 21
4.9919479667
  0
LINE
  5
232
100
AcDbEntity
  8
0
100
AcDbLine
 62
7
  6
CONTINUOUS
 10
4.6018409755
 20
4.7581960254
 11
4.5931885081
 21
4.7537601643
  0
LINE
  5
233
100
AcDbEntity
  8
0
100
AcDbLine
 62
7
  6
CONTINUOUS
 10
5.0756027162
 20
4.9860786027
 11
5.0667398952
 21
4.9820795455
  0
LINE
  5
234
100
AcDbEntity
  8
0
100
AcDbLine
 62
7
  6
CONTINUOUS
 10
4.608228038
 20
4.7820328672
 11
4.5992682723
 21
4.7782560092
  0
LINE
  5
235
100
AcDbEntity
  8
0
100
AcDbLine
 62
7
  6
CONTINUOUS
 10
5.0976947311
 20
4.9738739792
 11
5.0885578424
 21
4.9705484237
  0
LINE
  5
236
100
AcDbEntity
  8
0
100
AcDbLine
 62
7
  6
CONTINUOUS
 10
4.6163785703
 20
4.8053257505
 11
4.6071616131
 21
4.8022290175
  0
LINE
  5
237
100
AcDbEntity
  8
0
100
AcDbLine
 62
7
  6
CONTINUOUS
 10
4.6736391472
 20
3.444765527
 11
4.6742299822
 21
3.444765527
  0
LINE
  5
238
100
AcDbEntity
  8
0
100
AcDbLine
 62
7
  6
CONTINUOUS
 10
4.6754551965
 20
3.444765527
 11
4.6772220113
 21
3.444765527
  0
LINE
  5
239
100
AcDbEntity
  8
0
100
AcDbLine
 62
7
  6
CONTINUOUS
 10
4.6796606403
 20
3.444765527
 11
4.6825864195
 21
3.444765527
  0
LINE
  5
23A
100
AcDbEntity
  8
0
100
AcDbLine
 62
7
  6
CONTINUOUS
 10
4.686214978
 20
3.444765527
 11
4.6902715448
 21
3.444765527
  0
LINE
  5
23B
100
AcDbEntity
  8
0
100
AcDbLine
 62
7
  6
CONTINUOUS
 10
4.6950550877
 20
3.444765527
 11
4.7002033752
 21
3.444765527
  0
LINE
  5
23C
100
AcDbEntity
  8
0
100
AcDbLine
 62
7
  6
CONTINUOUS
 10
4.7060958344
 20
3.444765527
 11
4.7122862617
 21
3.444765527
  0
LINE
  5
23D
100
AcDbEntity
  8
0
100
AcDbLine
 62
7
  6
CONTINUOUS
 10
4.7192308896
 20
3.444765527
 11
4.7264038396
 21
3.444765527
  0
LINE
  5
23E
100
AcDbEntity
  8
0
100
AcDbLine
 62
7
  6
CONTINUOUS
 10
4.7343337556
 20
3.444765527
 11
4.7424201487
 21
3.444765527
  0
LINE
  5
23F
100
AcDbEntity
  8
0
100
AcDbLine
 62
7
  6
CONTINUOUS
 10
4.7512589835
 20
3.444765527
 11
4.7601809434
 21
3.444765527
  0
LINE
  5
240
100
AcDbEntity
  8
0
100
AcDbLine
 62
7
  6
CONTINUOUS
 10
4.7698435741
 20
3.444765527
 11
4.7795151774
 21
3.444765527
  0
LINE
  5
241
100
AcDbEntity
  8
0
100
AcDbLine
 62
7
  6
CONTINUOUS
 10
4.7899085476
 20
3.444765527
 11
4.8002366516
 21
3.444765527
  0
LINE
  5
242
100
AcDbEntity
  8
0
100
AcDbLine
 62
7
  6
CONTINUOUS
 10
4.8112606674
 20
3.444765527
 11
4.8221458067
 21
3.444765527
  0
LINE
  5
243
100
AcDbEntity
  8
0
100
AcDbLine
 62
7
  6
CONTINUOUS
 10
4.8336943008
 20
3.444765527
 11
4.8450316457
 21
3.444765527
  0
LINE
  5
244
100
AcDbEntity
  8
0
100
AcDbLine
 62
7
  6
CONTINUOUS
 10
4.8569933999
 20
3.444765527
 11
4.8686737653
 21
3.444765527
  0
LINE
  5
245
100
AcDbEntity
  8
0
100
AcDbLine
 62
7
  6
CONTINUOUS
 10
4.8809335813
 20
3.444765527
 11
4.8928444792
 21
3.444765527
  0
LINE
  5
246
100
AcDbEntity
  8
0
100
AcDbLine
 62
7
  6
CONTINUOUS
 10
4.9052842883
 20
3.444765527
 11
4.91731101
 21
3.444765527
  0
LINE
  5
247
100
AcDbEntity
  8
0
100
AcDbLine
 62
7
  6
CONTINUOUS
 10
4.92981101
 20
3.444765527
 11
4.9418377318
 21
3.444765527
  0
LINE
  5
248
100
AcDbEntity
  8
0
100
AcDbLine
 62
7
  6
CONTINUOUS
 10
4.9542775409
 20
3.444765527
 11
4.9661884387
 21
3.444765527
  0
LINE
  5
249
100
AcDbEntity
  8
0
100
AcDbLine
 62
7
  6
CONTINUOUS
 10
4.9784482547
 20
3.444765527
 11
4.9901286202
 21
3.444765527
  0
LINE
  5
24A
100
AcDbEntity
  8
0
100
AcDbLine
 62
7
  6
CONTINUOUS
 10
5.0020903744
 20
3.444765527
 11
5.0134277192
 21
3.444765527
  0
LINE
  5
24B
100
AcDbEntity
  8
0
100
AcDbLine
 62
7
  6
CONTINUOUS
 10
5.0249762134
 20
3.444765527
 11
5.0358613527
 21
3.444765527
  0
LINE
  5
24C
100
AcDbEntity
  8
0
100
AcDbLine
 62
7
  6
CONTINUOUS
 10
5.0468853685
 20
3.444765527
 11
5.0572134725
 21
3.444765527
  0
LINE
  5
24D
100
AcDbEntity
  8
0
100
AcDbLine
 62
7
  6
CONTINUOUS
 10
5.0676068427
 20
3.444765527
 11
5.077278446
 21
3.444765527
  0
LINE
  5
24E
100
AcDbEntity
  8
0
100
AcDbLine
 62
7
  6
CONTINUOUS
 10
5.0869410767
 20
3.444765527
 11
5.0958630366
 21
3.444765527
  0
LINE
  5
24F
100
AcDbEntity
  8
0
100
AcDbLine
 62
7
  6
CONTINUOUS
 10
5.1047018714
 20
3.444765527
 11
5.1127882645
 21
3.444765527
  0
LINE
  5
250
100
AcDbEntity
  8
0
100
AcDbLine
 62
7
  6
CONTINUOUS
 10
5.1207181805
 20
3.444765527
 11
5.1278911304
 21
3.444765527
  0
LINE
  5
251
100
AcDbEntity
  8
0
100
AcDbLine
 62
7
  6
CONTINUOUS
 10
5.1348357584
 20
3.444765527
 11
5.1410261857
 21
3.444765527
  0
LINE
  5
252
100
AcDbEntity
  8
0
100
AcDbLine
 62
7
  6
CONTINUOUS
 10
5.1469186449
 20
3.444765527
 11
5.1520669323
 21
3.444765527
  0
LINE
  5
253
100
AcDbEntity
  8
0
100
AcDbLine
 62
7
  6
CONTINUOUS
 10
5.1568504752
 20
3.444765527
 11
5.1609070421
 21
3.444765527
  0
LINE
  5
254
100
AcDbEntity
  8
0
100
AcDbLine
 62
7
  6
CONTINUOUS
 10
5.1645356006
 20
3.444765527
 11
5.1674613798
 21
3.444765527
  0
LINE
  5
255
100
AcDbEntity
  8
0
100
AcDbLine
 62
7
  6
CONTINUOUS
 10
5.1699000088
 20
3.444765527
 11
5.1716668236
 21
3.444765527
  0
LINE
  5
256
100
AcDbEntity
  8
0
100
AcDbLine
 62
7
  6
CONTINUOUS
 10
5.1728920379
 20
3.444765527
 11
5.1734828728
 21
3.444765527
  0
LINE
  5
257
100
AcDbEntity
  8
0
100
AcDbLine
 62
7
  6
CONTINUOUS
 10
4.68856101
 20
3.459765527
 11
5.15856101
 21
3.459765527
  0
LINE
  5
258
100
AcDbEntity
  8
0
100
AcDbLine
 62
7
  6
CONTINUOUS
 10
4.5972531019
 20
4.6355825234
 11
4.5908193493
 21
4.6282921953
  0
LINE
  5
259
100
AcDbEntity
  8
0
100
AcDbLine
 62
7
  6
CONTINUOUS
 10
4.9550106153
 20
5.0207970319
 11
4.9482214675
 21
5.0138364625
  0
LINE
  5
25A
100
AcDbEntity
  8
0
100
AcDbLine
 62
7
  6
CONTINUOUS
 10
4.5944900745
 20
4.6601050695
 11
4.5875295051
 21
4.6533159217
  0
LINE
  5
25B
100
AcDbEntity
  8
0
100
AcDbLine
 62
7
  6
CONTINUOUS
 10
4.9800343417
 20
5.0175071878
 11
4.9727440137
 21
5.0110734351
  0
LINE
  5
25C
100
AcDbEntity
  8
0
100
AcDbLine
 62
7
  6
CONTINUOUS
 10
4.5935673453
 20
4.684765527
 11
4.5861188854
 21
4.678515527
  0
LINE
  5
25D
100
AcDbEntity
  8
0
100
AcDbLine
 62
7
  6
CONTINUOUS
 10
5.0047422462
 20
5.0123565172
 11
4.9969915085
 21
5.0064855615
  0
LINE
  5
25E
100
AcDbEntity
  8
0
100
AcDbLine
 62
7
  6
CONTINUOUS
 10
4.5944900745
 20
4.7094259844
 11
4.5865953789
 21
4.7037500848
  0
LINE
  5
25F
100
AcDbEntity
  8
0
100
AcDbLine
 62
7
  6
CONTINUOUS
 10
4.8794480637
 20
5.0193702161
 11
4.8743780064
 21
5.0110734351
  0
LINE
  5
260
100
AcDbEntity
  8
0
100
AcDbLine
 62
7
  6
CONTINUOUS
 10
4.608228038
 20
4.5874981868
 11
4.602952712
 21
4.5793303846
  0
LINE
  5
261
100
AcDbEntity
  8
0
100
AcDbLine
 62
7
  6
CONTINUOUS
 10
4.9045764522
 20
5.0217311581
 11
4.8989005526
 21
5.0138364625
  0
LINE
  5
262
100
AcDbEntity
  8
0
100
AcDbLine
 62
7
  6
CONTINUOUS
 10
4.6018409755
 20
4.6113350285
 11
4.5959700198
 21
4.6035842908
  0
LINE
  5
263
100
AcDbEntity
  8
0
100
AcDbLine
 62
7
  6
CONTINUOUS
 10
4.92981101
 20
5.0222076516
 11
4.92356101
 21
5.0147591917
  0
LINE
  5
264
100
AcDbEntity
  8
0
100
AcDbLine
 62
7
  6
CONTINUOUS
 10
4.8300705278
 20
5.0090582647
 11
4.8262936698
 21
5.0000984991
  0
LINE
  5
265
100
AcDbEntity
  8
0
100
AcDbLine
 62
7
  6
CONTINUOUS
 10
4.6262469915
 20
4.5415866418
 11
4.6222479344
 21
4.5327238208
  0
LINE
  5
266
100
AcDbEntity
  8
0
100
AcDbLine
 62
7
  6
CONTINUOUS
 10
4.8545663728
 20
5.0151380289
 11
4.8501305116
 21
5.0064855615
  0
LINE
  5
267
100
AcDbEntity
  8
0
100
AcDbLine
 62
7
  6
CONTINUOUS
 10
4.6163785703
 20
4.5642053035
 11
4.6117283759
 21
4.5556661146
  0
LINE
  5
268
100
AcDbEntity
  8
0
100
AcDbLine
 62
7
  6
CONTINUOUS
 10
5.14231101
 20
3.684765527
 11
4.70481101
 21
3.684765527
  0
LINE
  5
269
100
AcDbEntity
  8
0
100
AcDbLine
 62
7
  6
CONTINUOUS
 10
4.6655615739
 20
4.4790178423
 11
4.6636349447
 21
4.4694873568
  0
LINE
  5
26A
100
AcDbEntity
  8
0
100
AcDbLine
 62
7
  6
CONTINUOUS
 10
4.7827814147
 20
4.9915021494
 11
4.7803821249
 21
4.9820795455
  0
LINE
  5
26B
100
AcDbEntity
  8
0
100
AcDbLine
 62
7
  6
CONTINUOUS
 10
4.650907449
 20
4.4988734766
 11
4.6482739929
 21
4.4895136174
  0
LINE
  5
26C
100
AcDbEntity
  8
0
100
AcDbLine
 62
7
  6
CONTINUOUS
 10
4.8060975195
 20
5.0011649239
 11
4.8030007865
 21
4.9919479667
  0
LINE
  5
26D
100
AcDbEntity
  8
0
100
AcDbLine
 62
7
  6
CONTINUOUS
 10
4.6377781133
 20
4.5197686946
 11
4.6344525578
 21
4.5106318059
  0
LINE
  5
26E
100
AcDbEntity
  8
0
100
AcDbLine
 62
7
  6
CONTINUOUS
 10
4.6736391472
 20
3.444765527
 11
4.6736391472
 21
3.069765527
  0
LINE
  5
26F
100
AcDbEntity
  8
0
100
AcDbLine
 62
7
  6
CONTINUOUS
 10
4.6742299822
 20
3.444765527
 11
4.6742299822
 21
3.069765527
  0
LINE
  5
270
100
AcDbEntity
  8
0
100
AcDbLine
 62
7
  6
CONTINUOUS
 10
4.6754551965
 20
3.444765527
 11
4.6754551965
 21
3.069765527
  0
LINE
  5
271
100
AcDbEntity
  8
0
100
AcDbLine
 62
7
  6
CONTINUOUS
 10
4.6772220113
 20
3.444765527
 11
4.6772220113
 21
3.069765527
  0
LINE
  5
272
100
AcDbEntity
  8
0
100
AcDbLine
 62
7
  6
CONTINUOUS
 10
4.6796606403
 20
3.444765527
 11
4.6796606403
 21
3.069765527
  0
LINE
  5
273
100
AcDbEntity
  8
0
100
AcDbLine
 62
7
  6
CONTINUOUS
 10
4.6825864195
 20
3.444765527
 11
4.6825864195
 21
3.069765527
  0
LINE
  5
274
100
AcDbEntity
  8
0
100
AcDbLine
 62
7
  6
CONTINUOUS
 10
4.686214978
 20
3.444765527
 11
4.686214978
 21
3.069765527
  0
LINE
  5
275
100
AcDbEntity
  8
0
100
AcDbLine
 62
7
  6
CONTINUOUS
 10
4.6991083157
 20
4.4428630534
 11
4.6986236505
 21
4.4331518662
  0
LINE
  5
276
100
AcDbEntity
  8
0
100
AcDbLine
 62
7
  6
CONTINUOUS
 10
4.7386370851
 20
4.9670940448
 11
4.7376689597
 21
4.957419088
  0
LINE
  5
277
100
AcDbEntity
  8
0
100
AcDbLine
 62
7
  6
CONTINUOUS
 10
4.6816585364
 20
4.4603128326
 11
4.6804495085
 21
4.450665019
  0
LINE
  5
278
100
AcDbEntity
  8
0
100
AcDbLine
 62
7
  6
CONTINUOUS
 10
4.7602526065
 20
4.9801239792
 11
4.7585641777
 21
4.9705484237
  0
LINE
  5
279
100
AcDbEntity
  8
0
100
AcDbLine
 62
7
  6
CONTINUOUS
 10
5.2498689182
 20
4.6355825234
 11
5.2581656991
 21
4.6406525807
  0
LINE
  5
27A
100
AcDbEntity
  8
0
100
AcDbLine
 62
7
  6
CONTINUOUS
 10
5.2452810446
 20
4.6113350285
 11
5.253933512
 21
4.6157708897
  0
LINE
  5
27B
100
AcDbEntity
  8
0
100
AcDbLine
 62
7
  6
CONTINUOUS
 10
5.2388939821
 20
4.5874981868
 11
5.2478537477
 21
4.5912750447
  0
LINE
  5
27C
100
AcDbEntity
  8
0
100
AcDbLine
 62
7
  6
CONTINUOUS
 10
5.2307434497
 20
4.5642053035
 11
5.239960407
 21
4.5673020364
  0
LINE
  5
27D
100
AcDbEntity
  8
0
100
AcDbLine
 62
7
  6
CONTINUOUS
 10
4.6986236505
 20
4.9363791877
 11
4.6991083157
 21
4.9266680006
  0
LINE
  5
27E
100
AcDbEntity
  8
0
100
AcDbLine
 62
7
  6
CONTINUOUS
 10
4.6902715448
 20
3.444765527
 11
4.6902715448
 21
3.069765527
  0
LINE
  5
27F
100
AcDbEntity
  8
0
100
AcDbLine
 62
7
  6
CONTINUOUS
 10
4.6950550877
 20
3.444765527
 11
4.6950550877
 21
3.069765527
  0
LINE
  5
280
100
AcDbEntity
  8
0
100
AcDbLine
 62
7
  6
CONTINUOUS
 10
4.7002033752
 20
3.444765527
 11
4.7002033752
 21
3.069765527
  0
LINE
  5
281
100
AcDbEntity
  8
0
100
AcDbLine
 62
7
  6
CONTINUOUS
 10
4.70481101
 20
4.684765527
 11
4.70481101
 21
3.459765527
  0
LINE
  5
282
100
AcDbEntity
  8
0
100
AcDbLine
 62
7
  6
CONTINUOUS
 10
4.7060958344
 20
3.444765527
 11
4.7060958344
 21
3.069765527
  0
LINE
  5
283
100
AcDbEntity
  8
0
100
AcDbLine
 62
7
  6
CONTINUOUS
 10
4.7122862617
 20
3.444765527
 11
4.7122862617
 21
3.069765527
  0
LINE
  5
284
100
AcDbEntity
  8
0
100
AcDbLine
 62
7
  6
CONTINUOUS
 10
4.7192308896
 20
3.444765527
 11
4.7192308896
 21
3.069765527
  0
LINE
  5
285
100
AcDbEntity
  8
0
100
AcDbLine
 62
7
  6
CONTINUOUS
 10
4.7264038396
 20
3.444765527
 11
4.7264038396
 21
3.069765527
  0
LINE
  5
286
100
AcDbEntity
  8
0
100
AcDbLine
 62
7
  6
CONTINUOUS
 10
4.7343337556
 20
3.444765527
 11
4.7343337556
 21
3.069765527
  0
LINE
  5
287
100
AcDbEntity
  8
0
100
AcDbLine
 62
7
  6
CONTINUOUS
 10
4.7424201487
 20
3.444765527
 11
4.7424201487
 21
3.069765527
  0
LINE
  5
288
100
AcDbEntity
  8
0
100
AcDbLine
 62
7
  6
CONTINUOUS
 10
4.7512589835
 20
3.444765527
 11
4.7512589835
 21
3.069765527
  0
LINE
  5
289
100
AcDbEntity
  8
0
100
AcDbLine
 62
7
  6
CONTINUOUS
 10
4.7601809434
 20
3.444765527
 11
4.7601809434
 21
3.069765527
  0
LINE
  5
28A
100
AcDbEntity
  8
0
100
AcDbLine
 62
7
  6
CONTINUOUS
 10
4.7697375117
 20
3.0567598263
 11
4.7697375117
 21
3.4577712277
  0
LINE
  5
28B
100
AcDbEntity
  8
0
100
AcDbLine
 62
7
  6
CONTINUOUS
 10
4.7698435741
 20
3.444765527
 11
4.7698435741
 21
3.069765527
  0
LINE
  5
28C
100
AcDbEntity
  8
0
100
AcDbLine
 62
7
  6
CONTINUOUS
 10
4.7180557334
 20
4.9524852148
 11
4.7178133254
 21
4.9427649631
  0
LINE
  5
28D
100
AcDbEntity
  8
0
100
AcDbLine
 62
7
  6
CONTINUOUS
 10
5.2526319455
 20
4.7094259844
 11
5.259592515
 21
4.7162151323
  0
LINE
  5
28E
100
AcDbEntity
  8
0
100
AcDbLine
 62
7
  6
CONTINUOUS
 10
5.2535546748
 20
4.684765527
 11
5.2610031347
 21
4.691015527
  0
LINE
  5
28F
100
AcDbEntity
  8
0
100
AcDbLine
 62
7
  6
CONTINUOUS
 10
5.2526319455
 20
4.6601050695
 11
5.2605266412
 21
4.6657809692
  0
LINE
  5
290
100
AcDbEntity
  8
0
100
AcDbLine
 62
7
  6
CONTINUOUS
 10
4.7795151774
 20
3.444765527
 11
4.7795151774
 21
3.069765527
  0
LINE
  5
291
100
AcDbEntity
  8
0
100
AcDbLine
 62
7
  6
CONTINUOUS
 10
4.7888500051
 20
3.0567598263
 11
4.7888500051
 21
3.4577712277
  0
LINE
  5
292
100
AcDbEntity
  8
0
100
AcDbLine
 62
7
  6
CONTINUOUS
 10
4.7899085476
 20
3.444765527
 11
4.7899085476
 21
3.069765527
  0
LINE
  5
293
100
AcDbEntity
  8
0
100
AcDbLine
 62
7
  6
CONTINUOUS
 10
4.8002366516
 20
3.444765527
 11
4.8002366516
 21
3.069765527
  0
LINE
  5
294
100
AcDbEntity
  8
0
100
AcDbLine
 62
7
  6
CONTINUOUS
 10
4.8092598392
 20
3.0567598263
 11
4.8092598392
 21
3.4577712277
  0
LINE
  5
295
100
AcDbEntity
  8
0
100
AcDbLine
 62
7
  6
CONTINUOUS
 10
4.8112606674
 20
3.444765527
 11
4.8112606674
 21
3.069765527
  0
LINE
  5
296
100
AcDbEntity
  8
0
100
AcDbLine
 62
7
  6
CONTINUOUS
 10
4.8221458067
 20
3.444765527
 11
4.8221458067
 21
3.069765527
  0
LINE
  5
297
100
AcDbEntity
  8
0
100
AcDbLine
 62
7
  6
CONTINUOUS
 10
4.830770456
 20
3.0567598263
 11
4.830770456
 21
3.4577712277
  0
LINE
  5
298
100
AcDbEntity
  8
0
100
AcDbLine
 62
7
  6
CONTINUOUS
 10
4.8336943008
 20
3.444765527
 11
4.8336943008
 21
3.069765527
  0
LINE
  5
299
100
AcDbEntity
  8
0
100
AcDbLine
 62
7
  6
CONTINUOUS
 10
4.8450316457
 20
3.444765527
 11
4.8450316457
 21
3.069765527
  0
LINE
  5
29A
100
AcDbEntity
  8
0
100
AcDbLine
 62
7
  6
CONTINUOUS
 10
5.2388939821
 20
4.7820328672
 11
5.2441693081
 21
4.7902006693
  0
LINE
  5
29B
100
AcDbEntity
  8
0
100
AcDbLine
 62
7
  6
CONTINUOUS
 10
5.2452810446
 20
4.7581960254
 11
5.2511520003
 21
4.7659467632
  0
LINE
  5
29C
100
AcDbEntity
  8
0
100
AcDbLine
 62
7
  6
CONTINUOUS
 10
5.2498689182
 20
4.7339485306
 11
5.2563026708
 21
4.7412388586
  0
LINE
  5
29D
100
AcDbEntity
  8
0
100
AcDbLine
 62
7
  6
CONTINUOUS
 10
4.6636349447
 20
4.9000436972
 11
4.6655615739
 21
4.8905132116
  0
LINE
  5
29E
100
AcDbEntity
  8
0
100
AcDbLine
 62
7
  6
CONTINUOUS
 10
4.6804495085
 20
4.9188660349
 11
4.6816585364
 21
4.9092182214
  0
LINE
  5
29F
100
AcDbEntity
  8
0
100
AcDbLine
 62
7
  6
CONTINUOUS
 10
4.8531746966
 20
3.0567598263
 11
4.8531746966
 21
3.4577712277
  0
LINE
  5
2A0
100
AcDbEntity
  8
0
100
AcDbLine
 62
7
  6
CONTINUOUS
 10
4.8569933999
 20
3.444765527
 11
4.8569933999
 21
3.069765527
  0
LINE
  5
2A1
100
AcDbEntity
  8
0
100
AcDbLine
 62
7
  6
CONTINUOUS
 10
4.8686737653
 20
3.444765527
 11
4.8686737653
 21
3.069765527
  0
LINE
  5
2A2
100
AcDbEntity
  8
0
100
AcDbLine
 62
7
  6
CONTINUOUS
 10
4.8762567958
 20
3.0567598263
 11
4.8762567958
 21
3.4577712277
  0
LINE
  5
2A3
100
AcDbEntity
  8
0
100
AcDbLine
 62
7
  6
CONTINUOUS
 10
4.8809335813
 20
3.444765527
 11
4.8809335813
 21
3.069765527
  0
LINE
  5
2A4
100
AcDbEntity
  8
0
100
AcDbLine
 62
7
  6
CONTINUOUS
 10
4.8928444792
 20
3.444765527
 11
4.8928444792
 21
3.069765527
  0
LINE
  5
2A5
100
AcDbEntity
  8
0
100
AcDbLine
 62
7
  6
CONTINUOUS
 10
4.8997944605
 20
3.0567598263
 11
4.8997944605
 21
3.4577712277
  0
LINE
  5
2A6
100
AcDbEntity
  8
0
100
AcDbLine
 62
7
  6
CONTINUOUS
 10
4.9052842883
 20
3.444765527
 11
4.9052842883
 21
3.069765527
  0
LINE
  5
2A7
100
AcDbEntity
  8
0
100
AcDbLine
 62
7
  6
CONTINUOUS
 10
4.91731101
 20
3.444765527
 11
4.91731101
 21
3.069765527
  0
LINE
  5
2A8
100
AcDbEntity
  8
0
100
AcDbLine
 62
7
  6
CONTINUOUS
 10
4.92356101
 20
3.0567598263
 11
4.92356101
 21
3.4577712277
  0
LINE
  5
2A9
100
AcDbEntity
  8
0
100
AcDbLine
 62
7
  6
CONTINUOUS
 10
4.92981101
 20
3.444765527
 11
4.92981101
 21
3.069765527
  0
LINE
  5
2AA
100
AcDbEntity
  8
0
100
AcDbLine
 62
7
  6
CONTINUOUS
 10
5.2208750285
 20
4.8279444121
 11
5.2248740857
 21
4.8368072332
  0
LINE
  5
2AB
100
AcDbEntity
  8
0
100
AcDbLine
 62
7
  6
CONTINUOUS
 10
5.2307434497
 20
4.8053257505
 11
5.2353936442
 21
4.8138649394
  0
LINE
  5
2AC
100
AcDbEntity
  8
0
100
AcDbLine
 62
7
  6
CONTINUOUS
 10
4.6222479344
 20
4.8368072332
 11
4.6262469915
 21
4.8279444121
  0
LINE
  5
2AD
100
AcDbEntity
  8
0
100
AcDbLine
 62
7
  6
CONTINUOUS
 10
4.6344525578
 20
4.8588992481
 11
4.6377781133
 21
4.8497623593
  0
LINE
  5
2AE
100
AcDbEntity
  8
0
100
AcDbLine
 62
7
  6
CONTINUOUS
 10
4.6482739929
 20
4.8800174366
 11
4.650907449
 21
4.8706575773
  0
LINE
  5
2AF
100
AcDbEntity
  8
0
100
AcDbLine
 62
7
  6
CONTINUOUS
 10
4.9418377318
 20
3.444765527
 11
4.9418377318
 21
3.069765527
  0
LINE
  5
2B0
100
AcDbEntity
  8
0
100
AcDbLine
 62
7
  6
CONTINUOUS
 10
4.9473275596
 20
3.0567598263
 11
4.9473275596
 21
3.4577712277
  0
LINE
  5
2B1
100
AcDbEntity
  8
0
100
AcDbLine
 62
7
  6
CONTINUOUS
 10
4.9542775409
 20
3.444765527
 11
4.9542775409
 21
3.069765527
  0
LINE
  5
2B2
100
AcDbEntity
  8
0
100
AcDbLine
 62
7
  6
CONTINUOUS
 10
4.9661884387
 20
3.444765527
 11
4.9661884387
 21
3.069765527
  0
LINE
  5
2B3
100
AcDbEntity
  8
0
100
AcDbLine
 62
7
  6
CONTINUOUS
 10
4.9708652243
 20
3.0567598263
 11
4.9708652243
 21
3.4577712277
  0
LINE
  5
2B4
100
AcDbEntity
  8
0
100
AcDbLine
 62
7
  6
CONTINUOUS
 10
4.9784482547
 20
3.444765527
 11
4.9784482547
 21
3.069765527
  0
LINE
  5
2B5
100
AcDbEntity
  8
0
100
AcDbLine
 62
7
  6
CONTINUOUS
 10
4.9901286202
 20
3.444765527
 11
4.9901286202
 21
3.069765527
  0
LINE
  5
2B6
100
AcDbEntity
  8
0
100
AcDbLine
 62
7
  6
CONTINUOUS
 10
4.9939473235
 20
3.0567598263
 11
4.9939473235
 21
3.4577712277
  0
LINE
  5
2B7
100
AcDbEntity
  8
0
100
AcDbLine
 62
7
  6
CONTINUOUS
 10
5.0020903744
 20
3.444765527
 11
5.0020903744
 21
3.069765527
  0
LINE
  5
2B8
100
AcDbEntity
  8
0
100
AcDbLine
 62
7
  6
CONTINUOUS
 10
5.0134277192
 20
3.444765527
 11
5.0134277192
 21
3.069765527
  0
LINE
  5
2B9
100
AcDbEntity
  8
0
100
AcDbLine
 62
7
  6
CONTINUOUS
 10
5.0163515641
 20
3.0567598263
 11
5.0163515641
 21
3.4577712277
  0
LINE
  5
2BA
100
AcDbEntity
  8
0
100
AcDbLine
 62
7
  6
CONTINUOUS
 10
5.1962145711
 20
4.8706575773
 11
5.1988480272
 21
4.8800174366
  0
LINE
  5
2BB
100
AcDbEntity
  8
0
100
AcDbLine
 62
7
  6
CONTINUOUS
 10
5.2093439068
 20
4.8497623593
 11
5.2126694623
 21
4.8588992481
  0
LINE
  5
2BC
100
AcDbEntity
  8
0
100
AcDbLine
 62
7
  6
CONTINUOUS
 10
4.602952712
 20
4.7902006693
 11
4.608228038
 21
4.7820328672
  0
LINE
  5
2BD
100
AcDbEntity
  8
0
100
AcDbLine
 62
7
  6
CONTINUOUS
 10
4.6117283759
 20
4.8138649394
 11
4.6163785703
 21
4.8053257505
  0
LINE
  5
2BE
100
AcDbEntity
  8
0
100
AcDbLine
 62
7
  6
CONTINUOUS
 10
5.0249762134
 20
3.444765527
 11
5.0249762134
 21
3.069765527
  0
LINE
  5
2BF
100
AcDbEntity
  8
0
100
AcDbLine
 62
7
  6
CONTINUOUS
 10
5.0358613527
 20
3.444765527
 11
5.0358613527
 21
3.069765527
  0
LINE
  5
2C0
100
AcDbEntity
  8
0
100
AcDbLine
 62
7
  6
CONTINUOUS
 10
5.0378621809
 20
3.0567598263
 11
5.0378621809
 21
3.4577712277
  0
LINE
  5
2C1
100
AcDbEntity
  8
0
100
AcDbLine
 62
7
  6
CONTINUOUS
 10
5.0468853685
 20
3.444765527
 11
5.0468853685
 21
3.069765527
  0
LINE
  5
2C2
100
AcDbEntity
  8
0
100
AcDbLine
 62
7
  6
CONTINUOUS
 10
5.0572134725
 20
3.444765527
 11
5.0572134725
 21
3.069765527
  0
LINE
  5
2C3
100
AcDbEntity
  8
0
100
AcDbLine
 62
7
  6
CONTINUOUS
 10
5.058272015
 20
3.0567598263
 11
5.058272015
 21
3.4577712277
  0
LINE
  5
2C4
100
AcDbEntity
  8
0
100
AcDbLine
 62
7
  6
CONTINUOUS
 10
5.0676068427
 20
3.444765527
 11
5.0676068427
 21
3.069765527
  0
LINE
  5
2C5
100
AcDbEntity
  8
0
100
AcDbLine
 62
7
  6
CONTINUOUS
 10
5.077278446
 20
3.444765527
 11
5.077278446
 21
3.069765527
  0
LINE
  5
2C6
100
AcDbEntity
  8
0
100
AcDbLine
 62
7
  6
CONTINUOUS
 10
5.0773845084
 20
3.0567598263
 11
5.0773845084
 21
3.4577712277
  0
LINE
  5
2C7
100
AcDbEntity
  8
0
100
AcDbLine
 62
7
  6
CONTINUOUS
 10
5.0869410767
 20
3.444765527
 11
5.0869410767
 21
3.069765527
  0
LINE
  5
2C8
100
AcDbEntity
  8
0
100
AcDbLine
 62
7
  6
CONTINUOUS
 10
5.0958630366
 20
3.444765527
 11
5.0958630366
 21
3.069765527
  0
LINE
  5
2C9
100
AcDbEntity
  8
0
100
AcDbLine
 62
7
  6
CONTINUOUS
 10
5.1654634836
 20
4.9092182214
 11
5.1666725115
 21
4.9188660349
  0
LINE
  5
2CA
100
AcDbEntity
  8
0
100
AcDbLine
 62
7
  6
CONTINUOUS
 10
5.1815604461
 20
4.8905132116
 11
5.1834870754
 21
4.9000436972
  0
LINE
  5
2CB
100
AcDbEntity
  8
0
100
AcDbLine
 62
7
  6
CONTINUOUS
 10
4.5875295051
 20
4.7162151323
 11
4.5944900745
 21
4.7094259844
  0
LINE
  5
2CC
100
AcDbEntity
  8
0
100
AcDbLine
 62
7
  6
CONTINUOUS
 10
4.5908193493
 20
4.7412388586
 11
4.5972531019
 21
4.7339485306
  0
LINE
  5
2CD
100
AcDbEntity
  8
0
100
AcDbLine
 62
7
  6
CONTINUOUS
 10
4.5959700198
 20
4.7659467632
 11
4.6018409755
 21
4.7581960254
  0
LINE
  5
2CE
100
AcDbEntity
  8
0
100
AcDbLine
 62
7
  6
CONTINUOUS
 10
5.1484983696
 20
4.4331518662
 11
5.1480137044
 21
4.4428630534
  0
LINE
  5
2CF
100
AcDbEntity
  8
0
100
AcDbLine
 62
7
  6
CONTINUOUS
 10
5.1293086947
 20
4.9427649631
 11
5.1290662867
 21
4.9524852148
  0
LINE
  5
2D0
100
AcDbEntity
  8
0
100
AcDbLine
 62
7
  6
CONTINUOUS
 10
5.1047018714
 20
3.444765527
 11
5.1047018714
 21
3.069765527
  0
LINE
  5
2D1
100
AcDbEntity
  8
0
100
AcDbLine
 62
7
  6
CONTINUOUS
 10
5.1127882645
 20
3.444765527
 11
5.1127882645
 21
3.069765527
  0
LINE
  5
2D2
100
AcDbEntity
  8
0
100
AcDbLine
 62
7
  6
CONTINUOUS
 10
5.1207181805
 20
3.444765527
 11
5.1207181805
 21
3.069765527
  0
LINE
  5
2D3
100
AcDbEntity
  8
0
100
AcDbLine
 62
7
  6
CONTINUOUS
 10
5.1278911304
 20
3.444765527
 11
5.1278911304
 21
3.069765527
  0
LINE
  5
2D4
100
AcDbEntity
  8
0
100
AcDbLine
 62
7
  6
CONTINUOUS
 10
5.1348357584
 20
3.444765527
 11
5.1348357584
 21
3.069765527
  0
LINE
  5
2D5
100
AcDbEntity
  8
0
100
AcDbLine
 62
7
  6
CONTINUOUS
 10
5.1410261857
 20
3.444765527
 11
5.1410261857
 21
3.069765527
  0
LINE
  5
2D6
100
AcDbEntity
  8
0
100
AcDbLine
 62
7
  6
CONTINUOUS
 10
5.14231101
 20
4.684765527
 11
5.14231101
 21
3.459765527
  0
LINE
  5
2D7
100
AcDbEntity
  8
0
100
AcDbLine
 62
7
  6
CONTINUOUS
 10
5.1469186449
 20
3.444765527
 11
5.1469186449
 21
3.069765527
  0
LINE
  5
2D8
100
AcDbEntity
  8
0
100
AcDbLine
 62
7
  6
CONTINUOUS
 10
5.1520669323
 20
3.444765527
 11
5.1520669323
 21
3.069765527
  0
LINE
  5
2D9
100
AcDbEntity
  8
0
100
AcDbLine
 62
7
  6
CONTINUOUS
 10
5.1568504752
 20
3.444765527
 11
5.1568504752
 21
3.069765527
  0
LINE
  5
2DA
100
AcDbEntity
  8
0
100
AcDbLine
 62
7
  6
CONTINUOUS
 10
5.1609070421
 20
3.444765527
 11
5.1609070421
 21
3.069765527
  0
LINE
  5
2DB
100
AcDbEntity
  8
0
100
AcDbLine
 62
7
  6
CONTINUOUS
 10
5.1645356006
 20
3.444765527
 11
5.1645356006
 21
3.069765527
  0
LINE
  5
2DC
100
AcDbEntity
  8
0
100
AcDbLine
 62
7
  6
CONTINUOUS
 10
5.1674613798
 20
3.444765527
 11
5.1674613798
 21
3.069765527
  0
LINE
  5
2DD
100
AcDbEntity
  8
0
100
AcDbLine
 62
7
  6
CONTINUOUS
 10
5.1699000088
 20
3.444765527
 11
5.1699000088
 21
3.069765527
  0
LINE
  5
2DE
100
AcDbEntity
  8
0
100
AcDbLine
 62
7
  6
CONTINUOUS
 10
5.1716668236
 20
3.444765527
 11
5.1716668236
 21
3.069765527
  0
LINE
  5
2DF
100
AcDbEntity
  8
0
100
AcDbLine
 62
7
  6
CONTINUOUS
 10
5.1728920379
 20
3.444765527
 11
5.1728920379
 21
3.069765527
  0
LINE
  5
2E0
100
AcDbEntity
  8
0
100
AcDbLine
 62
7
  6
CONTINUOUS
 10
5.1734828728
 20
3.444765527
 11
5.1734828728
 21
3.069765527
  0
LINE
  5
2E1
100
AcDbEntity
  8
0
100
AcDbLine
 62
7
  6
CONTINUOUS
 10
5.1480137044
 20
4.9266680006
 11
5.1484983696
 21
4.9363791877
  0
LINE
  5
2E2
100
AcDbEntity
  8
0
100
AcDbLine
 62
7
  6
CONTINUOUS
 10
4.5889563209
 20
4.6406525807
 11
4.5972531019
 21
4.6355825234
  0
LINE
  5
2E3
100
AcDbEntity
  8
0
100
AcDbLine
 62
7
  6
CONTINUOUS
 10
4.5865953789
 20
4.6657809692
 11
4.5944900745
 21
4.6601050695
  0
LINE
  5
2E4
100
AcDbEntity
  8
0
100
AcDbLine
 62
7
  6
CONTINUOUS
 10
4.5861188854
 20
4.691015527
 11
4.5935673453
 21
4.684765527
  0
LINE
  5
2E5
100
AcDbEntity
  8
0
100
AcDbLine
 62
7
  6
CONTINUOUS
 10
5.1094530604
 20
4.957419088
 11
5.108484935
 21
4.9670940448
  0
LINE
  5
2E6
100
AcDbEntity
  8
0
100
AcDbLine
 62
7
  6
CONTINUOUS
 10
5.2208750285
 20
4.5415866418
 11
5.2302976325
 21
4.5439859316
  0
LINE
  5
2E7
100
AcDbEntity
  8
0
100
AcDbLine
 62
7
  6
CONTINUOUS
 10
5.2093439068
 20
4.5197686946
 11
5.2189194623
 21
4.5214571234
  0
LINE
  5
2E8
100
AcDbEntity
  8
0
100
AcDbLine
 62
7
  6
CONTINUOUS
 10
4.6894605021
 20
4.4416540255
 11
4.6991083157
 21
4.4428630534
  0
LINE
  5
2E9
100
AcDbEntity
  8
0
100
AcDbLine
 62
7
  6
CONTINUOUS
 10
5.1962145711
 20
4.4988734766
 11
5.2058895279
 21
4.4998416021
  0
LINE
  5
2EA
100
AcDbEntity
  8
0
100
AcDbLine
 62
7
  6
CONTINUOUS
 10
4.6719473493
 20
4.4598281674
 11
4.6816585364
 21
4.4603128326
  0
LINE
  5
2EB
100
AcDbEntity
  8
0
100
AcDbLine
 62
7
  6
CONTINUOUS
 10
5.1815604461
 20
4.4790178423
 11
5.1912806979
 21
4.4792602503
  0
LINE
  5
2EC
100
AcDbEntity
  8
0
100
AcDbLine
 62
7
  6
CONTINUOUS
 10
4.6558413222
 20
4.4792602503
 11
4.6655615739
 21
4.4790178423
  0
LINE
  5
2ED
100
AcDbEntity
  8
0
100
AcDbLine
 62
7
  6
CONTINUOUS
 10
5.1654634836
 20
4.4603128326
 11
5.1751746708
 21
4.4598281674
  0
LINE
  5
2EE
100
AcDbEntity
  8
0
100
AcDbLine
 62
7
  6
CONTINUOUS
 10
4.6412324922
 20
4.4998416021
 11
4.650907449
 21
4.4988734766
  0
LINE
  5
2EF
100
AcDbEntity
  8
0
100
AcDbLine
 62
7
  6
CONTINUOUS
 10
5.1480137044
 20
4.4428630534
 11
5.157661518
 21
4.4416540255
  0
LINE
  5
2F0
100
AcDbEntity
  8
0
100
AcDbLine
 62
7
  6
CONTINUOUS
 10
4.6282025578
 20
4.5214571234
 11
4.6377781133
 21
4.5197686946
  0
LINE
  5
2F1
100
AcDbEntity
  8
0
100
AcDbLine
 62
7
  6
CONTINUOUS
 10
4.6168243876
 20
4.5439859316
 11
4.6262469915
 21
4.5415866418
  0
LINE
  5
2F2
100
AcDbEntity
  8
0
100
AcDbLine
 62
7
  6
CONTINUOUS
 10
4.6071616131
 20
4.5673020364
 11
4.6163785703
 21
4.5642053035
  0
LINE
  5
2F3
100
AcDbEntity
  8
0
100
AcDbLine
 62
7
  6
CONTINUOUS
 10
4.5992682723
 20
4.5912750447
 11
4.608228038
 21
4.5874981868
  0
LINE
  5
2F4
100
AcDbEntity
  8
0
100
AcDbLine
 62
7
  6
CONTINUOUS
 10
4.5931885081
 20
4.6157708897
 11
4.6018409755
 21
4.6113350285
  0
LINE
  5
2F5
100
AcDbEntity
  8
0
100
AcDbLine
 62
7
  6
CONTINUOUS
 10
5.1834870754
 20
4.4694873568
 11
5.1815604461
 21
4.4790178423
  0
LINE
  5
2F6
100
AcDbEntity
  8
0
100
AcDbLine
 62
7
  6
CONTINUOUS
 10
5.0885578424
 20
4.9705484237
 11
5.0868694136
 21
4.9801239792
  0
LINE
  5
2F7
100
AcDbEntity
  8
0
100
AcDbLine
 62
7
  6
CONTINUOUS
 10
5.1666725115
 20
4.450665019
 11
5.1654634836
 21
4.4603128326
  0
LINE
  5
2F8
100
AcDbEntity
  8
0
100
AcDbLine
 62
7
  6
CONTINUOUS
 10
5.0208283502
 20
5.0000984991
 11
5.0170514923
 21
5.0090582647
  0
LINE
  5
2F9
100
AcDbEntity
  8
0
100
AcDbLine
 62
7
  6
CONTINUOUS
 10
5.2126694623
 20
4.5106318059
 11
5.2093439068
 21
4.5197686946
  0
LINE
  5
2FA
100
AcDbEntity
  8
0
100
AcDbLine
 62
7
  6
CONTINUOUS
 10
5.0441212335
 20
4.9919479667
 11
5.0410245006
 21
5.0011649239
  0
LINE
  5
2FB
100
AcDbEntity
  8
0
100
AcDbLine
 62
7
  6
CONTINUOUS
 10
5.1988480272
 20
4.4895136174
 11
5.1962145711
 21
4.4988734766
  0
LINE
  5
2FC
100
AcDbEntity
  8
0
100
AcDbLine
 62
7
  6
CONTINUOUS
 10
5.0667398952
 20
4.9820795455
 11
5.0643406054
 21
4.9915021494
  0
LINE
  5
2FD
100
AcDbEntity
  8
0
100
AcDbLine
 62
7
  6
CONTINUOUS
 10
5.2441693081
 20
4.5793303846
 11
5.2388939821
 21
4.5874981868
  0
LINE
  5
2FE
100
AcDbEntity
  8
0
100
AcDbLine
 62
7
  6
CONTINUOUS
 10
4.9727440137
 20
5.0110734351
 11
4.9676739563
 21
5.0193702161
  0
LINE
  5
2FF
100
AcDbEntity
  8
0
100
AcDbLine
 62
7
  6
CONTINUOUS
 10
5.2353936442
 20
4.5556661146
 11
5.2307434497
 21
4.5642053035
  0
LINE
  5
300
100
AcDbEntity
  8
0
100
AcDbLine
 62
7
  6
CONTINUOUS
 10
4.9969915085
 20
5.0064855615
 11
4.9925556473
 21
5.0151380289
  0
LINE
  5
301
100
AcDbEntity
  8
0
100
AcDbLine
 62
7
  6
CONTINUOUS
 10
5.2248740857
 20
4.5327238208
 11
5.2208750285
 21
4.5415866418
  0
LINE
  5
302
100
AcDbEntity
  8
0
100
AcDbLine
 62
7
  6
CONTINUOUS
 10
4.8989005526
 20
5.0138364625
 11
4.8921114047
 21
5.0207970319
  0
LINE
  5
303
100
AcDbEntity
  8
0
100
AcDbLine
 62
7
  6
CONTINUOUS
 10
5.2563026708
 20
4.6282921953
 11
5.2498689182
 21
4.6355825234
  0
LINE
  5
304
100
AcDbEntity
  8
0
100
AcDbLine
 62
7
  6
CONTINUOUS
 10
4.92356101
 20
5.0147591917
 11
4.91731101
 21
5.0222076516
  0
LINE
  5
305
100
AcDbEntity
  8
0
100
AcDbLine
 62
7
  6
CONTINUOUS
 10
5.2511520003
 20
4.6035842908
 11
5.2452810446
 21
4.6113350285
  0
LINE
  5
306
100
AcDbEntity
  8
0
100
AcDbLine
 62
7
  6
CONTINUOUS
 10
4.9482214675
 20
5.0138364625
 11
4.9425455679
 21
5.0217311581
  0
LINE
  5
307
100
AcDbEntity
  8
0
100
AcDbLine
 62
7
  6
CONTINUOUS
 10
5.2581656991
 20
4.7288784733
 11
5.2498689182
 21
4.7339485306
  0
LINE
  5
308
100
AcDbEntity
  8
0
100
AcDbLine
 62
7
  6
CONTINUOUS
 10
4.8262936698
 20
5.0000984991
 11
4.8181258677
 21
5.005373825
  0
LINE
  5
309
100
AcDbEntity
  8
0
100
AcDbLine
 62
7
  6
CONTINUOUS
 10
5.2605266412
 20
4.7037500848
 11
5.2526319455
 21
4.7094259844
  0
LINE
  5
30A
100
AcDbEntity
  8
0
100
AcDbLine
 62
7
  6
CONTINUOUS
 10
4.8501305116
 20
5.0064855615
 11
4.8423797738
 21
5.0123565172
  0
LINE
  5
30B
100
AcDbEntity
  8
0
100
AcDbLine
 62
7
  6
CONTINUOUS
 10
5.2610031347
 20
4.678515527
 11
5.2535546748
 21
4.684765527
  0
LINE
  5
30C
100
AcDbEntity
  8
0
100
AcDbLine
 62
7
  6
CONTINUOUS
 10
4.8743780064
 20
5.0110734351
 11
4.8670876784
 21
5.0175071878
  0
LINE
  5
30D
100
AcDbEntity
  8
0
100
AcDbLine
 62
7
  6
CONTINUOUS
 10
5.259592515
 20
4.6533159217
 11
5.2526319455
 21
4.6601050695
  0
LINE
  5
30E
100
AcDbEntity
  8
0
100
AcDbLine
 62
7
  6
CONTINUOUS
 10
5.1188129196
 20
4.9600525441
 11
5.1094530604
 21
4.957419088
  0
LINE
  5
30F
100
AcDbEntity
  8
0
100
AcDbLine
 62
7
  6
CONTINUOUS
 10
4.6262469915
 20
4.8279444121
 11
4.6168243876
 21
4.8255451223
  0
LINE
  5
310
100
AcDbEntity
  8
0
100
AcDbLine
 62
7
  6
CONTINUOUS
 10
5.1388391803
 20
4.9446915923
 11
5.1293086947
 21
4.9427649631
  0
LINE
  5
311
100
AcDbEntity
  8
0
100
AcDbLine
 62
7
  6
CONTINUOUS
 10
4.6377781133
 20
4.8497623593
 11
4.6282025578
 21
4.8480739305
  0
LINE
  5
312
100
AcDbEntity
  8
0
100
AcDbLine
 62
7
  6
CONTINUOUS
 10
5.157661518
 20
4.9278770285
 11
5.1480137044
 21
4.9266680006
  0
LINE
  5
313
100
AcDbEntity
  8
0
100
AcDbLine
 62
7
  6
CONTINUOUS
 10
4.650907449
 20
4.8706575773
 11
4.6412324922
 21
4.8696894519
  0
LINE
  5
314
100
AcDbEntity
  8
0
100
AcDbLine
 62
7
  6
CONTINUOUS
 10
5.1751746708
 20
4.9097028866
 11
5.1654634836
 21
4.9092182214
  0
LINE
  5
315
100
AcDbEntity
  8
0
100
AcDbLine
 62
7
  6
CONTINUOUS
 10
4.6655615739
 20
4.8905132116
 11
4.6558413222
 21
4.8902708037
  0
LINE
  5
316
100
AcDbEntity
  8
0
100
AcDbLine
 62
7
  6
CONTINUOUS
 10
5.1912806979
 20
4.8902708037
 11
5.1815604461
 21
4.8905132116
  0
LINE
  5
317
100
AcDbEntity
  8
0
100
AcDbLine
 62
7
  6
CONTINUOUS
 10
4.6816585364
 20
4.9092182214
 11
4.6719473493
 21
4.9097028866
  0
LINE
  5
318
100
AcDbEntity
  8
0
100
AcDbLine
 62
7
  6
CONTINUOUS
 10
5.2058895279
 20
4.8696894519
 11
5.1962145711
 21
4.8706575773
  0
LINE
  5
319
100
AcDbEntity
  8
0
100
AcDbLine
 62
7
  6
CONTINUOUS
 10
4.6991083157
 20
4.9266680006
 11
4.6894605021
 21
4.9278770285
  0
LINE
  5
31A
100
AcDbEntity
  8
0
100
AcDbLine
 62
7
  6
CONTINUOUS
 10
5.2189194623
 20
4.8480739305
 11
5.2093439068
 21
4.8497623593
  0
LINE
  5
31B
100
AcDbEntity
  8
0
100
AcDbLine
 62
7
  6
CONTINUOUS
 10
4.7178133254
 20
4.9427649631
 11
4.7082828398
 21
4.9446915923
  0
LINE
  5
31C
100
AcDbEntity
  8
0
100
AcDbLine
 62
7
  6
CONTINUOUS
 10
5.2302976325
 20
4.8255451223
 11
5.2208750285
 21
4.8279444121
  0
LINE
  5
31D
100
AcDbEntity
  8
0
100
AcDbLine
 62
7
  6
CONTINUOUS
 10
4.7376689597
 20
4.957419088
 11
4.7283091004
 21
4.9600525441
  0
LINE
  5
31E
100
AcDbEntity
  8
0
100
AcDbLine
 62
7
  6
CONTINUOUS
 10
5.239960407
 20
4.8022290175
 11
5.2307434497
 21
4.8053257505
  0
LINE
  5
31F
100
AcDbEntity
  8
0
100
AcDbLine
 62
7
  6
CONTINUOUS
 10
4.7585641777
 20
4.9705484237
 11
4.7494272889
 21
4.9738739792
  0
LINE
  5
320
100
AcDbEntity
  8
0
100
AcDbLine
 62
7
  6
CONTINUOUS
 10
5.2478537477
 20
4.7782560092
 11
5.2388939821
 21
4.7820328672
  0
LINE
  5
321
100
AcDbEntity
  8
0
100
AcDbLine
 62
7
  6
CONTINUOUS
 10
4.7803821249
 20
4.9820795455
 11
4.7715193038
 21
4.9860786027
  0
LINE
  5
322
100
AcDbEntity
  8
0
100
AcDbLine
 62
7
  6
CONTINUOUS
 10
5.253933512
 20
4.7537601643
 11
5.2452810446
 21
4.7581960254
  0
LINE
  5
323
100
AcDbEntity
  8
0
100
AcDbLine
 62
7
  6
CONTINUOUS
 10
4.8030007865
 20
4.9919479667
 11
4.7944615976
 21
4.9965981611
  0
ARC
  5
324
100
AcDbEntity
  8
0
100
AcDbCircle
 62
7
  6
CONTINUOUS
 10
4.68856101
 20
3.069765527
 40
0.015
100
AcDbArc
 50
240.1172410997
 51
270.0
  0
ARC
  5
325
100
AcDbEntity
  8
0
100
AcDbCircle
 62
7
  6
CONTINUOUS
 10
4.68856101
 20
3.444765527
 40
0.015
100
AcDbArc
 50
90.0
 51
119.8827589035
  0
ARC
  5
326
100
AcDbEntity
  8
0
100
AcDbCircle
 62
7
  6
CONTINUOUS
 10
5.15856101
 20
3.069765527
 40
0.015
100
AcDbArc
 50
270.0
 51
299.8827589003
  0
ARC
  5
327
100
AcDbEntity
  8
0
100
AcDbCircle
 62
7
  6
CONTINUOUS
 10
5.15856101
 20
3.444765527
 40
0.015
100
AcDbArc
 50
60.1172410965
 51
90.0
  0
ARC
  5
328
100
AcDbEntity
  8
0
100
AcDbCircle
 62
7
  6
CONTINUOUS
 10
4.92356101
 20
4.684765527
 40
0.5625
100
AcDbArc
 50
292.886050354
 51
247.113949646
  0
ARC
  5
329
100
AcDbEntity
  8
0
100
AcDbCircle
 62
7
  6
CONTINUOUS
 10
4.92356101
 20
4.684765527
 40
0.5508866378
100
AcDbArc
 50
293.3972224614
 51
246.6027775386
  0
ARC
  5
32A
100
AcDbEntity
  8
0
100
AcDbCircle
 62
7
  6
CONTINUOUS
 10
4.92356101
 20
4.684765527
 40
0.4144436
100
AcDbArc
 50
301.8601330399
 51
238.1398669601
  0
ARC
  5
32B
100
AcDbEntity
  8
0
100
AcDbCircle
 62
7
  6
CONTINUOUS
 10
4.92356101
 20
4.684765527
 40
0.3571920131
100
AcDbArc
 50
307.7648899121
 51
232.2351100879
  0
ARC
  5
32C
100
AcDbEntity
  8
0
100
AcDbCircle
 62
7
  6
CONTINUOUS
 10
4.92356101
 20
4.684765527
 40
0.342353501
100
AcDbArc
 50
309.7171480918
 51
230.2828519081
  0
ARC
  5
32D
100
AcDbEntity
  8
0
100
AcDbCircle
 62
7
  6
CONTINUOUS
 10
4.92356101
 20
4.684765527
 40
0.3375
100
AcDbArc
 50
176.7753793219
 51
178.9389063924
  0
ARC
  5
32E
100
AcDbEntity
  8
0
100
AcDbCircle
 62
7
  6
CONTINUOUS
 10
4.92356101
 20
4.684765527
 40
0.3375
100
AcDbArc
 50
181.0610936076
 51
183.2246206781
  0
ARC
  5
32F
100
AcDbEntity
  8
0
100
AcDbCircle
 62
7
  6
CONTINUOUS
 10
4.92356101
 20
4.684765527
 40
0.3375
100
AcDbArc
 50
185.3468078933
 51
187.5103349638
  0
ARC
  5
330
100
AcDbEntity
  8
0
100
AcDbCircle
 62
7
  6
CONTINUOUS
 10
4.92356101
 20
4.684765527
 40
0.3375
100
AcDbArc
 50
189.6325221791
 51
191.7960492495
  0
ARC
  5
331
100
AcDbEntity
  8
0
100
AcDbCircle
 62
7
  6
CONTINUOUS
 10
4.92356101
 20
4.684765527
 40
0.3375
100
AcDbArc
 50
193.9182364648
 51
196.0817635352
  0
ARC
  5
332
100
AcDbEntity
  8
0
100
AcDbCircle
 62
7
  6
CONTINUOUS
 10
4.92356101
 20
4.684765527
 40
0.3375
100
AcDbArc
 50
198.2039507505
 51
200.3674778209
  0
ARC
  5
333
100
AcDbEntity
  8
0
100
AcDbCircle
 62
7
  6
CONTINUOUS
 10
4.92356101
 20
4.684765527
 40
0.3375
100
AcDbArc
 50
202.4896650362
 51
204.6531921067
  0
ARC
  5
334
100
AcDbEntity
  8
0
100
AcDbCircle
 62
7
  6
CONTINUOUS
 10
4.92356101
 20
4.684765527
 40
0.3375
100
AcDbArc
 50
206.7753793219
 51
208.9389063924
  0
ARC
  5
335
100
AcDbEntity
  8
0
100
AcDbCircle
 62
7
  6
CONTINUOUS
 10
4.92356101
 20
4.684765527
 40
0.3375
100
AcDbArc
 50
211.0610936076
 51
213.2246206781
  0
ARC
  5
336
100
AcDbEntity
  8
0
100
AcDbCircle
 62
7
  6
CONTINUOUS
 10
4.92356101
 20
4.684765527
 40
0.3375
100
AcDbArc
 50
215.3468078933
 51
217.5103349638
  0
ARC
  5
337
100
AcDbEntity
  8
0
100
AcDbCircle
 62
7
  6
CONTINUOUS
 10
4.92356101
 20
4.684765527
 40
0.3375
100
AcDbArc
 50
219.6325221791
 51
221.7960492495
  0
ARC
  5
338
100
AcDbEntity
  8
0
100
AcDbCircle
 62
7
  6
CONTINUOUS
 10
4.92356101
 20
4.684765527
 40
0.3375
100
AcDbArc
 50
223.9182364648
 51
226.0817635352
  0
ARC
  5
339
100
AcDbEntity
  8
0
100
AcDbCircle
 62
7
  6
CONTINUOUS
 10
4.92356101
 20
4.684765527
 40
0.3375
100
AcDbArc
 50
228.2039507505
 51
229.5978055531
  0
ARC
  5
33A
100
AcDbEntity
  8
0
100
AcDbCircle
 62
7
  6
CONTINUOUS
 10
4.92356101
 20
4.684765527
 40
0.3375
100
AcDbArc
 50
310.4021944469
 51
311.7960492495
  0
ARC
  5
33B
100
AcDbEntity
  8
0
100
AcDbCircle
 62
7
  6
CONTINUOUS
 10
4.92356101
 20
4.684765527
 40
0.3375
100
AcDbArc
 50
313.9182364648
 51
316.0817635352
  0
ARC
  5
33C
100
AcDbEntity
  8
0
100
AcDbCircle
 62
7
  6
CONTINUOUS
 10
4.92356101
 20
4.684765527
 40
0.3375
100
AcDbArc
 50
318.2039507505
 51
320.3674778209
  0
ARC
  5
33D
100
AcDbEntity
  8
0
100
AcDbCircle
 62
7
  6
CONTINUOUS
 10
4.92356101
 20
4.684765527
 40
0.3375
100
AcDbArc
 50
322.4896650362
 51
324.6531921067
  0
ARC
  5
33E
100
AcDbEntity
  8
0
100
AcDbCircle
 62
7
  6
CONTINUOUS
 10
4.92356101
 20
4.684765527
 40
0.3375
100
AcDbArc
 50
326.7753793219
 51
328.9389063924
  0
ARC
  5
33F
100
AcDbEntity
  8
0
100
AcDbCircle
 62
7
  6
CONTINUOUS
 10
4.92356101
 20
4.684765527
 40
0.3375
100
AcDbArc
 50
331.0610936076
 51
333.2246206781
  0
ARC
  5
340
100
AcDbEntity
  8
0
100
AcDbCircle
 62
7
  6
CONTINUOUS
 10
4.92356101
 20
4.684765527
 40
0.3375
100
AcDbArc
 50
335.3468078933
 51
337.5103349638
  0
ARC
  5
341
100
AcDbEntity
  8
0
100
AcDbCircle
 62
7
  6
CONTINUOUS
 10
4.92356101
 20
4.684765527
 40
0.3375
100
AcDbArc
 50
339.6325221791
 51
341.7960492495
  0
ARC
  5
342
100
AcDbEntity
  8
0
100
AcDbCircle
 62
7
  6
CONTINUOUS
 10
4.92356101
 20
4.684765527
 40
0.3375
100
AcDbArc
 50
343.9182364648
 51
346.0817635352
  0
ARC
  5
343
100
AcDbEntity
  8
0
100
AcDbCircle
 62
7
  6
CONTINUOUS
 10
4.92356101
 20
4.684765527
 40
0.3375
100
AcDbArc
 50
348.2039507505
 51
350.3674778209
  0
ARC
  5
344
100
AcDbEntity
  8
0
100
AcDbCircle
 62
7
  6
CONTINUOUS
 10
4.92356101
 20
4.684765527
 40
0.3375
100
AcDbArc
 50
352.4896650362
 51
354.6531921067
  0
ARC
  5
345
100
AcDbEntity
  8
0
100
AcDbCircle
 62
7
  6
CONTINUOUS
 10
4.92356101
 20
4.684765527
 40
0.3375
100
AcDbArc
 50
356.7753793219
 51
358.9389063924
  0
ARC
  5
346
100
AcDbEntity
  8
0
100
AcDbCircle
 62
7
  6
CONTINUOUS
 10
4.92356101
 20
4.684765527
 40
0.3375
100
AcDbArc
 50
1.0610936076
 51
3.2246206781
  0
ARC
  5
347
100
AcDbEntity
  8
0
100
AcDbCircle
 62
7
  6
CONTINUOUS
 10
4.92356101
 20
4.684765527
 40
0.3375
100
AcDbArc
 50
5.3468078933
 51
7.5103349638
  0
ARC
  5
348
100
AcDbEntity
  8
0
100
AcDbCircle
 62
7
  6
CONTINUOUS
 10
4.92356101
 20
4.684765527
 40
0.3375
100
AcDbArc
 50
9.6325221791
 51
11.7960492495
  0
ARC
  5
349
100
AcDbEntity
  8
0
100
AcDbCircle
 62
7
  6
CONTINUOUS
 10
4.92356101
 20
4.684765527
 40
0.3375
100
AcDbArc
 50
13.9182364648
 51
16.0817635352
  0
ARC
  5
34A
100
AcDbEntity
  8
0
100
AcDbCircle
 62
7
  6
CONTINUOUS
 10
4.92356101
 20
4.684765527
 40
0.3375
100
AcDbArc
 50
18.2039507505
 51
20.3674778209
  0
ARC
  5
34B
100
AcDbEntity
  8
0
100
AcDbCircle
 62
7
  6
CONTINUOUS
 10
4.92356101
 20
4.684765527
 40
0.3375
100
AcDbArc
 50
22.4896650362
 51
24.6531921067
  0
ARC
  5
34C
100
AcDbEntity
  8
0
100
AcDbCircle
 62
7
  6
CONTINUOUS
 10
4.92356101
 20
4.684765527
 40
0.3375
100
AcDbArc
 50
26.7753793219
 51
28.9389063924
  0
ARC
  5
34D
100
AcDbEntity
  8
0
100
AcDbCircle
 62
7
  6
CONTINUOUS
 10
4.92356101
 20
4.684765527
 40
0.3375
100
AcDbArc
 50
31.0610936076
 51
33.2246206781
  0
ARC
  5
34E
100
AcDbEntity
  8
0
100
AcDbCircle
 62
7
  6
CONTINUOUS
 10
4.92356101
 20
4.684765527
 40
0.3375
100
AcDbArc
 50
35.3468078933
 51
37.5103349638
  0
ARC
  5
34F
100
AcDbEntity
  8
0
100
AcDbCircle
 62
7
  6
CONTINUOUS
 10
4.92356101
 20
4.684765527
 40
0.3375
100
AcDbArc
 50
39.6325221791
 51
41.7960492495
  0
ARC
  5
350
100
AcDbEntity
  8
0
100
AcDbCircle
 62
7
  6
CONTINUOUS
 10
4.92356101
 20
4.684765527
 40
0.3375
100
AcDbArc
 50
43.9182364648
 51
46.0817635352
  0
ARC
  5
351
100
AcDbEntity
  8
0
100
AcDbCircle
 62
7
  6
CONTINUOUS
 10
4.92356101
 20
4.684765527
 40
0.3375
100
AcDbArc
 50
48.2039507505
 51
50.3674778209
  0
ARC
  5
352
100
AcDbEntity
  8
0
100
AcDbCircle
 62
7
  6
CONTINUOUS
 10
4.92356101
 20
4.684765527
 40
0.3375
100
AcDbArc
 50
52.4896650362
 51
54.6531921067
  0
ARC
  5
353
100
AcDbEntity
  8
0
100
AcDbCircle
 62
7
  6
CONTINUOUS
 10
4.92356101
 20
4.684765527
 40
0.3375
100
AcDbArc
 50
56.7753793219
 51
58.9389063924
  0
ARC
  5
354
100
AcDbEntity
  8
0
100
AcDbCircle
 62
7
  6
CONTINUOUS
 10
4.92356101
 20
4.684765527
 40
0.3375
100
AcDbArc
 50
61.0610936076
 51
63.2246206781
  0
ARC
  5
355
100
AcDbEntity
  8
0
100
AcDbCircle
 62
7
  6
CONTINUOUS
 10
4.92356101
 20
4.684765527
 40
0.3375
100
AcDbArc
 50
65.3468078933
 51
67.5103349638
  0
ARC
  5
356
100
AcDbEntity
  8
0
100
AcDbCircle
 62
7
  6
CONTINUOUS
 10
4.92356101
 20
4.684765527
 40
0.3375
100
AcDbArc
 50
69.6325221791
 51
71.7960492495
  0
ARC
  5
357
100
AcDbEntity
  8
0
100
AcDbCircle
 62
7
  6
CONTINUOUS
 10
4.92356101
 20
4.684765527
 40
0.3375
100
AcDbArc
 50
73.9182364648
 51
76.0817635352
  0
ARC
  5
358
100
AcDbEntity
  8
0
100
AcDbCircle
 62
7
  6
CONTINUOUS
 10
4.92356101
 20
4.684765527
 40
0.3375
100
AcDbArc
 50
78.2039507505
 51
80.3674778209
  0
ARC
  5
359
100
AcDbEntity
  8
0
100
AcDbCircle
 62
7
  6
CONTINUOUS
 10
4.92356101
 20
4.684765527
 40
0.3375
100
AcDbArc
 50
82.4896650362
 51
84.6531921067
  0
ARC
  5
35A
100
AcDbEntity
  8
0
100
AcDbCircle
 62
7
  6
CONTINUOUS
 10
4.92356101
 20
4.684765527
 40
0.3375
100
AcDbArc
 50
86.7753793219
 51
88.9389063924
  0
ARC
  5
35B
100
AcDbEntity
  8
0
100
AcDbCircle
 62
7
  6
CONTINUOUS
 10
4.92356101
 20
4.684765527
 40
0.3375
100
AcDbArc
 50
91.0610936076
 51
93.2246206781
  0
ARC
  5
35C
100
AcDbEntity
  8
0
100
AcDbCircle
 62
7
  6
CONTINUOUS
 10
4.92356101
 20
4.684765527
 40
0.3375
100
AcDbArc
 50
95.3468078933
 51
97.5103349638
  0
ARC
  5
35D
100
AcDbEntity
  8
0
100
AcDbCircle
 62
7
  6
CONTINUOUS
 10
4.92356101
 20
4.684765527
 40
0.3375
100
AcDbArc
 50
99.6325221791
 51
101.7960492495
  0
ARC
  5
35E
100
AcDbEntity
  8
0
100
AcDbCircle
 62
7
  6
CONTINUOUS
 10
4.92356101
 20
4.684765527
 40
0.3375
100
AcDbArc
 50
103.9182364648
 51
106.0817635352
  0
ARC
  5
35F
100
AcDbEntity
  8
0
100
AcDbCircle
 62
7
  6
CONTINUOUS
 10
4.92356101
 20
4.684765527
 40
0.3375
100
AcDbArc
 50
108.2039507505
 51
110.3674778209
  0
ARC
  5
360
100
AcDbEntity
  8
0
100
AcDbCircle
 62
7
  6
CONTINUOUS
 10
4.92356101
 20
4.684765527
 40
0.3375
100
AcDbArc
 50
112.4896650362
 51
114.6531921067
  0
ARC
  5
361
100
AcDbEntity
  8
0
100
AcDbCircle
 62
7
  6
CONTINUOUS
 10
4.92356101
 20
4.684765527
 40
0.3375
100
AcDbArc
 50
116.7753793219
 51
118.9389063924
  0
ARC
  5
362
100
AcDbEntity
  8
0
100
AcDbCircle
 62
7
  6
CONTINUOUS
 10
4.92356101
 20
4.684765527
 40
0.3375
100
AcDbArc
 50
121.0610936076
 51
123.2246206781
  0
ARC
  5
363
100
AcDbEntity
  8
0
100
AcDbCircle
 62
7
  6
CONTINUOUS
 10
4.92356101
 20
4.684765527
 40
0.3375
100
AcDbArc
 50
125.3468078933
 51
127.5103349638
  0
ARC
  5
364
100
AcDbEntity
  8
0
100
AcDbCircle
 62
7
  6
CONTINUOUS
 10
4.92356101
 20
4.684765527
 40
0.3375
100
AcDbArc
 50
129.6325221791
 51
131.7960492495
  0
ARC
  5
365
100
AcDbEntity
  8
0
100
AcDbCircle
 62
7
  6
CONTINUOUS
 10
4.92356101
 20
4.684765527
 40
0.3375
100
AcDbArc
 50
133.9182364648
 51
136.0817635352
  0
ARC
  5
366
100
AcDbEntity
  8
0
100
AcDbCircle
 62
7
  6
CONTINUOUS
 10
4.92356101
 20
4.684765527
 40
0.3375
100
AcDbArc
 50
138.2039507505
 51
140.3674778209
  0
ARC
  5
367
100
AcDbEntity
  8
0
100
AcDbCircle
 62
7
  6
CONTINUOUS
 10
4.92356101
 20
4.684765527
 40
0.3375
100
AcDbArc
 50
142.4896650362
 51
144.6531921067
  0
ARC
  5
368
100
AcDbEntity
  8
0
100
AcDbCircle
 62
7
  6
CONTINUOUS
 10
4.92356101
 20
4.684765527
 40
0.3375
100
AcDbArc
 50
146.7753793219
 51
148.9389063924
  0
ARC
  5
369
100
AcDbEntity
  8
0
100
AcDbCircle
 62
7
  6
CONTINUOUS
 10
4.92356101
 20
4.684765527
 40
0.3375
100
AcDbArc
 50
151.0610936076
 51
153.2246206781
  0
ARC
  5
36A
100
AcDbEntity
  8
0
100
AcDbCircle
 62
7
  6
CONTINUOUS
 10
4.92356101
 20
4.684765527
 40
0.3375
100
AcDbArc
 50
155.3468078933
 51
157.5103349638
  0
ARC
  5
36B
100
AcDbEntity
  8
0
100
AcDbCircle
 62
7
  6
CONTINUOUS
 10
4.92356101
 20
4.684765527
 40
0.3375
100
AcDbArc
 50
159.6325221791
 51
161.7960492495
  0
ARC
  5
36C
100
AcDbEntity
  8
0
100
AcDbCircle
 62
7
  6
CONTINUOUS
 10
4.92356101
 20
4.684765527
 40
0.3375
100
AcDbArc
 50
163.9182364648
 51
166.0817635352
  0
ARC
  5
36D
100
AcDbEntity
  8
0
100
AcDbCircle
 62
7
  6
CONTINUOUS
 10
4.92356101
 20
4.684765527
 40
0.3375
100
AcDbArc
 50
168.2039507505
 51
170.3674778209
  0
ARC
  5
36E
100
AcDbEntity
  8
0
100
AcDbCircle
 62
7
  6
CONTINUOUS
 10
4.92356101
 20
4.684765527
 40
0.3375
100
AcDbArc
 50
172.4896650362
 51
174.6531921067
  0
ARC
  5
36F
100
AcDbEntity
  8
0
100
AcDbCircle
 62
7
  6
CONTINUOUS
 10
4.92356101
 20
4.684765527
 40
0.3225
100
AcDbArc
 50
312.7158769402
 51
227.2841230444
  0
ARC
  5
370
100
AcDbEntity
  8
0
100
AcDbCircle
 62
7
  6
CONTINUOUS
 10
4.92356101
 20
4.684765527
 40
0.21875
100
AcDbArc
 50
0.0
 51
180.0
  0
SPLINE
  5
371
100
AcDbEntity
  8
0
100
AcDbSpline
 62
7
  6
CONTINUOUS
 70
0
 71
3
 72
16
 73
12
 74
0
 42
0.0000001
 43
0.0000001
 44
0.0000000001
 40
0.0
 40
0.0
 40
0.0
 40
0.0
 40
0.112063868
 40
0.2273399362
 40
0.3463541263
 40
0.46954251
 40
0.5970500152
 40
0.7286059907
 40
0.7956975449
 40
0.8634427513
 40
1.0
 40
1.0
 40
1.0
 40
1.0
 10
5.1660344129
 20
3.0567598263
 30
0.0
 10
5.166542553
 20
3.0570518164
 30
0.0
 10
5.1675390638
 20
3.0577063514
 30
0.0
 10
5.1689247604
 20
3.0588796549
 30
0.0
 10
5.1701930815
 20
3.0602600033
 30
0.0
 10
5.1713109512
 20
3.0618442926
 30
0.0
 10
5.172241011
 20
3.0636204153
 30
0.0
 10
5.1728231961
 20
3.0652298043
 30
0.0
 10
5.1731605403
 20
3.0665825246
 30
0.0
 10
5.1734078216
 20
3.0679809552
 30
0.0
 10
5.1734828728
 20
3.0690513758
 30
0.0
 10
5.1734828728
 20
3.069765527
 30
0.0
  0
SPLINE
  5
372
100
AcDbEntity
  8
0
100
AcDbSpline
 62
7
  6
CONTINUOUS
 70
0
 71
3
 72
16
 73
12
 74
0
 42
0.0000001
 43
0.0000001
 44
0.0000000001
 40
0.0
 40
0.0
 40
0.0
 40
0.0
 40
0.136557209
 40
0.2043023982
 40
0.2713939421
 40
0.4029499184
 40
0.5304574491
 40
0.6536458479
 40
0.7726600541
 40
0.8879361241
 40
1.0
 40
1.0
 40
1.0
 40
1.0
 10
4.6736391472
 20
3.069765527
 30
0.0
 10
4.6736391472
 20
3.069051376
 30
0.0
 10
4.6737141985
 20
3.0679809557
 30
0.0
 10
4.6739614796
 20
3.0665825254
 30
0.0
 10
4.6742988237
 20
3.0652298052
 30
0.0
 10
4.6748810087
 20
3.0636204162
 30
0.0
 10
4.6758110685
 20
3.0618442932
 30
0.0
 10
4.6769289383
 20
3.0602600036
 30
0.0
 10
4.6781972595
 20
3.058879655
 30
0.0
 10
4.6795829562
 20
3.0577063515
 30
0.0
 10
4.680579467
 20
3.0570518164
 30
0.0
 10
4.6810876072
 20
3.0567598263
 30
0.0
  0
SPLINE
  5
373
100
AcDbEntity
  8
0
100
AcDbSpline
 62
7
  6
CONTINUOUS
 70
0
 71
3
 72
15
 73
11
 74
0
 42
0.0000001
 43
0.0000001
 44
0.0000000001
 40
0.0
 40
0.0
 40
0.0
 40
0.0
 40
0.1399653188
 40
0.2776413623
 40
0.4112277276
 40
0.5396048695
 40
0.662371567
 40
0.7796606284
 40
0.8919828128
 40
1.0
 40
1.0
 40
1.0
 40
1.0
 10
4.6754551965
 20
3.069765527
 30
0.0
 10
4.6754551965
 20
3.0690516675
 30
0.0
 10
4.6755457399
 20
3.067633932
 30
0.0
 10
4.6759457194
 20
3.0655695325
 30
0.0
 10
4.6765857661
 20
3.0636285049
 30
0.0
 10
4.6774332436
 20
3.0618529238
 30
0.0
 10
4.6784524542
 20
3.0602683352
 30
0.0
 10
4.6796095505
 20
3.0588869257
 30
0.0
 10
4.6808743961
 20
3.0577121578
 30
0.0
 10
4.6817889366
 20
3.0570532927
 30
0.0
 10
4.6822551829
 20
3.0567598263
 30
0.0
  0
SPLINE
  5
374
100
AcDbEntity
  8
0
100
AcDbSpline
 62
7
  6
CONTINUOUS
 70
0
 71
3
 72
15
 73
11
 74
0
 42
0.0000001
 43
0.0000001
 44
0.0000000001
 40
0.0
 40
0.0
 40
0.0
 40
0.0
 40
0.1436928482
 40
0.2845809292
 40
0.4204299684
 40
0.5498147341
 40
0.6721663972
 40
0.787571075
 40
0.8965874924
 40
1.0
 40
1.0
 40
1.0
 40
1.0
 10
4.6796606403
 20
3.069765527
 30
0.0
 10
4.6796606403
 20
3.0690519578
 30
0.0
 10
4.6797413719
 20
3.0676373874
 30
0.0
 10
4.6800982646
 20
3.0655758482
 30
0.0
 10
4.6806695554
 20
3.0636369091
 30
0.0
 10
4.6814263365
 20
3.0618623907
 30
0.0
 10
4.682336953
 20
3.0602778811
 30
0.0
 10
4.6833713708
 20
3.0588956975
 30
0.0
 10
4.6845027857
 20
3.0577195283
 30
0.0
 10
4.6853266023
 20
3.057055241
 30
0.0
 10
4.6857466656
 20
3.0567598263
 30
0.0
  0
SPLINE
  5
375
100
AcDbEntity
  8
0
100
AcDbSpline
 62
7
  6
CONTINUOUS
 70
0
 71
3
 72
15
 73
11
 74
0
 42
0.0000001
 43
0.0000001
 44
0.0000000001
 40
0.0
 40
0.0
 40
0.0
 40
0.0
 40
0.1476530089
 40
0.2919747287
 40
0.4302799085
 40
0.5608107113
 40
0.6827940262
 40
0.7962262821
 40
0.9016709762
 40
1.0
 40
1.0
 40
1.0
 40
1.0
 10
4.686214978
 20
3.069765527
 30
0.0
 10
4.686214978
 20
3.0690522358
 30
0.0
 10
4.6862852067
 20
3.0676407064
 30
0.0
 10
4.6865958617
 20
3.0655820318
 30
0.0
 10
4.6870932302
 20
3.0636453964
 30
0.0
 10
4.6877522631
 20
3.0618723621
 30
0.0
 10
4.6885455356
 20
3.0602884655
 30
0.0
 10
4.6894470667
 20
3.0589060097
 30
0.0
 10
4.6904336853
 20
3.057728753
 30
0.0
 10
4.6911585045
 20
3.0570578077
 30
0.0
 10
4.6915284305
 20
3.0567598263
 30
0.0
  0
SPLINE
  5
376
100
AcDbEntity
  8
0
100
AcDbSpline
 62
7
  6
CONTINUOUS
 70
0
 71
3
 72
14
 73
10
 74
0
 42
0.0000001
 43
0.0000001
 44
0.0000000001
 40
0.0
 40
0.0
 40
0.0
 40
0.0
 40
0.1517559145
 40
0.2996627196
 40
0.4405846156
 40
0.5724173866
 40
0.6941532389
 40
0.8056526982
 40
1.0
 40
1.0
 40
1.0
 40
1.0
 10
4.6950550877
 20
3.069765527
 30
0.0
 10
4.6950550877
 20
3.0690524908
 30
0.0
 10
4.6951142342
 20
3.0676437561
 30
0.0
 10
4.6953759806
 20
3.0655878332
 30
0.0
 10
4.6957951074
 20
3.0636535508
 30
0.0
 10
4.6963503549
 20
3.0618825158
 30
0.0
 10
4.6970192334
 20
3.060299315
 30
0.0
 10
4.6979876862
 20
3.0585375481
 30
0.0
 10
4.6988838518
 20
3.0573899094
 30
0.0
 10
4.699544796
 20
3.0567598263
 30
0.0
  0
SPLINE
  5
377
100
AcDbEntity
  8
0
100
AcDbSpline
 62
7
  6
CONTINUOUS
 70
0
 71
3
 72
15
 73
11
 74
0
 42
0.0000001
 43
0.0000001
 44
0.0000000001
 40
0.0
 40
0.0
 40
0.0
 40
0.0
 40
0.1556264146
 40
0.306924186
 40
0.4503343582
 40
0.5834150494
 40
0.70490938
 40
0.8145025089
 40
0.9125868632
 40
1.0
 40
1.0
 40
1.0
 40
1.0
 10
4.7060958344
 20
3.069765527
 30
0.0
 10
4.7060958344
 20
3.0690527129
 30
0.0
 10
4.7061434196
 20
3.0676464256
 30
0.0
 10
4.7063541
 20
3.0655929633
 30
0.0
 10
4.706691394
 20
3.063661058
 30
0.0
 10
4.7071382906
 20
3.0618919255
 30
0.0
 10
4.707676165
 20
3.0603109682
 30
0.0
 10
4.7082874315
 20
3.0589302409
 30
0.0
 10
4.7089565306
 20
3.0577531675
 30
0.0
 10
4.7094598925
 20
3.0570654293
 30
0.0
 10
4.70971856
 20
3.0567598263
 30
0.0
  0
SPLINE
  5
378
100
AcDbEntity
  8
0
100
AcDbSpline
 62
7
  6
CONTINUOUS
 70
0
 71
3
 72
15
 73
11
 74
0
 42
0.0000001
 43
0.0000001
 44
0.0000000001
 40
0.0
 40
0.0
 40
0.0
 40
0.0
 40
0.1591639977
 40
0.3135826082
 40
0.4593251292
 40
0.5936441647
 40
0.7150419136
 40
0.8230087163
 40
0.9177667819
 40
1.0
 40
1.0
 40
1.0
 40
1.0
 10
4.7192308896
 20
3.069765527
 30
0.0
 10
4.7192308896
 20
3.0690528937
 30
0.0
 10
4.7192665444
 20
3.0676485995
 30
0.0
 10
4.7194244478
 20
3.0655972123
 30
0.0
 10
4.7196772109
 20
3.063667382
 30
0.0
 10
4.720012022
 20
3.0619002819
 30
0.0
 10
4.7204148302
 20
3.0603213461
 30
0.0
 10
4.7208723149
 20
3.0589426104
 30
0.0
 10
4.72137271
 20
3.0577673368
 30
0.0
 10
4.7217542193
 20
3.0570705445
 30
0.0
 10
4.7219517438
 20
3.0567598263
 30
0.0
  0
SPLINE
  5
379
100
AcDbEntity
  8
0
100
AcDbSpline
 62
7
  6
CONTINUOUS
 70
0
 71
3
 72
15
 73
11
 74
0
 42
0.0000001
 43
0.0000001
 44
0.0000000001
 40
0.0
 40
0.0
 40
0.0
 40
0.0
 40
0.1619932474
 40
0.3189188833
 40
0.4665564167
 40
0.6019148709
 40
0.7232943617
 40
0.8300047647
 40
0.9220830279
 40
1.0
 40
1.0
 40
1.0
 40
1.0
 10
4.7343337556
 20
3.069765527
 30
0.0
 10
4.7343337556
 20
3.0690530261
 30
0.0
 10
4.7343572081
 20
3.0676501942
 30
0.0
 10
4.7344610906
 20
3.0656003625
 30
0.0
 10
4.7346273547
 20
3.0636721587
 30
0.0
 10
4.7348475235
 20
3.0619067798
 30
0.0
 10
4.7351122821
 20
3.0603297551
 30
0.0
 10
4.7354127091
 20
3.058953262
 30
0.0
 10
4.7357409287
 20
3.0577805744
 30
0.0
 10
4.735994133
 20
3.057075922
 30
0.0
 10
4.736126535
 20
3.0567598263
 30
0.0
  0
SPLINE
  5
37A
100
AcDbEntity
  8
0
100
AcDbSpline
 62
7
  6
CONTINUOUS
 70
0
 71
3
 72
14
 73
10
 74
0
 42
0.0000001
 43
0.0000001
 44
0.0000000001
 40
0.0
 40
0.0
 40
0.0
 40
0.0
 40
0.3223104292
 40
0.4711684452
 40
0.6072125957
 40
0.7286107717
 40
0.8345470068
 40
0.9249157539
 40
1.0
 40
1.0
 40
1.0
 40
1.0
 10
4.7512589835
 20
3.069765527
 30
0.0
 10
4.7512589835
 20
3.0683636401
 30
0.0
 10
4.7512901994
 20
3.0663140488
 30
0.0
 10
4.7513976148
 20
3.06367507
 30
0.0
 10
4.7515015717
 20
3.0619108148
 30
0.0
 10
4.7516265157
 20
3.0603351301
 30
0.0
 10
4.7517681821
 20
3.0589603978
 30
0.0
 10
4.7519227925
 20
3.0577899965
 30
0.0
 10
4.7520429926
 20
3.0570801856
 30
0.0
 10
4.7521064226
 20
3.0567598263
 30
0.0
  0
SPLINE
  5
37B
100
AcDbEntity
  8
0
100
AcDbSpline
 62
7
  6
CONTINUOUS
 70
0
 71
3
 72
14
 73
10
 74
0
 42
0.0000001
 43
0.0000001
 44
0.0000000001
 40
0.0
 40
0.0
 40
0.0
 40
0.0
 40
0.07508424
 40
0.1654529858
 40
0.2713892033
 40
0.3927873626
 40
0.5288314806
 40
0.6776894927
 40
1.0
 40
1.0
 40
1.0
 40
1.0
 10
5.0950155974
 20
3.0567598263
 30
0.0
 10
5.0950790274
 20
3.0570801856
 30
0.0
 10
5.0951992276
 20
3.0577899965
 30
0.0
 10
5.095353838
 20
3.0589603976
 30
0.0
 10
5.0954955043
 20
3.0603351297
 30
0.0
 10
5.0956204483
 20
3.0619108142
 30
0.0
 10
5.0957244053
 20
3.0636750692
 30
0.0
 10
5.0958318206
 20
3.0663140482
 30
0.0
 10
5.0958630366
 20
3.0683636397
 30
0.0
 10
5.0958630366
 20
3.069765527
 30
0.0
  0
SPLINE
  5
37C
100
AcDbEntity
  8
0
100
AcDbSpline
 62
7
  6
CONTINUOUS
 70
0
 71
3
 72
15
 73
11
 74
0
 42
0.0000001
 43
0.0000001
 44
0.0000000001
 40
0.0
 40
0.0
 40
0.0
 40
0.0
 40
0.0779169659
 40
0.1699952278
 40
0.2767056132
 40
0.3980850875
 40
0.5334435096
 40
0.6810810394
 40
0.8380067056
 40
1.0
 40
1.0
 40
1.0
 40
1.0
 10
5.1109954851
 20
3.0567598263
 30
0.0
 10
5.111127887
 20
3.057075922
 30
0.0
 10
5.1113810913
 20
3.0577805743
 30
0.0
 10
5.1117093109
 20
3.0589532619
 30
0.0
 10
5.1120097379
 20
3.0603297548
 30
0.0
 10
5.1122744965
 20
3.0619067791
 30
0.0
 10
5.1124946653
 20
3.0636721579
 30
0.0
 10
5.1126609294
 20
3.0656003616
 30
0.0
 10
5.112764812
 20
3.0676501936
 30
0.0
 10
5.1127882645
 20
3.0690530259
 30
0.0
 10
5.1127882645
 20
3.069765527
 30
0.0
  0
SPLINE
  5
37D
100
AcDbEntity
  8
0
100
AcDbSpline
 62
7
  6
CONTINUOUS
 70
0
 71
3
 72
15
 73
11
 74
0
 42
0.0000001
 43
0.0000001
 44
0.0000000001
 40
0.0
 40
0.0
 40
0.0
 40
0.0
 40
0.0822332117
 40
0.1769912759
 40
0.2849580613
 40
0.4063557939
 40
0.540674798
 40
0.6864173156
 40
0.8408359561
 40
1.0
 40
1.0
 40
1.0
 40
1.0
 10
5.1251702763
 20
3.0567598263
 30
0.0
 10
5.1253678007
 20
3.0570705445
 30
0.0
 10
5.12574931
 20
3.0577673367
 30
0.0
 10
5.1262497051
 20
3.0589426102
 30
0.0
 10
5.1267071898
 20
3.0603213457
 30
0.0
 10
5.127109998
 20
3.0619002813
 30
0.0
 10
5.1274448091
 20
3.0636673811
 30
0.0
 10
5.1276975722
 20
3.0655972114
 30
0.0
 10
5.1278554757
 20
3.067648599
 30
0.0
 10
5.1278911304
 20
3.0690528935
 30
0.0
 10
5.1278911304
 20
3.069765527
 30
0.0
  0
SPLINE
  5
37E
100
AcDbEntity
  8
0
100
AcDbSpline
 62
7
  6
CONTINUOUS
 70
0
 71
3
 72
15
 73
11
 74
0
 42
0.0000001
 43
0.0000001
 44
0.0000000001
 40
0.0
 40
0.0
 40
0.0
 40
0.0
 40
0.0874131295
 40
0.1854974826
 40
0.2950905921
 40
0.4165849054
 40
0.5496655643
 40
0.6930757354
 40
0.8443735395
 40
1.0
 40
1.0
 40
1.0
 40
1.0
 10
5.13740346
 20
3.0567598263
 30
0.0
 10
5.1376621276
 20
3.0570654293
 30
0.0
 10
5.1381654894
 20
3.0577531675
 30
0.0
 10
5.1388345885
 20
3.0589302408
 30
0.0
 10
5.139445855
 20
3.0603109678
 30
0.0
 10
5.1399837292
 20
3.0618919249
 30
0.0
 10
5.140430626
 20
3.0636610571
 30
0.0
 10
5.1407679199
 20
3.0655929624
 30
0.0
 10
5.1409786004
 20
3.067646425
 30
0.0
 10
5.1410261857
 20
3.0690527127
 30
0.0
 10
5.1410261857
 20
3.069765527
 30
0.0
  0
SPLINE
  5
37F
100
AcDbEntity
  8
0
100
AcDbSpline
 62
7
  6
CONTINUOUS
 70
0
 71
3
 72
14
 73
10
 74
0
 42
0.0000001
 43
0.0000001
 44
0.0000000001
 40
0.0
 40
0.0
 40
0.0
 40
0.0
 40
0.1943472933
 40
0.3058467358
 40
0.4275825722
 40
0.5594153138
 40
0.7003372073
 40
0.8482440415
 40
1.0
 40
1.0
 40
1.0
 40
1.0
 10
5.1475772241
 20
3.0567598263
 30
0.0
 10
5.1482381683
 20
3.0573899094
 30
0.0
 10
5.1491343337
 20
3.058537548
 30
0.0
 10
5.1501027866
 20
3.0602993147
 30
0.0
 10
5.1507716649
 20
3.0618825152
 30
0.0
 10
5.1513269125
 20
3.06365355
 30
0.0
 10
5.1517460393
 20
3.0655878323
 30
0.0
 10
5.1520077859
 20
3.0676437555
 30
0.0
 10
5.1520669323
 20
3.0690524906
 30
0.0
 10
5.1520669323
 20
3.069765527
 30
0.0
  0
SPLINE
  5
380
100
AcDbEntity
  8
0
100
AcDbSpline
 62
7
  6
CONTINUOUS
 70
0
 71
3
 72
15
 73
11
 74
0
 42
0.0000001
 43
0.0000001
 44
0.0000000001
 40
0.0
 40
0.0
 40
0.0
 40
0.0
 40
0.0983290167
 40
0.2037737091
 40
0.3172059484
 40
0.4391892477
 40
0.5697200221
 40
0.7080251998
 40
0.8523469482
 40
1.0
 40
1.0
 40
1.0
 40
1.0
 10
5.1555935896
 20
3.0567598263
 30
0.0
 10
5.1559635155
 20
3.0570578077
 30
0.0
 10
5.1566883347
 20
3.0577287529
 30
0.0
 10
5.1576749532
 20
3.0589060095
 30
0.0
 10
5.1585764843
 20
3.0602884652
 30
0.0
 10
5.1593697567
 20
3.0618723615
 30
0.0
 10
5.1600287897
 20
3.0636453955
 30
0.0
 10
5.1605261582
 20
3.0655820309
 30
0.0
 10
5.1608368133
 20
3.0676407058
 30
0.0
 10
5.1609070421
 20
3.0690522356
 30
0.0
 10
5.1609070421
 20
3.069765527
 30
0.0
  0
SPLINE
  5
381
100
AcDbEntity
  8
0
100
AcDbSpline
 62
7
  6
CONTINUOUS
 70
0
 71
3
 72
15
 73
11
 74
0
 42
0.0000001
 43
0.0000001
 44
0.0000000001
 40
0.0
 40
0.0
 40
0.0
 40
0.0
 40
0.1034125002
 40
0.2124289158
 40
0.3278335773
 40
0.4501852249
 40
0.5795699633
 40
0.7154190008
 40
0.85630711
 40
1.0
 40
1.0
 40
1.0
 40
1.0
 10
5.1613753544
 20
3.0567598263
 30
0.0
 10
5.1617954177
 20
3.057055241
 30
0.0
 10
5.1626192344
 20
3.0577195283
 30
0.0
 10
5.1637506491
 20
3.0588956973
 30
0.0
 10
5.1647850669
 20
3.0602778808
 30
0.0
 10
5.1656956832
 20
3.0618623902
 30
0.0
 10
5.1664524644
 20
3.0636369082
 30
0.0
 10
5.1670237553
 20
3.0655758473
 30
0.0
 10
5.1673806482
 20
3.0676373869
 30
0.0
 10
5.1674613798
 20
3.0690519576
 30
0.0
 10
5.1674613798
 20
3.069765527
 30
0.0
  0
SPLINE
  5
382
100
AcDbEntity
  8
0
100
AcDbSpline
 62
7
  6
CONTINUOUS
 70
0
 71
3
 72
15
 73
11
 74
0
 42
0.0000001
 43
0.0000001
 44
0.0000000001
 40
0.0
 40
0.0
 40
0.0
 40
0.0
 40
0.1080171796
 40
0.2203393621
 40
0.3376284074
 40
0.4603950895
 40
0.5887722051
 40
0.7223585691
 40
0.8600346405
 40
1.0
 40
1.0
 40
1.0
 40
1.0
 10
5.1648668372
 20
3.0567598263
 30
0.0
 10
5.1653330834
 20
3.0570532927
 30
0.0
 10
5.1662476239
 20
3.0577121577
 30
0.0
 10
5.1675124694
 20
3.0588869256
 30
0.0
 10
5.1686695657
 20
3.0602683349
 30
0.0
 10
5.1696887761
 20
3.0618529232
 30
0.0
 10
5.1705362537
 20
3.0636285041
 30
0.0
 10
5.1711763005
 20
3.0655695316
 30
0.0
 10
5.1715762801
 20
3.0676339315
 30
0.0
 10
5.1716668236
 20
3.0690516673
 30
0.0
 10
5.1716668236
 20
3.069765527
 30
0.0
  0
SPLINE
  5
383
100
AcDbEntity
  8
0
100
AcDbSpline
 62
7
  6
CONTINUOUS
 70
0
 71
3
 72
16
 73
12
 74
0
 42
0.0000001
 43
0.0000001
 44
0.0000000001
 40
0.0
 40
0.0
 40
0.0
 40
0.0
 40
0.1365572291
 40
0.204302421
 40
0.2713939593
 40
0.4029499232
 40
0.5304574514
 40
0.653645849
 40
0.772660056
 40
0.8879361242
 40
1.0
 40
1.0
 40
1.0
 40
1.0
 10
5.1734828728
 20
3.444765527
 30
0.0
 10
5.1734828728
 20
3.445479678
 30
0.0
 10
5.1734078216
 20
3.4465500985
 30
0.0
 10
5.1731605404
 20
3.4479485288
 30
0.0
 10
5.1728231964
 20
3.449301249
 30
0.0
 10
5.1722410113
 20
3.4509106379
 30
0.0
 10
5.1713109516
 20
3.4526867608
 30
0.0
 10
5.1701930817
 20
3.4542710504
 30
0.0
 10
5.1689247606
 20
3.4556513989
 30
0.0
 10
5.1675390638
 20
3.4568247024
 30
0.0
 10
5.166542553
 20
3.4574792375
 30
0.0
 10
5.1660344129
 20
3.4577712277
 30
0.0
  0
SPLINE
  5
384
100
AcDbEntity
  8
0
100
AcDbSpline
 62
7
  6
CONTINUOUS
 70
0
 71
3
 72
15
 73
11
 74
0
 42
0.0000001
 43
0.0000001
 44
0.0000000001
 40
0.0
 40
0.0
 40
0.0
 40
0.0
 40
0.1399653395
 40
0.27764138
 40
0.4112277324
 40
0.5396048719
 40
0.6623715681
 40
0.7796606302
 40
0.8919828129
 40
1.0
 40
1.0
 40
1.0
 40
1.0
 10
5.1716668236
 20
3.444765527
 30
0.0
 10
5.1716668236
 20
3.4454793866
 30
0.0
 10
5.1715762801
 20
3.4468971221
 30
0.0
 10
5.1711763007
 20
3.4489615217
 30
0.0
 10
5.1705362539
 20
3.4509025491
 30
0.0
 10
5.1696887765
 20
3.4526781302
 30
0.0
 10
5.1686695659
 20
3.4542627188
 30
0.0
 10
5.1675124696
 20
3.4556441282
 30
0.0
 10
5.166247624
 20
3.4568188962
 30
0.0
 10
5.1653330834
 20
3.4574777612
 30
0.0
 10
5.1648668372
 20
3.4577712277
 30
0.0
  0
SPLINE
  5
385
100
AcDbEntity
  8
0
100
AcDbSpline
 62
7
  6
CONTINUOUS
 70
0
 71
3
 72
15
 73
11
 74
0
 42
0.0000001
 43
0.0000001
 44
0.0000000001
 40
0.0
 40
0.0
 40
0.0
 40
0.0
 40
0.1436928694
 40
0.2845809473
 40
0.4204299732
 40
0.5498147365
 40
0.6721663983
 40
0.7875710768
 40
0.8965874925
 40
1.0
 40
1.0
 40
1.0
 40
1.0
 10
5.1674613798
 20
3.444765527
 30
0.0
 10
5.1674613798
 20
3.4454790963
 30
0.0
 10
5.1673806482
 20
3.4468936667
 30
0.0
 10
5.1670237554
 20
3.448955206
 30
0.0
 10
5.1664524646
 20
3.450894145
 30
0.0
 10
5.1656956836
 20
3.4526686632
 30
0.0
 10
5.164785067
 20
3.4542531728
 30
0.0
 10
5.1637506493
 20
3.4556353565
 30
0.0
 10
5.1626192344
 20
3.4568115256
 30
0.0
 10
5.1617954177
 20
3.4574758129
 30
0.0
 10
5.1613753544
 20
3.4577712277
 30
0.0
  0
SPLINE
  5
386
100
AcDbEntity
  8
0
100
AcDbSpline
 62
7
  6
CONTINUOUS
 70
0
 71
3
 72
15
 73
11
 74
0
 42
0.0000001
 43
0.0000001
 44
0.0000000001
 40
0.0
 40
0.0
 40
0.0
 40
0.0
 40
0.1476530306
 40
0.2919747472
 40
0.4302799134
 40
0.5608107137
 40
0.6827940273
 40
0.7962262838
 40
0.9016709762
 40
1.0
 40
1.0
 40
1.0
 40
1.0
 10
5.1609070421
 20
3.444765527
 30
0.0
 10
5.1609070421
 20
3.4454788183
 30
0.0
 10
5.1608368133
 20
3.4468903478
 30
0.0
 10
5.1605261584
 20
3.4489490224
 30
0.0
 10
5.1600287899
 20
3.4508856577
 30
0.0
 10
5.159369757
 20
3.4526586919
 30
0.0
 10
5.1585764845
 20
3.4542425885
 30
0.0
 10
5.1576749533
 20
3.4556250443
 30
0.0
 10
5.1566883347
 20
3.4568023009
 30
0.0
 10
5.1559635156
 20
3.4574732462
 30
0.0
 10
5.1555935896
 20
3.4577712277
 30
0.0
  0
SPLINE
  5
387
100
AcDbEntity
  8
0
100
AcDbSpline
 62
7
  6
CONTINUOUS
 70
0
 71
3
 72
14
 73
10
 74
0
 42
0.0000001
 43
0.0000001
 44
0.0000000001
 40
0.0
 40
0.0
 40
0.0
 40
0.0
 40
0.1517559368
 40
0.2996627385
 40
0.4405846205
 40
0.572417389
 40
0.6941532399
 40
0.8056526999
 40
1.0
 40
1.0
 40
1.0
 40
1.0
 10
5.1520669323
 20
3.444765527
 30
0.0
 10
5.1520669323
 20
3.4454785633
 30
0.0
 10
5.1520077859
 20
3.446887298
 30
0.0
 10
5.1517460394
 20
3.448943221
 30
0.0
 10
5.1513269126
 20
3.4508775033
 30
0.0
 10
5.1507716651
 20
3.4526485382
 30
0.0
 10
5.1501027867
 20
3.4542317389
 30
0.0
 10
5.1491343339
 20
3.4559935059
 30
0.0
 10
5.1482381683
 20
3.4571411446
 30
0.0
 10
5.1475772241
 20
3.4577712277
 30
0.0
  0
SPLINE
  5
388
100
AcDbEntity
  8
0
100
AcDbSpline
 62
7
  6
CONTINUOUS
 70
0
 71
3
 72
15
 73
11
 74
0
 42
0.0000001
 43
0.0000001
 44
0.0000000001
 40
0.0
 40
0.0
 40
0.0
 40
0.0
 40
0.1556264375
 40
0.3069242054
 40
0.4503343632
 40
0.5834150518
 40
0.704909381
 40
0.8145025105
 40
0.9125868632
 40
1.0
 40
1.0
 40
1.0
 40
1.0
 10
5.1410261857
 20
3.444765527
 30
0.0
 10
5.1410261857
 20
3.4454783411
 30
0.0
 10
5.1409786004
 20
3.4468846286
 30
0.0
 10
5.14076792
 20
3.4489380909
 30
0.0
 10
5.1404306261
 20
3.450869996
 30
0.0
 10
5.1399837294
 20
3.4526391285
 30
0.0
 10
5.1394458551
 20
3.4542200858
 30
0.0
 10
5.1388345886
 20
3.455600813
 30
0.0
 10
5.1381654894
 20
3.4567778864
 30
0.0
 10
5.1376621276
 20
3.4574656246
 30
0.0
 10
5.13740346
 20
3.4577712277
 30
0.0
  0
SPLINE
  5
389
100
AcDbEntity
  8
0
100
AcDbSpline
 62
7
  6
CONTINUOUS
 70
0
 71
3
 72
15
 73
11
 74
0
 42
0.0000001
 43
0.0000001
 44
0.0000000001
 40
0.0
 40
0.0
 40
0.0
 40
0.0
 40
0.1591640211
 40
0.313582628
 40
0.4593251342
 40
0.5936441671
 40
0.7150419146
 40
0.823008718
 40
0.9177667819
 40
1.0
 40
1.0
 40
1.0
 40
1.0
 10
5.1278911304
 20
3.444765527
 30
0.0
 10
5.1278911304
 20
3.4454781603
 30
0.0
 10
5.1278554757
 20
3.4468824546
 30
0.0
 10
5.1276975723
 20
3.4489338419
 30
0.0
 10
5.1274448092
 20
3.4508636721
 30
0.0
 10
5.1271099981
 20
3.4526307721
 30
0.0
 10
5.1267071899
 20
3.4542097079
 30
0.0
 10
5.1262497051
 20
3.4555884436
 30
0.0
 10
5.1257493101
 20
3.4567637172
 30
0.0
 10
5.1253678007
 20
3.4574605094
 30
0.0
 10
5.1251702763
 20
3.4577712277
 30
0.0
  0
SPLINE
  5
38A
100
AcDbEntity
  8
0
100
AcDbSpline
 62
7
  6
CONTINUOUS
 70
0
 71
3
 72
15
 73
11
 74
0
 42
0.0000001
 43
0.0000001
 44
0.0000000001
 40
0.0
 40
0.0
 40
0.0
 40
0.0
 40
0.1619932712
 40
0.3189189034
 40
0.4665564218
 40
0.6019148734
 40
0.7232943627
 40
0.8300047663
 40
0.9220830279
 40
1.0
 40
1.0
 40
1.0
 40
1.0
 10
5.1127882645
 20
3.444765527
 30
0.0
 10
5.1127882645
 20
3.445478028
 30
0.0
 10
5.112764812
 20
3.44688086
 30
0.0
 10
5.1126609295
 20
3.4489306916
 30
0.0
 10
5.1124946654
 20
3.4508588953
 30
0.0
 10
5.1122744966
 20
3.4526242742
 30
0.0
 10
5.112009738
 20
3.4542012989
 30
0.0
 10
5.1117093109
 20
3.4555777919
 30
0.0
 10
5.1113810914
 20
3.4567504796
 30
0.0
 10
5.111127887
 20
3.4574551319
 30
0.0
 10
5.1109954851
 20
3.4577712277
 30
0.0
  0
SPLINE
  5
38B
100
AcDbEntity
  8
0
100
AcDbSpline
 62
7
  6
CONTINUOUS
 70
0
 71
3
 72
14
 73
10
 74
0
 42
0.0000001
 43
0.0000001
 44
0.0000000001
 40
0.0
 40
0.0
 40
0.0
 40
0.0
 40
0.3223104495
 40
0.4711684503
 40
0.6072125981
 40
0.7286107726
 40
0.8345470084
 40
0.924915754
 40
1.0
 40
1.0
 40
1.0
 40
1.0
 10
5.0958630366
 20
3.444765527
 30
0.0
 10
5.0958630366
 20
3.446167414
 30
0.0
 10
5.0958318206
 20
3.4482170052
 30
0.0
 10
5.0957244053
 20
3.4508559841
 30
0.0
 10
5.0956204484
 20
3.4526202392
 30
0.0
 10
5.0954955044
 20
3.4541959239
 30
0.0
 10
5.095353838
 20
3.4555706562
 30
0.0
 10
5.0951992276
 20
3.4567410574
 30
0.0
 10
5.0950790274
 20
3.4574508684
 30
0.0
 10
5.0950155974
 20
3.4577712277
 30
0.0
  0
SPLINE
  5
38C
100
AcDbEntity
  8
0
100
AcDbSpline
 62
7
  6
CONTINUOUS
 70
0
 71
3
 72
14
 73
10
 74
0
 42
0.0000001
 43
0.0000001
 44
0.0000000001
 40
0.0
 40
0.0
 40
0.0
 40
0.0
 40
0.0750842379
 40
0.1654529856
 40
0.271389195
 40
0.3927873514
 40
0.5288314647
 40
0.6776894854
 40
1.0
 40
1.0
 40
1.0
 40
1.0
 10
4.7521064226
 20
3.4577712277
 30
0.0
 10
4.7520429926
 20
3.4574508684
 30
0.0
 10
4.7519227925
 20
3.4567410575
 30
0.0
 10
4.7517681821
 20
3.4555706564
 30
0.0
 10
4.7516265157
 20
3.4541959243
 30
0.0
 10
4.7515015718
 20
3.4526202399
 30
0.0
 10
4.7513976148
 20
3.4508559849
 30
0.0
 10
4.7512901995
 20
3.4482170059
 30
0.0
 10
4.7512589835
 20
3.4461674142
 30
0.0
 10
4.7512589835
 20
3.444765527
 30
0.0
  0
SPLINE
  5
38D
100
AcDbEntity
  8
0
100
AcDbSpline
 62
7
  6
CONTINUOUS
 70
0
 71
3
 72
15
 73
11
 74
0
 42
0.0000001
 43
0.0000001
 44
0.0000000001
 40
0.0
 40
0.0
 40
0.0
 40
0.0
 40
0.0779169638
 40
0.1699952275
 40
0.2767056049
 40
0.3980850762
 40
0.5334434938
 40
0.6810810321
 40
0.8380067082
 40
1.0
 40
1.0
 40
1.0
 40
1.0
 10
4.736126535
 20
3.4577712277
 30
0.0
 10
4.7359941331
 20
3.457455132
 30
0.0
 10
4.7357409287
 20
3.4567504796
 30
0.0
 10
4.7354127092
 20
3.4555777921
 30
0.0
 10
4.7351122822
 20
3.4542012993
 30
0.0
 10
4.7348475236
 20
3.452624275
 30
0.0
 10
4.7346273548
 20
3.4508588962
 30
0.0
 10
4.7344610906
 20
3.4489306924
 30
0.0
 10
4.7343572081
 20
3.4468808604
 30
0.0
 10
4.7343337556
 20
3.445478028
 30
0.0
 10
4.7343337556
 20
3.444765527
 30
0.0
  0
SPLINE
  5
38E
100
AcDbEntity
  8
0
100
AcDbSpline
 62
7
  6
CONTINUOUS
 70
0
 71
3
 72
15
 73
11
 74
0
 42
0.0000001
 43
0.0000001
 44
0.0000000001
 40
0.0
 40
0.0
 40
0.0
 40
0.0
 40
0.0822332096
 40
0.1769912756
 40
0.284958053
 40
0.4063557826
 40
0.5406747825
 40
0.6864173084
 40
0.8408359586
 40
1.0
 40
1.0
 40
1.0
 40
1.0
 10
4.7219517438
 20
3.4577712277
 30
0.0
 10
4.7217542194
 20
3.4574605095
 30
0.0
 10
4.72137271
 20
3.4567637173
 30
0.0
 10
4.720872315
 20
3.4555884438
 30
0.0
 10
4.7204148303
 20
3.4542097083
 30
0.0
 10
4.7200120222
 20
3.4526307728
 30
0.0
 10
4.719677211
 20
3.450863673
 30
0.0
 10
4.7194244479
 20
3.4489338426
 30
0.0
 10
4.7192665444
 20
3.446882455
 30
0.0
 10
4.7192308896
 20
3.4454781604
 30
0.0
 10
4.7192308896
 20
3.444765527
 30
0.0
  0
SPLINE
  5
38F
100
AcDbEntity
  8
0
100
AcDbSpline
 62
7
  6
CONTINUOUS
 70
0
 71
3
 72
15
 73
11
 74
0
 42
0.0000001
 43
0.0000001
 44
0.0000000001
 40
0.0
 40
0.0
 40
0.0
 40
0.0
 40
0.087413128
 40
0.1854974826
 40
0.2950905865
 40
0.4165848981
 40
0.5496655547
 40
0.6930757322
 40
0.8443735427
 40
1.0
 40
1.0
 40
1.0
 40
1.0
 10
4.70971856
 20
3.4577712277
 30
0.0
 10
4.7094598925
 20
3.4574656247
 30
0.0
 10
4.7089565307
 20
3.4567778865
 30
0.0
 10
4.7082874316
 20
3.4556008132
 30
0.0
 10
4.7076761651
 20
3.4542200862
 30
0.0
 10
4.7071382909
 20
3.4526391292
 30
0.0
 10
4.7066913941
 20
3.4508699969
 30
0.0
 10
4.7063541002
 20
3.4489380916
 30
0.0
 10
4.7061434197
 20
3.446884629
 30
0.0
 10
4.7060958344
 20
3.4454783412
 30
0.0
 10
4.7060958344
 20
3.444765527
 30
0.0
  0
SPLINE
  5
390
100
AcDbEntity
  8
0
100
AcDbSpline
 62
7
  6
CONTINUOUS
 70
0
 71
3
 72
14
 73
10
 74
0
 42
0.0000001
 43
0.0000001
 44
0.0000000001
 40
0.0
 40
0.0
 40
0.0
 40
0.0
 40
0.1943472929
 40
0.3058467275
 40
0.427582561
 40
0.5594152988
 40
0.7003372003
 40
0.8482440439
 40
1.0
 40
1.0
 40
1.0
 40
1.0
 10
4.699544796
 20
3.4577712277
 30
0.0
 10
4.6988838518
 20
3.4571411446
 30
0.0
 10
4.6979876864
 20
3.455993506
 30
0.0
 10
4.6970192335
 20
3.4542317393
 30
0.0
 10
4.6963503553
 20
3.4526485389
 30
0.0
 10
4.6957951076
 20
3.4508775041
 30
0.0
 10
4.6953759808
 20
3.4489432217
 30
0.0
 10
4.6951142342
 20
3.4468872984
 30
0.0
 10
4.6950550877
 20
3.4454785634
 30
0.0
 10
4.6950550877
 20
3.444765527
 30
0.0
  0
SPLINE
  5
391
100
AcDbEntity
  8
0
100
AcDbSpline
 62
7
  6
CONTINUOUS
 70
0
 71
3
 72
15
 73
11
 74
0
 42
0.0000001
 43
0.0000001
 44
0.0000000001
 40
0.0
 40
0.0
 40
0.0
 40
0.0
 40
0.0983290144
 40
0.2037737086
 40
0.3172059401
 40
0.4391892365
 40
0.5697200074
 40
0.708025193
 40
0.8523469506
 40
1.0
 40
1.0
 40
1.0
 40
1.0
 10
4.6915284305
 20
3.4577712277
 30
0.0
 10
4.6911585045
 20
3.4574732463
 30
0.0
 10
4.6904336854
 20
3.456802301
 30
0.0
 10
4.6894470669
 20
3.4556250444
 30
0.0
 10
4.6885455358
 20
3.4542425889
 30
0.0
 10
4.6877522634
 20
3.4526586926
 30
0.0
 10
4.6870932304
 20
3.4508856586
 30
0.0
 10
4.6865958619
 20
3.4489490232
 30
0.0
 10
4.6862852068
 20
3.4468903482
 30
0.0
 10
4.686214978
 20
3.4454788184
 30
0.0
 10
4.686214978
 20
3.444765527
 30
0.0
  0
SPLINE
  5
392
100
AcDbEntity
  8
0
100
AcDbSpline
 62
7
  6
CONTINUOUS
 70
0
 71
3
 72
15
 73
11
 74
0
 42
0.0000001
 43
0.0000001
 44
0.0000000001
 40
0.0
 40
0.0
 40
0.0
 40
0.0
 40
0.1034124978
 40
0.2124289153
 40
0.3278335689
 40
0.4501852138
 40
0.5795699488
 40
0.7154189941
 40
0.8563071123
 40
1.0
 40
1.0
 40
1.0
 40
1.0
 10
4.6857466656
 20
3.4577712277
 30
0.0
 10
4.6853266024
 20
3.457475813
 30
0.0
 10
4.6845027857
 20
3.4568115257
 30
0.0
 10
4.683371371
 20
3.4556353566
 30
0.0
 10
4.6823369533
 20
3.4542531732
 30
0.0
 10
4.6814263369
 20
3.4526686639
 30
0.0
 10
4.6806695557
 20
3.4508941459
 30
0.0
 10
4.6800982648
 20
3.4489552067
 30
0.0
 10
4.6797413719
 20
3.4468936671
 30
0.0
 10
4.6796606403
 20
3.4454790964
 30
0.0
 10
4.6796606403
 20
3.444765527
 30
0.0
  0
SPLINE
  5
393
100
AcDbEntity
  8
0
100
AcDbSpline
 62
7
  6
CONTINUOUS
 70
0
 71
3
 72
15
 73
11
 74
0
 42
0.0000001
 43
0.0000001
 44
0.0000000001
 40
0.0
 40
0.0
 40
0.0
 40
0.0
 40
0.1080171771
 40
0.2203393615
 40
0.337628399
 40
0.4603950783
 40
0.5887721908
 40
0.7223585626
 40
0.8600346427
 40
1.0
 40
1.0
 40
1.0
 40
1.0
 10
4.6822551829
 20
3.4577712277
 30
0.0
 10
4.6817889367
 20
3.4574777612
 30
0.0
 10
4.6808743962
 20
3.4568188962
 30
0.0
 10
4.6796095507
 20
3.4556441284
 30
0.0
 10
4.6784524544
 20
3.4542627192
 30
0.0
 10
4.6774332441
 20
3.4526781309
 30
0.0
 10
4.6765857664
 20
3.45090255
 30
0.0
 10
4.6759457196
 20
3.4489615225
 30
0.0
 10
4.6755457399
 20
3.4468971225
 30
0.0
 10
4.6754551965
 20
3.4454793867
 30
0.0
 10
4.6754551965
 20
3.444765527
 30
0.0
  0
SPLINE
  5
394
100
AcDbEntity
  8
0
100
AcDbSpline
 62
7
  6
CONTINUOUS
 70
0
 71
3
 72
16
 73
12
 74
0
 42
0.0000001
 43
0.0000001
 44
0.0000000001
 40
0.0
 40
0.0
 40
0.0
 40
0.0
 40
0.1120638655
 40
0.2273399355
 40
0.3463541179
 40
0.4695424988
 40
0.5970500011
 40
0.7286059843
 40
0.7956975445
 40
0.8634427535
 40
1.0
 40
1.0
 40
1.0
 40
1.0
 10
4.6810876072
 20
3.4577712277
 30
0.0
 10
4.6805794671
 20
3.4574792376
 30
0.0
 10
4.6795829563
 20
3.4568247025
 30
0.0
 10
4.6781972598
 20
3.4556513991
 30
0.0
 10
4.6769289386
 20
3.4542710508
 30
0.0
 10
4.675811069
 20
3.4526867615
 30
0.0
 10
4.6748810091
 20
3.4509106388
 30
0.0
 10
4.674298824
 20
3.4493012498
 30
0.0
 10
4.6739614798
 20
3.4479485294
 30
0.0
 10
4.6737141985
 20
3.4465500987
 30
0.0
 10
4.6736391472
 20
3.4454796781
 30
0.0
 10
4.6736391472
 20
3.444765527
 30
0.0
  0
SPLINE
  5
395
100
AcDbEntity
  8
0
100
AcDbSpline
 62
7
  6
CONTINUOUS
 70
0
 71
3
 72
16
 73
12
 74
0
 42
0.0000001
 43
0.0000001
 44
0.0000000001
 40
0.0
 40
0.0
 40
0.0
 40
0.0
 40
0.1128872388
 40
0.2287704129
 40
0.3481450626
 40
0.4714285594
 40
0.5987648635
 40
0.7299075902
 40
0.7967188019
 40
0.8641462292
 40
1.0
 40
1.0
 40
1.0
 40
1.0
 10
4.8762567958
 20
3.0567598263
 30
0.0
 10
4.8757399642
 20
3.0570515404
 30
0.0
 10
4.8747264808
 20
3.0577052443
 30
0.0
 10
4.8733157453
 20
3.05887823
 30
0.0
 10
4.8720243713
 20
3.0602583253
 30
0.0
 10
4.870886035
 20
3.0618425025
 30
0.0
 10
4.8699388112
 20
3.0636187169
 30
0.0
 10
4.8693455828
 20
3.0652289916
 30
0.0
 10
4.8690019788
 20
3.0665822594
 30
0.0
 10
4.8687502252
 20
3.0679805635
 30
0.0
 10
4.8686737653
 20
3.069051312
 30
0.0
 10
4.8686737653
 20
3.069765527
 30
0.0
  0
SPLINE
  5
396
100
AcDbEntity
  8
0
100
AcDbSpline
 62
7
  6
CONTINUOUS
 70
0
 71
3
 72
14
 73
10
 74
0
 42
0.0000001
 43
0.0000001
 44
0.0000000001
 40
0.0
 40
0.0
 40
0.0
 40
0.0
 40
0.1508599142
 40
0.2979833692
 40
0.4383331675
 40
0.5698820901
 40
0.6916763962
 40
0.8036106567
 40
1.0
 40
1.0
 40
1.0
 40
1.0
 10
4.8809335813
 20
3.069765527
 30
0.0
 10
4.8809335813
 20
3.0690524366
 30
0.0
 10
4.8808719269
 20
3.0676431072
 30
0.0
 10
4.8805991094
 20
3.065586593
 30
0.0
 10
4.8801622531
 20
3.0636517794
 30
0.0
 10
4.8795835185
 20
3.0618803022
 30
0.0
 10
4.8788863315
 20
3.0602968048
 30
0.0
 10
4.8778749677
 20
3.0585312581
 30
0.0
 10
4.8769416054
 20
3.0573865462
 30
0.0
 10
4.8762567958
 20
3.0567598263
 30
0.0
  0
SPLINE
  5
397
100
AcDbEntity
  8
0
100
AcDbSpline
 62
7
  6
CONTINUOUS
 70
0
 71
3
 72
15
 73
11
 74
0
 42
0.0000001
 43
0.0000001
 44
0.0000000001
 40
0.0
 40
0.0
 40
0.0
 40
0.0
 40
0.1089673085
 40
0.2219794729
 40
0.3396686848
 40
0.4625308774
 40
0.59070418
 40
0.7238195386
 40
0.860820754
 40
1.0
 40
1.0
 40
1.0
 40
1.0
 10
4.8997944605
 20
3.0567598263
 30
0.0
 10
4.8993185214
 20
3.0570529284
 30
0.0
 10
4.8983849901
 20
3.0577107428
 30
0.0
 10
4.8970921626
 20
3.0588851838
 30
0.0
 10
4.8959093199
 20
3.0602663759
 30
0.0
 10
4.894867289
 20
3.0618509214
 30
0.0
 10
4.8940007203
 20
3.0636266815
 30
0.0
 10
4.8933461759
 20
3.0655681356
 30
0.0
 10
4.8929370982
 20
3.0676331585
 30
0.0
 10
4.8928444792
 20
3.0690516022
 30
0.0
 10
4.8928444792
 20
3.069765527
 30
0.0
  0
SPLINE
  5
398
100
AcDbEntity
  8
0
100
AcDbSpline
 62
7
  6
CONTINUOUS
 70
0
 71
3
 72
14
 73
10
 74
0
 42
0.0000001
 43
0.0000001
 44
0.0000000001
 40
0.0
 40
0.0
 40
0.0
 40
0.0
 40
0.290027013
 40
0.4278272562
 40
0.5581435702
 40
0.6802509028
 40
0.7941696197
 40
0.9004669493
 40
1.0
 40
1.0
 40
1.0
 40
1.0
 10
4.9052842883
 20
3.069765527
 30
0.0
 10
4.9052842883
 20
3.0683563489
 30
0.0
 10
4.9050731321
 20
3.0662683032
 30
0.0
 10
4.904376334
 20
3.0636437489
 30
0.0
 10
4.9036949759
 20
3.0618700677
 30
0.0
 10
4.9028749501
 20
3.0602860529
 30
0.0
 10
4.901943075
 20
3.0589035857
 30
0.0
 10
4.9009233678
 20
3.0577265311
 30
0.0
 10
4.9001758548
 20
3.0570571754
 30
0.0
 10
4.8997944605
 20
3.0567598263
 30
0.0
  0
SPLINE
  5
399
100
AcDbEntity
  8
0
100
AcDbSpline
 62
7
  6
CONTINUOUS
 70
0
 71
3
 72
15
 73
11
 74
0
 42
0.0000001
 43
0.0000001
 44
0.0000000001
 40
0.0
 40
0.0
 40
0.0
 40
0.0
 40
0.1044805448
 40
0.2142579546
 40
0.3300915117
 40
0.4525324318
 40
0.5816806704
 40
0.7170079425
 40
0.8571596605
 40
1.0
 40
1.0
 40
1.0
 40
1.0
 10
4.92356101
 20
3.0567598263
 30
0.0
 10
4.9231303311
 20
3.0570547602
 30
0.0
 10
4.9222856232
 20
3.0577177398
 30
0.0
 10
4.9211235291
 20
3.0588936141
 30
0.0
 10
4.9200609202
 20
3.0602756607
 30
0.0
 10
4.9191253709
 20
3.06186023
 30
0.0
 10
4.9183477877
 20
3.0636350211
 30
0.0
 10
4.9177607429
 20
3.0655744461
 30
0.0
 10
4.9173939857
 20
3.067636626
 30
0.0
 10
4.91731101
 20
3.0690518937
 30
0.0
 10
4.91731101
 20
3.069765527
 30
0.0
  0
SPLINE
  5
39A
100
AcDbEntity
  8
0
100
AcDbSpline
 62
7
  6
CONTINUOUS
 70
0
 71
3
 72
15
 73
11
 74
0
 42
0.0000001
 43
0.0000001
 44
0.0000000001
 40
0.0
 40
0.0
 40
0.0
 40
0.0
 40
0.1428402896
 40
0.2829919805
 40
0.4183192595
 40
0.5474675251
 40
0.6699084606
 40
0.7857420354
 40
0.8955194471
 40
1.0
 40
1.0
 40
1.0
 40
1.0
 10
4.92981101
 20
3.069765527
 30
0.0
 10
4.92981101
 20
3.0690518939
 30
0.0
 10
4.9297280344
 20
3.0676366267
 30
0.0
 10
4.9293612774
 20
3.0655744471
 30
0.0
 10
4.9287742327
 20
3.063635022
 30
0.0
 10
4.9279966495
 20
3.0618602306
 30
0.0
 10
4.9270611001
 20
3.0602756611
 30
0.0
 10
4.9259984912
 20
3.0588936143
 30
0.0
 10
4.9248363969
 20
3.0577177399
 30
0.0
 10
4.923991689
 20
3.0570547603
 30
0.0
 10
4.92356101
 20
3.0567598263
 30
0.0
  0
SPLINE
  5
39B
100
AcDbEntity
  8
0
100
AcDbSpline
 62
7
  6
CONTINUOUS
 70
0
 71
3
 72
14
 73
10
 74
0
 42
0.0000001
 43
0.0000001
 44
0.0000000001
 40
0.0
 40
0.0
 40
0.0
 40
0.0
 40
0.0995330436
 40
0.2058303715
 40
0.3197490719
 40
0.4418563889
 40
0.5721726748
 40
0.709972916
 40
1.0
 40
1.0
 40
1.0
 40
1.0
 10
4.9473275596
 20
3.0567598263
 30
0.0
 10
4.9469461653
 20
3.0570571753
 30
0.0
 10
4.9461986523
 20
3.057726531
 30
0.0
 10
4.9451789452
 20
3.0589035855
 30
0.0
 10
4.9442470702
 20
3.0602860526
 30
0.0
 10
4.9434270445
 20
3.0618700671
 30
0.0
 10
4.9427456863
 20
3.063643748
 30
0.0
 10
4.9420488881
 20
3.0662683025
 30
0.0
 10
4.9418377318
 20
3.0683563485
 30
0.0
 10
4.9418377318
 20
3.069765527
 30
0.0
  0
SPLINE
  5
39C
100
AcDbEntity
  8
0
100
AcDbSpline
 62
7
  6
CONTINUOUS
 70
0
 71
3
 72
15
 73
11
 74
0
 42
0.0000001
 43
0.0000001
 44
0.0000000001
 40
0.0
 40
0.0
 40
0.0
 40
0.0
 40
0.1391792056
 40
0.2761803932
 40
0.4092957529
 40
0.5374690817
 40
0.6603312895
 40
0.7780205175
 40
0.8910326839
 40
1.0
 40
1.0
 40
1.0
 40
1.0
 10
4.9542775409
 20
3.069765527
 30
0.0
 10
4.9542775409
 20
3.0690516024
 30
0.0
 10
4.9541849219
 20
3.0676331591
 30
0.0
 10
4.9537758444
 20
3.0655681364
 30
0.0
 10
4.9531213001
 20
3.0636266824
 30
0.0
 10
4.9522547315
 20
3.061850922
 30
0.0
 10
4.9512127004
 20
3.0602663762
 30
0.0
 10
4.9500298577
 20
3.0588851839
 30
0.0
 10
4.94873703
 20
3.0577107429
 30
0.0
 10
4.9478034988
 20
3.0570529284
 30
0.0
 10
4.9473275596
 20
3.0567598263
 30
0.0
  0
SPLINE
  5
39D
100
AcDbEntity
  8
0
100
AcDbSpline
 62
7
  6
CONTINUOUS
 70
0
 71
3
 72
14
 73
10
 74
0
 42
0.0000001
 43
0.0000001
 44
0.0000000001
 40
0.0
 40
0.0
 40
0.0
 40
0.0
 40
0.1963893347
 40
0.3083235784
 40
0.4301178687
 40
0.5616667621
 40
0.702016558
 40
0.849140042
 40
1.0
 40
1.0
 40
1.0
 40
1.0
 10
4.9708652243
 20
3.0567598263
 30
0.0
 10
4.9701804147
 20
3.0573865462
 30
0.0
 10
4.9692470525
 20
3.058531258
 30
0.0
 10
4.9682356887
 20
3.0602968045
 30
0.0
 10
4.9675385019
 20
3.0618803016
 30
0.0
 10
4.9669597672
 20
3.0636517786
 30
0.0
 10
4.9665229108
 20
3.0655865922
 30
0.0
 10
4.9662500932
 20
3.0676431067
 30
0.0
 10
4.9661884387
 20
3.0690524364
 30
0.0
 10
4.9661884387
 20
3.069765527
 30
0.0
  0
SPLINE
  5
39E
100
AcDbEntity
  8
0
100
AcDbSpline
 62
7
  6
CONTINUOUS
 70
0
 71
3
 72
16
 73
12
 74
0
 42
0.0000001
 43
0.0000001
 44
0.0000000001
 40
0.0
 40
0.0
 40
0.0
 40
0.0
 40
0.1358537313
 40
0.2032811415
 40
0.2700923429
 40
0.4012350703
 40
0.5285713997
 40
0.6518549116
 40
0.7712295773
 40
0.8871127534
 40
1.0
 40
1.0
 40
1.0
 40
1.0
 10
4.9784482547
 20
3.069765527
 30
0.0
 10
4.9784482547
 20
3.0690513122
 30
0.0
 10
4.9783717949
 20
3.067980564
 30
0.0
 10
4.9781200415
 20
3.0665822603
 30
0.0
 10
4.9777764376
 20
3.0652289926
 30
0.0
 10
4.9771832092
 20
3.0636187178
 30
0.0
 10
4.9762359855
 20
3.0618425031
 30
0.0
 10
4.975097649
 20
3.0602583256
 30
0.0
 10
4.973806275
 20
3.0588782301
 30
0.0
 10
4.9723955393
 20
3.0577052444
 30
0.0
 10
4.9713820559
 20
3.0570515404
 30
0.0
 10
4.9708652243
 20
3.0567598263
 30
0.0
  0
SPLINE
  5
39F
100
AcDbEntity
  8
0
100
AcDbSpline
 62
7
  6
CONTINUOUS
 70
0
 71
3
 72
15
 73
11
 74
0
 42
0.0000001
 43
0.0000001
 44
0.0000000001
 40
0.0
 40
0.0
 40
0.0
 40
0.0
 40
0.0886238792
 40
0.1875020168
 40
0.2974936563
 40
0.4190227332
 40
0.5518159912
 40
0.6946722541
 40
0.8452229916
 40
1.0
 40
1.0
 40
1.0
 40
1.0
 10
4.9939473235
 20
3.0567598263
 30
0.0
 10
4.9936755816
 20
3.0570643997
 30
0.0
 10
4.9931461166
 20
3.0577501114
 30
0.0
 10
4.9924402439
 20
3.0589274237
 30
0.0
 10
4.9917954338
 20
3.0603085061
 30
0.0
 10
4.9912280906
 20
3.0618898844
 30
0.0
 10
4.9907567395
 20
3.063659481
 30
0.0
 10
4.9904010039
 20
3.0655918891
 30
0.0
 10
4.9901788098
 20
3.0676458716
 30
0.0
 10
4.9901286202
 20
3.0690526667
 30
0.0
 10
4.9901286202
 20
3.069765527
 30
0.0
  0
SPLINE
  5
3A0
100
AcDbEntity
  8
0
100
AcDbSpline
 62
7
  6
CONTINUOUS
 70
0
 71
3
 72
15
 73
11
 74
0
 42
0.0000001
 43
0.0000001
 44
0.0000000001
 40
0.0
 40
0.0
 40
0.0
 40
0.0
 40
0.1329533695
 40
0.2646425531
 40
0.3941052529
 40
0.5207696641
 40
0.6444795119
 40
0.7653625743
 40
0.8837483033
 40
1.0
 40
1.0
 40
1.0
 40
1.0
 10
5.0020903744
 20
3.069765527
 30
0.0
 10
5.0020903744
 20
3.0690510346
 30
0.0
 10
5.0019810534
 20
3.0676264364
 30
0.0
 10
5.0014990077
 20
3.0655562479
 30
0.0
 10
5.0007285326
 20
3.0636116555
 30
0.0
 10
4.9997097872
 20
3.0618350755
 30
0.0
 10
4.9984863303
 20
3.060251555
 30
0.0
 10
4.9970991348
 20
3.0588726041
 30
0.0
 10
4.9955843377
 20
3.0577009686
 30
0.0
 10
4.9945003258
 20
3.05705049
 30
0.0
 10
4.9939473235
 20
3.0567598263
 30
0.0
  0
SPLINE
  5
3A1
100
AcDbEntity
  8
0
100
AcDbSpline
 62
7
  6
CONTINUOUS
 70
0
 71
3
 72
15
 73
11
 74
0
 42
0.0000001
 43
0.0000001
 44
0.0000000001
 40
0.0
 40
0.0
 40
0.0
 40
0.0
 40
0.083330889
 40
0.1787840959
 40
0.2870847908
 40
0.4084960571
 40
0.5425516381
 40
0.6878050883
 40
0.8415725947
 40
1.0
 40
1.0
 40
1.0
 40
1.0
 10
5.0163515641
 20
3.0567598263
 30
0.0
 10
5.0161401171
 20
3.0570693532
 30
0.0
 10
5.0157309294
 20
3.0577641814
 30
0.0
 10
5.0151926602
 20
3.0589399486
 30
0.0
 10
5.0147006557
 20
3.06031917
 30
0.0
 10
5.0142675274
 20
3.0618985613
 30
0.0
 10
5.0139075511
 20
3.0636660963
 30
0.0
 10
5.0136358072
 20
3.0655963555
 30
0.0
 10
5.0134660522
 20
3.0676481632
 30
0.0
 10
5.0134277192
 20
3.0690528573
 30
0.0
 10
5.0134277192
 20
3.069765527
 30
0.0
  0
SPLINE
  5
3A2
100
AcDbEntity
  8
0
100
AcDbSpline
 62
7
  6
CONTINUOUS
 70
0
 71
3
 72
15
 73
11
 74
0
 42
0.0000001
 43
0.0000001
 44
0.0000000001
 40
0.0
 40
0.0
 40
0.0
 40
0.0
 40
0.1304762753
 40
0.260068785
 40
0.3881172631
 40
0.5142325855
 40
0.6383218384
 40
0.7604841378
 40
0.8809621577
 40
1.0
 40
1.0
 40
1.0
 40
1.0
 10
5.0249762134
 20
3.069765527
 30
0.0
 10
5.0249762134
 20
3.0690507801
 30
0.0
 10
5.0248600445
 20
3.0676234368
 30
0.0
 10
5.0243482302
 20
3.0655510868
 30
0.0
 10
5.0235306715
 20
3.063605397
 30
0.0
 10
5.0224503933
 20
3.0618288047
 30
0.0
 10
5.0211538059
 20
3.060246007
 30
0.0
 10
5.0196843632
 20
3.0588681506
 30
0.0
 10
5.0180802433
 20
3.0576976845
 30
0.0
 10
5.0169356798
 20
3.0570496998
 30
0.0
 10
5.0163515641
 20
3.0567598263
 30
0.0
  0
SPLINE
  5
3A3
100
AcDbEntity
  8
0
100
AcDbSpline
 62
7
  6
CONTINUOUS
 70
0
 71
3
 72
15
 73
11
 74
0
 42
0.0000001
 43
0.0000001
 44
0.0000000001
 40
0.0
 40
0.0
 40
0.0
 40
0.0
 40
0.0787696728
 40
0.1713703931
 40
0.2783218007
 40
0.3997005375
 40
0.534853259
 40
0.6821200274
 40
0.8385571629
 40
1.0
 40
1.0
 40
1.0
 40
1.0
 10
5.0378621809
 20
3.0567598263
 30
0.0
 10
5.0377149561
 20
3.0570747623
 30
0.0
 10
5.0374327567
 20
3.0577778528
 30
0.0
 10
5.0370660927
 20
3.0589511356
 30
0.0
 10
5.0367305682
 20
3.0603281135
 30
0.0
 10
5.0364349405
 20
3.061905529
 30
0.0
 10
5.0361891261
 20
3.0636712482
 30
0.0
 10
5.0360035072
 20
3.0655997655
 30
0.0
 10
5.0358875353
 20
3.067649893
 30
0.0
 10
5.0358613527
 20
3.069053001
 30
0.0
 10
5.0358613527
 20
3.069765527
 30
0.0
  0
SPLINE
  5
3A4
100
AcDbEntity
  8
0
100
AcDbSpline
 62
7
  6
CONTINUOUS
 70
0
 71
3
 72
17
 73
13
 74
0
 42
0.0000001
 43
0.0000001
 44
0.0000000001
 40
0.0
 40
0.0
 40
0.0
 40
0.0
 40
0.1284276018
 40
0.1925162742
 40
0.2563988602
 40
0.3832849033
 40
0.5089498196
 40
0.5713430954
 40
0.6334158914
 40
0.7566037828
 40
0.8787507462
 40
1.0
 40
1.0
 40
1.0
 40
1.0
 10
5.0468853685
 20
3.069765527
 30
0.0
 10
5.0468853685
 20
3.0690505585
 30
0.0
 10
5.046793648
 20
3.067975962
 30
0.0
 10
5.0464940328
 20
3.0665791907
 30
0.0
 10
5.0460829155
 20
3.0652196972
 30
0.0
 10
5.0453703079
 20
3.0636001203
 30
0.0
 10
5.0444248737
 20
3.0621156575
 30
0.0
 10
5.0435554635
 20
3.0610267049
 30
0.0
 10
5.0426230862
 20
3.0600098079
 30
0.0
 10
5.0413445374
 20
3.0588646279
 30
0.0
 10
5.0396666997
 20
3.0576952404
 30
0.0
 10
5.0384720541
 20
3.0570491145
 30
0.0
 10
5.0378621809
 20
3.0567598263
 30
0.0
  0
SPLINE
  5
3A5
100
AcDbEntity
  8
0
100
AcDbSpline
 62
7
  6
CONTINUOUS
 70
0
 71
3
 72
15
 73
11
 74
0
 42
0.0000001
 43
0.0000001
 44
0.0000000001
 40
0.0
 40
0.0
 40
0.0
 40
0.0
 40
0.0755551343
 40
0.1662048753
 40
0.2722662905
 40
0.393658694
 40
0.5295874145
 40
0.6782423589
 40
0.8365037629
 40
1.0
 40
1.0
 40
1.0
 40
1.0
 10
5.058272015
 20
3.0567598263
 30
0.0
 10
5.0581929713
 20
3.0570794284
 30
0.0
 10
5.058042929
 20
3.0577883878
 30
0.0
 10
5.0578496873
 20
3.0589592026
 30
0.0
 10
5.0576726578
 20
3.0603342437
 30
0.0
 10
5.0575165428
 20
3.0619101559
 30
0.0
 10
5.0573866824
 20
3.0636745929
 30
0.0
 10
5.0572885974
 20
3.0656019487
 30
0.0
 10
5.057227308
 20
3.0676509915
 30
0.0
 10
5.0572134725
 20
3.0690530921
 30
0.0
 10
5.0572134725
 20
3.069765527
 30
0.0
  0
SPLINE
  5
3A6
100
AcDbEntity
  8
0
100
AcDbSpline
 62
7
  6
CONTINUOUS
 70
0
 71
3
 72
16
 73
12
 74
0
 42
0.0000001
 43
0.0000001
 44
0.0000000001
 40
0.0
 40
0.0
 40
0.0
 40
0.0
 40
0.1268705784
 40
0.1902637773
 40
0.2535411975
 40
0.3795655566
 40
0.5049214341
 40
0.6295854835
 40
0.7535924825
 40
0.8770427679
 40
1.0
 40
1.0
 40
1.0
 40
1.0
 10
5.0676068427
 20
3.069765527
 30
0.0
 10
5.0676068427
 20
3.0690503784
 30
0.0
 10
5.0675117736
 20
3.067974871
 30
0.0
 10
5.0672017978
 20
3.0665784705
 30
0.0
 10
5.0667759603
 20
3.0652175725
 30
0.0
 10
5.0660371107
 20
3.0635959142
 30
0.0
 10
5.0648661113
 20
3.061819825
 30
0.0
 10
5.0634618414
 20
3.0602383093
 30
0.0
 10
5.0618713792
 20
3.0588621954
 30
0.0
 10
5.0601357874
 20
3.057693424
 30
0.0
 10
5.0589020373
 20
3.0570486952
 30
0.0
 10
5.058272015
 20
3.0567598263
 30
0.0
  0
LINE
  5
3A7
100
AcDbEntity
  8
0
100
AcDbLine
 62
7
  6
CONTINUOUS
 10
5.0773845084
 20
3.0567598263
 11
5.077278446
 21
3.069765527
  0
SPLINE
  5
3A8
100
AcDbEntity
  8
0
100
AcDbSpline
 62
7
  6
CONTINUOUS
 70
0
 71
3
 72
16
 73
12
 74
0
 42
0.0000001
 43
0.0000001
 44
0.0000000001
 40
0.0
 40
0.0
 40
0.0
 40
0.0
 40
0.1257665134
 40
0.1886670991
 40
0.2515163742
 40
0.3769324638
 40
0.5020708651
 40
0.6269242367
 40
0.7515024659
 40
0.8758587499
 40
1.0
 40
1.0
 40
1.0
 40
1.0
 10
5.0869410767
 20
3.069765527
 30
0.0
 10
5.0869410767
 20
3.0690502465
 30
0.0
 10
5.0868436132
 20
3.0679740733
 30
0.0
 10
5.086526268
 20
3.0665779488
 30
0.0
 10
5.0860899201
 20
3.0652160288
 30
0.0
 10
5.0853324052
 20
3.0635929781
 30
0.0
 10
5.0841330699
 20
3.0618170777
 30
0.0
 10
5.0826952288
 20
3.0602360305
 30
0.0
 10
5.0810670417
 20
3.0588604754
 30
0.0
 10
5.0792904538
 20
3.0576922215
 30
0.0
 10
5.078028872
 20
3.0570484156
 30
0.0
 10
5.0773845084
 20
3.0567598263
 30
0.0
  0
SPLINE
  5
3A9
100
AcDbEntity
  8
0
100
AcDbSpline
 62
7
  6
CONTINUOUS
 70
0
 71
3
 72
16
 73
12
 74
0
 42
0.0000001
 43
0.0000001
 44
0.0000000001
 40
0.0
 40
0.0
 40
0.0
 40
0.0
 40
0.1251249292
 40
0.1877395935
 40
0.2503407188
 40
0.3754054796
 40
0.5004200707
 40
0.6253852819
 40
0.7502954794
 40
0.8751758108
 40
1.0
 40
1.0
 40
1.0
 40
1.0
 10
5.1047018714
 20
3.069765527
 30
0.0
 10
5.1047018714
 20
3.0690501679
 30
0.0
 10
5.1046030029
 20
3.0679735989
 30
0.0
 10
5.1042813472
 20
3.0665776395
 30
0.0
 10
5.1038388406
 20
3.065215117
 30
0.0
 10
5.103070385
 20
3.0635912595
 30
0.0
 10
5.1018544771
 20
3.0618154868
 30
0.0
 10
5.1003970098
 20
3.0602347244
 30
0.0
 10
5.0987467691
 20
3.0588594987
 30
0.0
 10
5.0969462115
 20
3.0576915439
 30
0.0
 10
5.0956683519
 20
3.0570482588
 30
0.0
 10
5.0950155974
 20
3.0567598263
 30
0.0
  0
SPLINE
  5
3AA
100
AcDbEntity
  8
0
100
AcDbSpline
 62
7
  6
CONTINUOUS
 70
0
 71
3
 72
16
 73
12
 74
0
 42
0.0000001
 43
0.0000001
 44
0.0000000001
 40
0.0
 40
0.0
 40
0.0
 40
0.0
 40
0.1249453478
 40
0.1874800271
 40
0.2500117807
 40
0.3749784871
 40
0.4999587603
 40
0.6249555123
 40
0.7499586277
 40
0.8749853202
 40
1.0
 40
1.0
 40
1.0
 40
1.0
 10
5.1207181805
 20
3.069765527
 30
0.0
 10
5.1207181805
 20
3.0690501456
 30
0.0
 10
5.1206189169
 20
3.0679734646
 30
0.0
 10
5.1202960509
 20
3.0665775521
 30
0.0
 10
5.1198518134
 20
3.0652148598
 30
0.0
 10
5.1190802827
 20
3.0635907768
 30
0.0
 10
5.1178597216
 20
3.0618150423
 30
0.0
 10
5.1163967448
 20
3.0602343612
 30
0.0
 10
5.1147403131
 20
3.0588592283
 30
0.0
 10
5.1129330261
 20
3.057691357
 30
0.0
 10
5.1116505959
 20
3.0570482156
 30
0.0
 10
5.1109954851
 20
3.0567598263
 30
0.0
  0
SPLINE
  5
3AB
100
AcDbEntity
  8
0
100
AcDbSpline
 62
7
  6
CONTINUOUS
 70
0
 71
3
 72
16
 73
12
 74
0
 42
0.0000001
 43
0.0000001
 44
0.0000000001
 40
0.0
 40
0.0
 40
0.0
 40
0.0
 40
0.1252275605
 40
0.1878879453
 40
0.2505287337
 40
0.3756495887
 40
0.5006838586
 40
0.6256310905
 40
0.7504881847
 40
0.8752848072
 40
1.0
 40
1.0
 40
1.0
 40
1.0
 10
5.1348357584
 20
3.069765527
 30
0.0
 10
5.1348357584
 20
3.0690501806
 30
0.0
 10
5.1347371153
 20
3.0679736753
 30
0.0
 10
5.1344161506
 20
3.0665776892
 30
0.0
 10
5.1339746317
 20
3.0652152636
 30
0.0
 10
5.133207931
 20
3.063591535
 30
0.0
 10
5.1319946796
 20
3.061815741
 30
0.0
 10
5.1305403579
 20
3.0602349325
 30
0.0
 10
5.1288936517
 20
3.0588596539
 30
0.0
 10
5.1270969359
 20
3.0576916513
 30
0.0
 10
5.1258216856
 20
3.0570482836
 30
0.0
 10
5.1251702763
 20
3.0567598263
 30
0.0
  0
SPLINE
  5
3AC
100
AcDbEntity
  8
0
100
AcDbSpline
 62
7
  6
CONTINUOUS
 70
0
 71
3
 72
16
 73
12
 74
0
 42
0.0000001
 43
0.0000001
 44
0.0000000001
 40
0.0
 40
0.0
 40
0.0
 40
0.0
 40
0.1259718806
 40
0.1889640413
 40
0.2518928491
 40
0.3774217304
 40
0.5026001609
 40
0.6274180144
 40
0.7518899836
 40
0.8760781443
 40
1.0
 40
1.0
 40
1.0
 40
1.0
 10
5.1469186449
 20
3.069765527
 30
0.0
 10
5.1469186449
 20
3.0690502713
 30
0.0
 10
5.1468216289
 20
3.0679742235
 30
0.0
 10
5.1465056591
 20
3.0665780468
 30
0.0
 10
5.1460712745
 20
3.0652163184
 30
0.0
 10
5.1453172468
 20
3.0635935263
 30
0.0
 10
5.1441231995
 20
3.0618175878
 30
0.0
 10
5.142691622
 20
3.0602364514
 30
0.0
 10
5.1410704734
 20
3.0588607916
 30
0.0
 10
5.1393015348
 20
3.0576924416
 30
0.0
 10
5.1380451469
 20
3.0570484666
 30
0.0
 10
5.13740346
 20
3.0567598263
 30
0.0
  0
SPLINE
  5
3AD
100
AcDbEntity
  8
0
100
AcDbSpline
 62
7
  6
CONTINUOUS
 70
0
 71
3
 72
16
 73
12
 74
0
 42
0.0000001
 43
0.0000001
 44
0.0000000001
 40
0.0
 40
0.0
 40
0.0
 40
0.0
 40
0.1271787449
 40
0.1907095731
 40
0.2541067473
 40
0.3803017154
 40
0.5057192955
 40
0.6303312206
 40
0.7541787977
 40
0.8773752546
 40
1.0
 40
1.0
 40
1.0
 40
1.0
 10
5.1568504752
 20
3.069765527
 30
0.0
 10
5.1568504752
 20
3.0690504144
 30
0.0
 10
5.1567560695
 20
3.0679750895
 30
0.0
 10
5.1564481402
 20
3.0665786138
 30
0.0
 10
5.1560252173
 20
3.0652179977
 30
0.0
 10
5.1552915422
 20
3.0635967289
 30
0.0
 10
5.1541284121
 20
3.0618205939
 30
0.0
 10
5.152733469
 20
3.0602389524
 30
0.0
 10
5.1511534881
 20
3.0588626845
 30
0.0
 10
5.1494292851
 20
3.0576937682
 30
0.0
 10
5.1482032646
 20
3.0570487755
 30
0.0
 10
5.1475772241
 20
3.0567598263
 30
0.0
  0
SPLINE
  5
3AE
100
AcDbEntity
  8
0
100
AcDbSpline
 62
7
  6
CONTINUOUS
 70
0
 71
3
 72
17
 73
13
 74
0
 42
0.0000001
 43
0.0000001
 44
0.0000000001
 40
0.0
 40
0.0
 40
0.0
 40
0.0
 40
0.1288382803
 40
0.1931107587
 40
0.25715369
 40
0.384269618
 40
0.5100198582
 40
0.5723982742
 40
0.6344185118
 40
0.7573941239
 40
0.8791999983
 40
1.0
 40
1.0
 40
1.0
 40
1.0
 10
5.1645356006
 20
3.069765527
 30
0.0
 10
5.1645356006
 20
3.0690506045
 30
0.0
 10
5.1644447497
 20
3.067976241
 30
0.0
 10
5.1641478324
 20
3.0665793747
 30
0.0
 10
5.1637405453
 20
3.0652202467
 30
0.0
 10
5.1630347318
 20
3.0636011906
 30
0.0
 10
5.1620976915
 20
3.0621162561
 30
0.0
 10
5.1612358568
 20
3.0610269452
 30
0.0
 10
5.1603121495
 20
3.0600103161
 30
0.0
 10
5.1590454786
 20
3.0588653088
 30
0.0
 10
5.1573826665
 20
3.0576957263
 30
0.0
 10
5.1561982154
 20
3.0570492291
 30
0.0
 10
5.1555935896
 20
3.0567598263
 30
0.0
  0
SPLINE
  5
3AF
100
AcDbEntity
  8
0
100
AcDbSpline
 62
7
  6
CONTINUOUS
 70
0
 71
3
 72
15
 73
11
 74
0
 42
0.0000001
 43
0.0000001
 44
0.0000000001
 40
0.0
 40
0.0
 40
0.0
 40
0.0
 40
0.130988124
 40
0.2610130603
 40
0.3893519075
 40
0.5155783251
 40
0.6395873264
 40
0.7614850341
 40
0.8815328764
 40
1.0
 40
1.0
 40
1.0
 40
1.0
 10
5.1699000088
 20
3.069765527
 30
0.0
 10
5.1699000088
 20
3.0690508342
 30
0.0
 10
5.1697852671
 20
3.067624073
 30
0.0
 10
5.1692796489
 20
3.0655521742
 30
0.0
 10
5.1684718787
 20
3.0636067027
 30
0.0
 10
5.1674043793
 20
3.0618300976
 30
0.0
 10
5.1661229691
 20
3.0602471369
 30
0.0
 10
5.1646705916
 20
3.058869047
 30
0.0
 10
5.1630850061
 20
3.0576983384
 30
0.0
 10
5.1619530091
 20
3.0570498561
 30
0.0
 10
5.1613753544
 20
3.0567598263
 30
0.0
  0
SPLINE
  5
3B0
100
AcDbEntity
  8
0
100
AcDbSpline
 62
7
  6
CONTINUOUS
 70
0
 71
3
 72
17
 73
13
 74
0
 42
0.0000001
 43
0.0000001
 44
0.0000000001
 40
0.0
 40
0.0
 40
0.0
 40
0.0
 40
0.1335423307
 40
0.1999270281
 40
0.2658198095
 40
0.3956136419
 40
0.5223974938
 40
0.5846302034
 40
0.6460663334
 40
0.7666154644
 40
0.8844627698
 40
1.0
 40
1.0
 40
1.0
 40
1.0
 10
5.1728920379
 20
3.069765527
 30
0.0
 10
5.1728920379
 20
3.0690510947
 30
0.0
 10
5.1728109286
 20
3.0679792293
 30
0.0
 10
5.1725444826
 20
3.0665813642
 30
0.0
 10
5.1721802425
 20
3.0652262415
 30
0.0
 10
5.1715506645
 20
3.0636131556
 30
0.0
 10
5.1707087285
 20
3.0621231514
 30
0.0
 10
5.1699327528
 20
3.0610297571
 30
0.0
 10
5.1691067924
 20
3.0600163637
 30
0.0
 10
5.1679742672
 20
3.0588736624
 30
0.0
 10
5.1664814255
 20
3.0577018493
 30
0.0
 10
5.1654122272
 20
3.0570506986
 30
0.0
 10
5.1648668372
 20
3.0567598263
 30
0.0
  0
SPLINE
  5
3B1
100
AcDbEntity
  8
0
100
AcDbSpline
 62
7
  6
CONTINUOUS
 70
0
 71
3
 72
17
 73
13
 74
0
 42
0.0000001
 43
0.0000001
 44
0.0000000001
 40
0.0
 40
0.0
 40
0.0
 40
0.0
 40
0.1155372196
 40
0.2333845249
 40
0.3539336323
 40
0.4153697494
 40
0.477602454
 40
0.6043862786
 40
0.7341801181
 40
0.8000729156
 40
0.8664576326
 40
1.0
 40
1.0
 40
1.0
 40
1.0
 10
5.1648668372
 20
3.4577712277
 30
0.0
 10
5.1654122272
 20
3.4574803553
 30
0.0
 10
5.1664814254
 20
3.4568292047
 30
0.0
 10
5.1679742669
 20
3.4556573917
 30
0.0
 10
5.1691067921
 20
3.4545146906
 30
0.0
 10
5.1699327524
 20
3.4535012974
 30
0.0
 10
5.170708728
 20
3.4524079034
 30
0.0
 10
5.1715506641
 20
3.4509178993
 30
0.0
 10
5.1721802421
 20
3.4493048135
 30
0.0
 10
5.1725444823
 20
3.4479496907
 30
0.0
 10
5.1728109286
 20
3.4465518252
 30
0.0
 10
5.1728920379
 20
3.4454799595
 30
0.0
 10
5.1728920379
 20
3.444765527
 30
0.0
  0
SPLINE
  5
3B2
100
AcDbEntity
  8
0
100
AcDbSpline
 62
7
  6
CONTINUOUS
 70
0
 71
3
 72
15
 73
11
 74
0
 42
0.0000001
 43
0.0000001
 44
0.0000000001
 40
0.0
 40
0.0
 40
0.0
 40
0.0
 40
0.1184671127
 40
0.238514955
 40
0.3604126391
 40
0.4844216227
 40
0.6106480138
 40
0.7389868683
 40
0.86901184
 40
1.0
 40
1.0
 40
1.0
 40
1.0
 10
5.1613753544
 20
3.4577712277
 30
0.0
 10
5.161953009
 20
3.4574811979
 30
0.0
 10
5.163085006
 20
3.4568327156
 30
0.0
 10
5.1646705913
 20
3.4556620071
 30
0.0
 10
5.1661229688
 20
3.4542839174
 30
0.0
 10
5.1674043787
 20
3.452700957
 30
0.0
 10
5.1684718783
 20
3.4509243523
 30
0.0
 10
5.1692796486
 20
3.4489788807
 30
0.0
 10
5.1697852671
 20
3.4469069816
 30
0.0
 10
5.1699000088
 20
3.44548022
 30
0.0
 10
5.1699000088
 20
3.444765527
 30
0.0
  0
SPLINE
  5
3B3
100
AcDbEntity
  8
0
100
AcDbSpline
 62
7
  6
CONTINUOUS
 70
0
 71
3
 72
17
 73
13
 74
0
 42
0.0000001
 43
0.0000001
 44
0.0000000001
 40
0.0
 40
0.0
 40
0.0
 40
0.0
 40
0.1207999907
 40
0.242605865
 40
0.3655814536
 40
0.4276016783
 40
0.4899800895
 40
0.6157303039
 40
0.7428462394
 40
0.8068891867
 40
0.8711616842
 40
1.0
 40
1.0
 40
1.0
 40
1.0
 10
5.1555935896
 20
3.4577712277
 30
0.0
 10
5.1561982154
 20
3.4574818249
 30
0.0
 10
5.1573826664
 20
3.4568353277
 30
0.0
 10
5.1590454783
 20
3.4556657453
 30
0.0
 10
5.1603121492
 20
3.4545207383
 30
0.0
 10
5.1612358563
 20
3.4535041093
 30
0.0
 10
5.1620976909
 20
3.4524147986
 30
0.0
 10
5.1630347313
 20
3.4509298644
 30
0.0
 10
5.1637405449
 20
3.4493108083
 30
0.0
 10
5.1641478322
 20
3.4479516801
 30
0.0
 10
5.1644447497
 20
3.4465548135
 30
0.0
 10
5.1645356006
 20
3.4454804497
 30
0.0
 10
5.1645356006
 20
3.444765527
 30
0.0
  0
SPLINE
  5
3B4
100
AcDbEntity
  8
0
100
AcDbSpline
 62
7
  6
CONTINUOUS
 70
0
 71
3
 72
16
 73
12
 74
0
 42
0.0000001
 43
0.0000001
 44
0.0000000001
 40
0.0
 40
0.0
 40
0.0
 40
0.0
 40
0.1226247343
 40
0.2458211911
 40
0.3696687447
 40
0.4942806523
 40
0.619698207
 40
0.7458931828
 40
0.8092903729
 40
0.87282122
 40
1.0
 40
1.0
 40
1.0
 40
1.0
 10
5.1475772241
 20
3.4577712277
 30
0.0
 10
5.1482032645
 20
3.4574822785
 30
0.0
 10
5.149429285
 20
3.4568372859
 30
0.0
 10
5.1511534878
 20
3.4556683695
 30
0.0
 10
5.1527334687
 20
3.454292102
 30
0.0
 10
5.1541284115
 20
3.4527104607
 30
0.0
 10
5.1552915418
 20
3.4509343261
 30
0.0
 10
5.1560252169
 20
3.4493130573
 30
0.0
 10
5.1564481399
 20
3.447952441
 30
0.0
 10
5.1567560695
 20
3.4465559649
 30
0.0
 10
5.1568504752
 20
3.4454806397
 30
0.0
 10
5.1568504752
 20
3.444765527
 30
0.0
  0
SPLINE
  5
3B5
100
AcDbEntity
  8
0
100
AcDbSpline
 62
7
  6
CONTINUOUS
 70
0
 71
3
 72
16
 73
12
 74
0
 42
0.0000001
 43
0.0000001
 44
0.0000000001
 40
0.0
 40
0.0
 40
0.0
 40
0.0
 40
0.1239218444
 40
0.248110005
 40
0.3725819509
 40
0.4973997868
 40
0.6225781924
 40
0.7481070815
 40
0.8110359051
 40
0.8740280847
 40
1.0
 40
1.0
 40
1.0
 40
1.0
 10
5.13740346
 20
3.4577712277
 30
0.0
 10
5.1380451468
 20
3.4574825873
 30
0.0
 10
5.1393015347
 20
3.4568386124
 30
0.0
 10
5.1410704731
 20
3.4556702625
 30
0.0
 10
5.1426916216
 20
3.454294603
 30
0.0
 10
5.1441231989
 20
3.4527134668
 30
0.0
 10
5.1453172463
 20
3.4509375287
 30
0.0
 10
5.1460712741
 20
3.4493147366
 30
0.0
 10
5.1465056588
 20
3.447953008
 30
0.0
 10
5.1468216289
 20
3.446556831
 30
0.0
 10
5.1469186449
 20
3.4454807828
 30
0.0
 10
5.1469186449
 20
3.444765527
 30
0.0
  0
SPLINE
  5
3B6
100
AcDbEntity
  8
0
100
AcDbSpline
 62
7
  6
CONTINUOUS
 70
0
 71
3
 72
16
 73
12
 74
0
 42
0.0000001
 43
0.0000001
 44
0.0000000001
 40
0.0
 40
0.0
 40
0.0
 40
0.0
 40
0.1247151815
 40
0.2495118038
 40
0.3743688747
 40
0.4993160891
 40
0.6243503343
 40
0.7494711972
 40
0.8121120014
 40
0.874772405
 40
1.0
 40
1.0
 40
1.0
 40
1.0
 10
5.1251702763
 20
3.4577712277
 30
0.0
 10
5.1258216855
 20
3.4574827704
 30
0.0
 10
5.1270969358
 20
3.4568394027
 30
0.0
 10
5.1288936514
 20
3.4556714002
 30
0.0
 10
5.1305403575
 20
3.4542961219
 30
0.0
 10
5.131994679
 20
3.4527153136
 30
0.0
 10
5.1332079306
 20
3.45093952
 30
0.0
 10
5.1339746313
 20
3.4493157914
 30
0.0
 10
5.1344161503
 20
3.4479533656
 30
0.0
 10
5.1347371153
 20
3.4465573791
 30
0.0
 10
5.1348357584
 20
3.4454808736
 30
0.0
 10
5.1348357584
 20
3.444765527
 30
0.0
  0
SPLINE
  5
3B7
100
AcDbEntity
  8
0
100
AcDbSpline
 62
7
  6
CONTINUOUS
 70
0
 71
3
 72
16
 73
12
 74
0
 42
0.0000001
 43
0.0000001
 44
0.0000000001
 40
0.0
 40
0.0
 40
0.0
 40
0.0
 40
0.1250146685
 40
0.2500413608
 40
0.3750444529
 40
0.5000411874
 40
0.625021436
 40
0.7499881502
 40
0.8125199197
 40
0.8750546178
 40
1.0
 40
1.0
 40
1.0
 40
1.0
 10
5.1109954851
 20
3.4577712277
 30
0.0
 10
5.1116505958
 20
3.4574828383
 30
0.0
 10
5.112933026
 20
3.456839697
 30
0.0
 10
5.1147403128
 20
3.4556718258
 30
0.0
 10
5.1163967445
 20
3.4542966931
 30
0.0
 10
5.117859721
 20
3.4527160124
 30
0.0
 10
5.1190802823
 20
3.4509402782
 30
0.0
 10
5.119851813
 20
3.4493161952
 30
0.0
 10
5.1202960506
 20
3.4479535027
 30
0.0
 10
5.1206189169
 20
3.4465575898
 30
0.0
 10
5.1207181805
 20
3.4454809085
 30
0.0
 10
5.1207181805
 20
3.444765527
 30
0.0
  0
SPLINE
  5
3B8
100
AcDbEntity
  8
0
100
AcDbSpline
 62
7
  6
CONTINUOUS
 70
0
 71
3
 72
16
 73
12
 74
0
 42
0.0000001
 43
0.0000001
 44
0.0000000001
 40
0.0
 40
0.0
 40
0.0
 40
0.0
 40
0.1248241779
 40
0.2497045091
 40
0.3746146833
 40
0.4995798771
 40
0.6245944434
 40
0.7496592122
 40
0.8122603533
 40
0.8748750363
 40
1.0
 40
1.0
 40
1.0
 40
1.0
 10
5.0950155974
 20
3.4577712277
 30
0.0
 10
5.0956683518
 20
3.4574827952
 30
0.0
 10
5.0969462114
 20
3.4568395101
 30
0.0
 10
5.0987467688
 20
3.4556715554
 30
0.0
 10
5.1003970095
 20
3.4542963299
 30
0.0
 10
5.1018544764
 20
3.4527155678
 30
0.0
 10
5.1030703845
 20
3.4509397955
 30
0.0
 10
5.1038388401
 20
3.449315938
 30
0.0
 10
5.104281347
 20
3.4479534154
 30
0.0
 10
5.1046030028
 20
3.4465574556
 30
0.0
 10
5.1047018714
 20
3.4454808863
 30
0.0
 10
5.1047018714
 20
3.444765527
 30
0.0
  0
SPLINE
  5
3B9
100
AcDbEntity
  8
0
100
AcDbSpline
 62
7
  6
CONTINUOUS
 70
0
 71
3
 72
16
 73
12
 74
0
 42
0.0000001
 43
0.0000001
 44
0.0000000001
 40
0.0
 40
0.0
 40
0.0
 40
0.0
 40
0.1241412388
 40
0.2484975227
 40
0.3730757285
 40
0.4979290826
 40
0.6230674591
 40
0.7484835564
 40
0.8113328474
 40
0.874233452
 40
1.0
 40
1.0
 40
1.0
 40
1.0
 10
5.0773845084
 20
3.4577712277
 30
0.0
 10
5.078028872
 20
3.4574826384
 30
0.0
 10
5.0792904537
 20
3.4568388326
 30
0.0
 10
5.0810670414
 20
3.4556705787
 30
0.0
 10
5.0826952284
 20
3.4542950239
 30
0.0
 10
5.0841330693
 20
3.452713977
 30
0.0
 10
5.0853324047
 20
3.4509380769
 30
0.0
 10
5.0860899197
 20
3.4493150262
 30
0.0
 10
5.0865262678
 20
3.4479531061
 30
0.0
 10
5.0868436131
 20
3.4465569811
 30
0.0
 10
5.0869410767
 20
3.4454808077
 30
0.0
 10
5.0869410767
 20
3.444765527
 30
0.0
  0
LINE
  5
3BA
100
AcDbEntity
  8
0
100
AcDbLine
 62
7
  6
CONTINUOUS
 10
5.077278446
 20
3.444765527
 11
5.0773845084
 21
3.4577712277
  0
SPLINE
  5
3BB
100
AcDbEntity
  8
0
100
AcDbSpline
 62
7
  6
CONTINUOUS
 70
0
 71
3
 72
16
 73
12
 74
0
 42
0.0000001
 43
0.0000001
 44
0.0000000001
 40
0.0
 40
0.0
 40
0.0
 40
0.0
 40
0.1229572209
 40
0.2464075062
 40
0.3704144818
 40
0.4950785137
 40
0.6204343659
 40
0.7464587327
 40
0.8097361688
 40
0.8731293866
 40
1.0
 40
1.0
 40
1.0
 40
1.0
 10
5.058272015
 20
3.4577712277
 30
0.0
 10
5.0589020372
 20
3.4574823588
 30
0.0
 10
5.0601357874
 20
3.45683763
 30
0.0
 10
5.061871379
 20
3.4556688587
 30
0.0
 10
5.063461841
 20
3.4542927451
 30
0.0
 10
5.0648661106
 20
3.4527112296
 30
0.0
 10
5.0660371103
 20
3.4509351408
 30
0.0
 10
5.0667759599
 20
3.4493134825
 30
0.0
 10
5.0672017976
 20
3.4479525843
 30
0.0
 10
5.0675117736
 20
3.4465561834
 30
0.0
 10
5.0676068427
 20
3.4454806758
 30
0.0
 10
5.0676068427
 20
3.444765527
 30
0.0
  0
SPLINE
  5
3BC
100
AcDbEntity
  8
0
100
AcDbSpline
 62
7
  6
CONTINUOUS
 70
0
 71
3
 72
15
 73
11
 74
0
 42
0.0000001
 43
0.0000001
 44
0.0000000001
 40
0.0
 40
0.0
 40
0.0
 40
0.0
 40
0.1634962138
 40
0.3217575834
 40
0.4704125164
 40
0.6063412668
 40
0.7277336854
 40
0.8337951189
 40
0.9244448597
 40
1.0
 40
1.0
 40
1.0
 40
1.0
 10
5.0572134725
 20
3.444765527
 30
0.0
 10
5.0572134725
 20
3.4454779618
 30
0.0
 10
5.057227308
 20
3.4468800621
 30
0.0
 10
5.0572885974
 20
3.4489291046
 30
0.0
 10
5.0573866824
 20
3.4508564603
 30
0.0
 10
5.0575165427
 20
3.4526208975
 30
0.0
 10
5.0576726577
 20
3.45419681
 30
0.0
 10
5.0578496872
 20
3.4555718512
 30
0.0
 10
5.058042929
 20
3.4567426661
 30
0.0
 10
5.0581929713
 20
3.4574516255
 30
0.0
 10
5.058272015
 20
3.4577712277
 30
0.0
  0
SPLINE
  5
3BD
100
AcDbEntity
  8
0
100
AcDbSpline
 62
7
  6
CONTINUOUS
 70
0
 71
3
 72
17
 73
13
 74
0
 42
0.0000001
 43
0.0000001
 44
0.0000000001
 40
0.0
 40
0.0
 40
0.0
 40
0.0
 40
0.1212492428
 40
0.243396206
 40
0.366584074
 40
0.428656857
 40
0.4910501282
 40
0.6167150187
 40
0.7436010694
 40
0.8074836714
 40
0.8715723629
 40
1.0
 40
1.0
 40
1.0
 40
1.0
 10
5.0378621809
 20
3.4577712277
 30
0.0
 10
5.038472054
 20
3.4574819395
 30
0.0
 10
5.0396666996
 20
3.4568358137
 30
0.0
 10
5.0413445371
 20
3.4556664262
 30
0.0
 10
5.0426230858
 20
3.4545212465
 30
0.0
 10
5.043555463
 20
3.4535043496
 30
0.0
 10
5.0444248731
 20
3.4524153972
 30
0.0
 10
5.0453703074
 20
3.4509309347
 30
0.0
 10
5.0460829151
 20
3.4493113578
 30
0.0
 10
5.0464940326
 20
3.4479518642
 30
0.0
 10
5.046793648
 20
3.4465550924
 30
0.0
 10
5.0468853685
 20
3.4454804956
 30
0.0
 10
5.0468853685
 20
3.444765527
 30
0.0
  0
SPLINE
  5
3BE
100
AcDbEntity
  8
0
100
AcDbSpline
 62
7
  6
CONTINUOUS
 70
0
 71
3
 72
15
 73
11
 74
0
 42
0.0000001
 43
0.0000001
 44
0.0000000001
 40
0.0
 40
0.0
 40
0.0
 40
0.0
 40
0.1614428141
 40
0.3178799156
 40
0.4651466725
 40
0.6002994234
 40
0.7216781752
 40
0.8286296008
 40
0.921230321
 40
1.0
 40
1.0
 40
1.0
 40
1.0
 10
5.0358613527
 20
3.444765527
 30
0.0
 10
5.0358613527
 20
3.4454780529
 30
0.0
 10
5.0358875353
 20
3.4468811606
 30
0.0
 10
5.0360035071
 20
3.4489312878
 30
0.0
 10
5.0361891261
 20
3.450859805
 30
0.0
 10
5.0364349404
 20
3.4526255244
 30
0.0
 10
5.0367305681
 20
3.4542029402
 30
0.0
 10
5.0370660926
 20
3.4555799182
 30
0.0
 10
5.0374327567
 20
3.4567532011
 30
0.0
 10
5.0377149561
 20
3.4574562916
 30
0.0
 10
5.0378621809
 20
3.4577712277
 30
0.0
  0
SPLINE
  5
3BF
100
AcDbEntity
  8
0
100
AcDbSpline
 62
7
  6
CONTINUOUS
 70
0
 71
3
 72
15
 73
11
 74
0
 42
0.0000001
 43
0.0000001
 44
0.0000000001
 40
0.0
 40
0.0
 40
0.0
 40
0.0
 40
0.1190378314
 40
0.2395158512
 40
0.3616781271
 40
0.4857673623
 40
0.6118826583
 40
0.7399311438
 40
0.8695236888
 40
1.0
 40
1.0
 40
1.0
 40
1.0
 10
5.0163515641
 20
3.4577712277
 30
0.0
 10
5.0169356798
 20
3.4574813541
 30
0.0
 10
5.0180802432
 20
3.4568333695
 30
0.0
 10
5.0196843629
 20
3.4556629035
 30
0.0
 10
5.0211538056
 20
3.4542850474
 30
0.0
 10
5.0224503927
 20
3.45270225
 30
0.0
 10
5.0235306711
 20
3.450925658
 30
0.0
 10
5.0243482299
 20
3.4489799681
 30
0.0
 10
5.0248600445
 20
3.4469076178
 30
0.0
 10
5.0249762134
 20
3.445480274
 30
0.0
 10
5.0249762134
 20
3.444765527
 30
0.0
  0
SPLINE
  5
3C0
100
AcDbEntity
  8
0
100
AcDbSpline
 62
7
  6
CONTINUOUS
 70
0
 71
3
 72
15
 73
11
 74
0
 42
0.0000001
 43
0.0000001
 44
0.0000000001
 40
0.0
 40
0.0
 40
0.0
 40
0.0
 40
0.1584273827
 40
0.3121948555
 40
0.4574482944
 40
0.591503904
 40
0.7129151851
 40
0.8212158979
 40
0.9166691046
 40
1.0
 40
1.0
 40
1.0
 40
1.0
 10
5.0134277192
 20
3.444765527
 30
0.0
 10
5.0134277192
 20
3.4454781966
 30
0.0
 10
5.0134660521
 20
3.4468828904
 30
0.0
 10
5.0136358071
 20
3.4489346978
 30
0.0
 10
5.013907551
 20
3.4508649569
 30
0.0
 10
5.0142675273
 20
3.4526324921
 30
0.0
 10
5.0147006556
 20
3.4542118837
 30
0.0
 10
5.0151926602
 20
3.4555911052
 30
0.0
 10
5.0157309294
 20
3.4567668725
 30
0.0
 10
5.0161401171
 20
3.4574617008
 30
0.0
 10
5.0163515641
 20
3.4577712277
 30
0.0
  0
SPLINE
  5
3C1
100
AcDbEntity
  8
0
100
AcDbSpline
 62
7
  6
CONTINUOUS
 70
0
 71
3
 72
15
 73
11
 74
0
 42
0.0000001
 43
0.0000001
 44
0.0000000001
 40
0.0
 40
0.0
 40
0.0
 40
0.0
 40
0.116251686
 40
0.2346374149
 40
0.3555204537
 40
0.4792302838
 40
0.6058946677
 40
0.7353573747
 40
0.867046594
 40
1.0
 40
1.0
 40
1.0
 40
1.0
 10
4.9939473235
 20
3.4577712277
 30
0.0
 10
4.9945003257
 20
3.4574805639
 30
0.0
 10
4.9955843377
 20
3.4568300855
 30
0.0
 10
4.9970991345
 20
3.45565845
 30
0.0
 10
4.99848633
 20
3.4542794994
 30
0.0
 10
4.9997097867
 20
3.4526959792
 30
0.0
 10
5.0007285322
 20
3.4509193995
 30
0.0
 10
5.0014990074
 20
3.4489748071
 30
0.0
 10
5.0019810534
 20
3.4469046182
 30
0.0
 10
5.0020903744
 20
3.4454800195
 30
0.0
 10
5.0020903744
 20
3.444765527
 30
0.0
  0
SPLINE
  5
3C2
100
AcDbEntity
  8
0
100
AcDbSpline
 62
7
  6
CONTINUOUS
 70
0
 71
3
 72
15
 73
11
 74
0
 42
0.0000001
 43
0.0000001
 44
0.0000000001
 40
0.0
 40
0.0
 40
0.0
 40
0.0
 40
0.1547769863
 40
0.3053276908
 40
0.4481839423
 40
0.580977228
 40
0.7025063196
 40
0.8124979767
 40
0.9113761142
 40
1.0
 40
1.0
 40
1.0
 40
1.0
 10
4.9901286202
 20
3.444765527
 30
0.0
 10
4.9901286202
 20
3.4454783872
 30
0.0
 10
4.9901788098
 20
3.446885182
 30
0.0
 10
4.9904010038
 20
3.4489391642
 30
0.0
 10
4.9907567394
 20
3.4508715722
 30
0.0
 10
4.9912280904
 20
3.452641169
 30
0.0
 10
4.9917954337
 20
3.4542225475
 30
0.0
 10
4.9924402438
 20
3.4556036302
 30
0.0
 10
4.9931461165
 20
3.4567809425
 30
0.0
 10
4.9936755815
 20
3.4574666543
 30
0.0
 10
4.9939473235
 20
3.4577712277
 30
0.0
  0
SPLINE
  5
3C3
100
AcDbEntity
  8
0
100
AcDbSpline
 62
7
  6
CONTINUOUS
 70
0
 71
3
 72
16
 73
12
 74
0
 42
0.0000001
 43
0.0000001
 44
0.0000000001
 40
0.0
 40
0.0
 40
0.0
 40
0.0
 40
0.1128872362
 40
0.2287704122
 40
0.3481450542
 40
0.4714285482
 40
0.5987648495
 40
0.7299075837
 40
0.7967188014
 40
0.8641462313
 40
1.0
 40
1.0
 40
1.0
 40
1.0
 10
4.9708652243
 20
3.4577712277
 30
0.0
 10
4.9713820559
 20
3.4574795136
 30
0.0
 10
4.9723955392
 20
3.4568258097
 30
0.0
 10
4.9738062747
 20
3.455652824
 30
0.0
 10
4.9750976487
 20
3.4542727288
 30
0.0
 10
4.976235985
 20
3.4526885515
 30
0.0
 10
4.9771832088
 20
3.4509123372
 30
0.0
 10
4.9777764372
 20
3.4493020625
 30
0.0
 10
4.9781200413
 20
3.4479487945
 30
0.0
 10
4.9783717949
 20
3.4465504905
 30
0.0
 10
4.9784482547
 20
3.4454797419
 30
0.0
 10
4.9784482547
 20
3.444765527
 30
0.0
  0
SPLINE
  5
3C4
100
AcDbEntity
  8
0
100
AcDbSpline
 62
7
  6
CONTINUOUS
 70
0
 71
3
 72
14
 73
10
 74
0
 42
0.0000001
 43
0.0000001
 44
0.0000000001
 40
0.0
 40
0.0
 40
0.0
 40
0.0
 40
0.1508599364
 40
0.297983388
 40
0.4383331724
 40
0.5698820925
 40
0.6916763973
 40
0.8036106584
 40
1.0
 40
1.0
 40
1.0
 40
1.0
 10
4.9661884387
 20
3.444765527
 30
0.0
 10
4.9661884387
 20
3.4454786175
 30
0.0
 10
4.9662500932
 20
3.4468879469
 30
0.0
 10
4.9665229107
 20
3.4489444611
 30
0.0
 10
4.966959767
 20
3.4508792746
 30
0.0
 10
4.9675385016
 20
3.4526507518
 30
0.0
 10
4.9682356886
 20
3.4542342491
 30
0.0
 10
4.9692470523
 20
3.4559997958
 30
0.0
 10
4.9701804147
 20
3.4571445077
 30
0.0
 10
4.9708652243
 20
3.4577712277
 30
0.0
  0
SPLINE
  5
3C5
100
AcDbEntity
  8
0
100
AcDbSpline
 62
7
  6
CONTINUOUS
 70
0
 71
3
 72
15
 73
11
 74
0
 42
0.0000001
 43
0.0000001
 44
0.0000000001
 40
0.0
 40
0.0
 40
0.0
 40
0.0
 40
0.108967306
 40
0.2219794723
 40
0.3396686764
 40
0.4625308662
 40
0.5907041658
 40
0.7238195321
 40
0.8608207562
 40
1.0
 40
1.0
 40
1.0
 40
1.0
 10
4.9473275596
 20
3.4577712277
 30
0.0
 10
4.9478034987
 20
3.4574781256
 30
0.0
 10
4.9487370299
 20
3.4568203111
 30
0.0
 10
4.9500298574
 20
3.4556458702
 30
0.0
 10
4.9512127002
 20
3.4542646782
 30
0.0
 10
4.952254731
 20
3.4526801327
 30
0.0
 10
4.9531212998
 20
3.4509043726
 30
0.0
 10
4.9537758441
 20
3.4489629185
 30
0.0
 10
4.9541849219
 20
3.4468978954
 30
0.0
 10
4.9542775409
 20
3.4454794517
 30
0.0
 10
4.9542775409
 20
3.444765527
 30
0.0
  0
SPLINE
  5
3C6
100
AcDbEntity
  8
0
100
AcDbSpline
 62
7
  6
CONTINUOUS
 70
0
 71
3
 72
14
 73
10
 74
0
 42
0.0000001
 43
0.0000001
 44
0.0000000001
 40
0.0
 40
0.0
 40
0.0
 40
0.0
 40
0.2900270314
 40
0.4278272611
 40
0.5581435726
 40
0.6802509039
 40
0.7941696214
 40
0.9004669493
 40
1.0
 40
1.0
 40
1.0
 40
1.0
 10
4.9418377318
 20
3.444765527
 30
0.0
 10
4.9418377318
 20
3.4461747052
 30
0.0
 10
4.942048888
 20
3.4482627509
 30
0.0
 10
4.9427456861
 20
3.4508873052
 30
0.0
 10
4.9434270442
 20
3.4526609863
 30
0.0
 10
4.94424707
 20
3.4542450011
 30
0.0
 10
4.9451789451
 20
3.4556274683
 30
0.0
 10
4.9461986523
 20
3.4568045229
 30
0.0
 10
4.9469461653
 20
3.4574738786
 30
0.0
 10
4.9473275596
 20
3.4577712277
 30
0.0
  0
SPLINE
  5
3C7
100
AcDbEntity
  8
0
100
AcDbSpline
 62
7
  6
CONTINUOUS
 70
0
 71
3
 72
15
 73
11
 74
0
 42
0.0000001
 43
0.0000001
 44
0.0000000001
 40
0.0
 40
0.0
 40
0.0
 40
0.0
 40
0.1044805426
 40
0.2142579534
 40
0.3300915042
 40
0.452532421
 40
0.5816806554
 40
0.7170079324
 40
0.8571596586
 40
1.0
 40
1.0
 40
1.0
 40
1.0
 10
4.92356101
 20
3.4577712277
 30
0.0
 10
4.923991689
 20
3.4574762937
 30
0.0
 10
4.9248363969
 20
3.4568133142
 30
0.0
 10
4.9259984909
 20
3.4556374399
 30
0.0
 10
4.9270610999
 20
3.4542553933
 30
0.0
 10
4.927996649
 20
3.4526708241
 30
0.0
 10
4.9287742323
 20
3.4508960331
 30
0.0
 10
4.9293612771
 20
3.4489566079
 30
0.0
 10
4.9297280344
 20
3.446894428
 30
0.0
 10
4.92981101
 20
3.4454791603
 30
0.0
 10
4.92981101
 20
3.444765527
 30
0.0
  0
SPLINE
  5
3C8
100
AcDbEntity
  8
0
100
AcDbSpline
 62
7
  6
CONTINUOUS
 70
0
 71
3
 72
15
 73
11
 74
0
 42
0.0000001
 43
0.0000001
 44
0.0000000001
 40
0.0
 40
0.0
 40
0.0
 40
0.0
 40
0.1428403156
 40
0.2829920009
 40
0.4183192623
 40
0.5474675271
 40
0.669908462
 40
0.785742037
 40
0.8955194471
 40
1.0
 40
1.0
 40
1.0
 40
1.0
 10
4.91731101
 20
3.444765527
 30
0.0
 10
4.91731101
 20
3.4454791602
 30
0.0
 10
4.9173939857
 20
3.4468944275
 30
0.0
 10
4.9177607427
 20
3.4489566071
 30
0.0
 10
4.9183477875
 20
3.4508960321
 30
0.0
 10
4.9191253706
 20
3.4526708234
 30
0.0
 10
4.92006092
 20
3.4542553929
 30
0.0
 10
4.9211235289
 20
3.4556374397
 30
0.0
 10
4.9222856231
 20
3.4568133141
 30
0.0
 10
4.923130331
 20
3.4574762937
 30
0.0
 10
4.92356101
 20
3.4577712277
 30
0.0
  0
SPLINE
  5
3C9
100
AcDbEntity
  8
0
100
AcDbSpline
 62
7
  6
CONTINUOUS
 70
0
 71
3
 72
14
 73
10
 74
0
 42
0.0000001
 43
0.0000001
 44
0.0000000001
 40
0.0
 40
0.0
 40
0.0
 40
0.0
 40
0.0995330412
 40
0.205830371
 40
0.3197490635
 40
0.4418563777
 40
0.5721726601
 40
0.7099729093
 40
1.0
 40
1.0
 40
1.0
 40
1.0
 10
4.8997944605
 20
3.4577712277
 30
0.0
 10
4.9001758547
 20
3.4574738786
 30
0.0
 10
4.9009233678
 20
3.456804523
 30
0.0
 10
4.9019430748
 20
3.4556274685
 30
0.0
 10
4.9028749499
 20
3.4542450015
 30
0.0
 10
4.9036949755
 20
3.452660987
 30
0.0
 10
4.9043763338
 20
3.4508873061
 30
0.0
 10
4.9050731319
 20
3.4482627515
 30
0.0
 10
4.9052842883
 20
3.4461747054
 30
0.0
 10
4.9052842883
 20
3.444765527
 30
0.0
  0
SPLINE
  5
3CA
100
AcDbEntity
  8
0
100
AcDbSpline
 62
7
  6
CONTINUOUS
 70
0
 71
3
 72
15
 73
11
 74
0
 42
0.0000001
 43
0.0000001
 44
0.0000000001
 40
0.0
 40
0.0
 40
0.0
 40
0.0
 40
0.1391792261
 40
0.2761804107
 40
0.4092957577
 40
0.537469084
 40
0.6603312907
 40
0.7780205194
 40
0.8910326839
 40
1.0
 40
1.0
 40
1.0
 40
1.0
 10
4.8928444792
 20
3.444765527
 30
0.0
 10
4.8928444792
 20
3.4454794517
 30
0.0
 10
4.8929370982
 20
3.4468978951
 30
0.0
 10
4.8933461757
 20
3.4489629177
 30
0.0
 10
4.89400072
 20
3.4509043717
 30
0.0
 10
4.8948672886
 20
3.452680132
 30
0.0
 10
4.8959093197
 20
3.4542646777
 30
0.0
 10
4.8970921624
 20
3.45564587
 30
0.0
 10
4.8983849901
 20
3.4568203111
 30
0.0
 10
4.8993185213
 20
3.4574781255
 30
0.0
 10
4.8997944605
 20
3.4577712277
 30
0.0
  0
SPLINE
  5
3CB
100
AcDbEntity
  8
0
100
AcDbSpline
 62
7
  6
CONTINUOUS
 70
0
 71
3
 72
14
 73
10
 74
0
 42
0.0000001
 43
0.0000001
 44
0.0000000001
 40
0.0
 40
0.0
 40
0.0
 40
0.0
 40
0.1963893342
 40
0.3083235701
 40
0.4301178575
 40
0.5616667471
 40
0.7020165511
 40
0.8491400444
 40
1.0
 40
1.0
 40
1.0
 40
1.0
 10
4.8762567958
 20
3.4577712277
 30
0.0
 10
4.8769416053
 20
3.4571445078
 30
0.0
 10
4.8778749676
 20
3.455999796
 30
0.0
 10
4.8788863314
 20
3.4542342495
 30
0.0
 10
4.8795835181
 20
3.4526507525
 30
0.0
 10
4.8801622529
 20
3.4508792755
 30
0.0
 10
4.8805991092
 20
3.4489444619
 30
0.0
 10
4.8808719268
 20
3.4468879473
 30
0.0
 10
4.8809335813
 20
3.4454786175
 30
0.0
 10
4.8809335813
 20
3.444765527
 30
0.0
  0
SPLINE
  5
3CC
100
AcDbEntity
  8
0
100
AcDbSpline
 62
7
  6
CONTINUOUS
 70
0
 71
3
 72
16
 73
12
 74
0
 42
0.0000001
 43
0.0000001
 44
0.0000000001
 40
0.0
 40
0.0
 40
0.0
 40
0.0
 40
0.1358537514
 40
0.2032811642
 40
0.27009236
 40
0.401235075
 40
0.528571402
 40
0.6518549127
 40
0.7712295792
 40
0.8871127534
 40
1.0
 40
1.0
 40
1.0
 40
1.0
 10
4.8686737653
 20
3.444765527
 30
0.0
 10
4.8686737653
 20
3.4454797418
 30
0.0
 10
4.8687502252
 20
3.4465504902
 30
0.0
 10
4.8690019786
 20
3.447948794
 30
0.0
 10
4.8693455825
 20
3.4493020616
 30
0.0
 10
4.869938811
 20
3.4509123363
 30
0.0
 10
4.8708860346
 20
3.4526885509
 30
0.0
 10
4.8720243711
 20
3.4542727284
 30
0.0
 10
4.8733157451
 20
3.4556528239
 30
0.0
 10
4.8747264808
 20
3.4568258096
 30
0.0
 10
4.8757399642
 20
3.4574795136
 30
0.0
 10
4.8762567958
 20
3.4577712277
 30
0.0
  0
SPLINE
  5
3CD
100
AcDbEntity
  8
0
100
AcDbSpline
 62
7
  6
CONTINUOUS
 70
0
 71
3
 72
15
 73
11
 74
0
 42
0.0000001
 43
0.0000001
 44
0.0000000001
 40
0.0
 40
0.0
 40
0.0
 40
0.0
 40
0.088623877
 40
0.1875020164
 40
0.297493648
 40
0.419022722
 40
0.5518159759
 40
0.694672247
 40
0.845222994
 40
1.0
 40
1.0
 40
1.0
 40
1.0
 10
4.8531746966
 20
3.4577712277
 30
0.0
 10
4.8534464385
 20
3.4574666543
 30
0.0
 10
4.8539759035
 20
3.4567809425
 30
0.0
 10
4.8546817761
 20
3.4556036303
 30
0.0
 10
4.8553265862
 20
3.4542225479
 30
0.0
 10
4.8558939294
 20
3.4526411697
 30
0.0
 10
4.8563652805
 20
3.4508715731
 30
0.0
 10
4.8567210162
 20
3.448939165
 30
0.0
 10
4.8569432103
 20
3.4468851824
 30
0.0
 10
4.8569933999
 20
3.4454783873
 30
0.0
 10
4.8569933999
 20
3.444765527
 30
0.0
  0
SPLINE
  5
3CE
100
AcDbEntity
  8
0
100
AcDbSpline
 62
7
  6
CONTINUOUS
 70
0
 71
3
 72
15
 73
11
 74
0
 42
0.0000001
 43
0.0000001
 44
0.0000000001
 40
0.0
 40
0.0
 40
0.0
 40
0.0
 40
0.1329533891
 40
0.26464257
 40
0.3941052577
 40
0.5207696665
 40
0.6444795131
 40
0.7653625763
 40
0.8837483034
 40
1.0
 40
1.0
 40
1.0
 40
1.0
 10
4.8450316457
 20
3.444765527
 30
0.0
 10
4.8450316457
 20
3.4454800195
 30
0.0
 10
4.8451409667
 20
3.4469046178
 30
0.0
 10
4.8456230124
 20
3.4489748063
 30
0.0
 10
4.8463934875
 20
3.4509193986
 30
0.0
 10
4.8474122329
 20
3.4526959785
 30
0.0
 10
4.8486356898
 20
3.454279499
 30
0.0
 10
4.8500228853
 20
3.4556584499
 30
0.0
 10
4.8515376823
 20
3.4568300854
 30
0.0
 10
4.8526216943
 20
3.4574805639
 30
0.0
 10
4.8531746966
 20
3.4577712277
 30
0.0
  0
SPLINE
  5
3CF
100
AcDbEntity
  8
0
100
AcDbSpline
 62
7
  6
CONTINUOUS
 70
0
 71
3
 72
15
 73
11
 74
0
 42
0.0000001
 43
0.0000001
 44
0.0000000001
 40
0.0
 40
0.0
 40
0.0
 40
0.0
 40
0.0833308869
 40
0.1787840956
 40
0.2870847825
 40
0.4084960458
 40
0.5425516226
 40
0.6878050811
 40
0.8415725972
 40
1.0
 40
1.0
 40
1.0
 40
1.0
 10
4.830770456
 20
3.4577712277
 30
0.0
 10
4.830981903
 20
3.4574617008
 30
0.0
 10
4.8313910907
 20
3.4567668726
 30
0.0
 10
4.8319293598
 20
3.4555911054
 30
0.0
 10
4.8324213644
 20
3.454211884
 30
0.0
 10
4.8328544926
 20
3.4526324928
 30
0.0
 10
4.833214469
 20
3.4508649578
 30
0.0
 10
4.8334862129
 20
3.4489346985
 30
0.0
 10
4.8336559679
 20
3.4468828908
 30
0.0
 10
4.8336943008
 20
3.4454781966
 30
0.0
 10
4.8336943008
 20
3.444765527
 30
0.0
  0
SPLINE
  5
3D0
100
AcDbEntity
  8
0
100
AcDbSpline
 62
7
  6
CONTINUOUS
 70
0
 71
3
 72
15
 73
11
 74
0
 42
0.0000001
 43
0.0000001
 44
0.0000000001
 40
0.0
 40
0.0
 40
0.0
 40
0.0
 40
0.1304762946
 40
0.2600688017
 40
0.3881172678
 40
0.5142325879
 40
0.6383218395
 40
0.7604841398
 40
0.8809621578
 40
1.0
 40
1.0
 40
1.0
 40
1.0
 10
4.8221458067
 20
3.444765527
 30
0.0
 10
4.8221458067
 20
3.4454802739
 30
0.0
 10
4.8222619756
 20
3.4469076174
 30
0.0
 10
4.8227737899
 20
3.4489799673
 30
0.0
 10
4.8235913487
 20
3.450925657
 30
0.0
 10
4.8246716268
 20
3.4527022493
 30
0.0
 10
4.8259682142
 20
3.454285047
 30
0.0
 10
4.8274376569
 20
3.4556629033
 30
0.0
 10
4.8290417768
 20
3.4568333695
 30
0.0
 10
4.8301863403
 20
3.4574813541
 30
0.0
 10
4.830770456
 20
3.4577712277
 30
0.0
  0
SPLINE
  5
3D1
100
AcDbEntity
  8
0
100
AcDbSpline
 62
7
  6
CONTINUOUS
 70
0
 71
3
 72
15
 73
11
 74
0
 42
0.0000001
 43
0.0000001
 44
0.0000000001
 40
0.0
 40
0.0
 40
0.0
 40
0.0
 40
0.0787696707
 40
0.1713703929
 40
0.2783217923
 40
0.3997005262
 40
0.5348532433
 40
0.6821200201
 40
0.8385571654
 40
1.0
 40
1.0
 40
1.0
 40
1.0
 10
4.8092598392
 20
3.4577712277
 30
0.0
 10
4.809407064
 20
3.4574562917
 30
0.0
 10
4.8096892634
 20
3.4567532012
 30
0.0
 10
4.8100559274
 20
3.4555799184
 30
0.0
 10
4.8103914519
 20
3.4542029406
 30
0.0
 10
4.8106870795
 20
3.4526255251
 30
0.0
 10
4.810932894
 20
3.4508598059
 30
0.0
 10
4.8111185129
 20
3.4489312885
 30
0.0
 10
4.8112344847
 20
3.446881161
 30
0.0
 10
4.8112606674
 20
3.445478053
 30
0.0
 10
4.8112606674
 20
3.444765527
 30
0.0
  0
SPLINE
  5
3D2
100
AcDbEntity
  8
0
100
AcDbSpline
 62
7
  6
CONTINUOUS
 70
0
 71
3
 72
17
 73
13
 74
0
 42
0.0000001
 43
0.0000001
 44
0.0000000001
 40
0.0
 40
0.0
 40
0.0
 40
0.0
 40
0.1284276208
 40
0.1925162958
 40
0.2563988766
 40
0.383284908
 40
0.5089498219
 40
0.5713430965
 40
0.6334158926
 40
0.7566037848
 40
0.8787507463
 40
1.0
 40
1.0
 40
1.0
 40
1.0
 10
4.8002366516
 20
3.444765527
 30
0.0
 10
4.8002366516
 20
3.4454804955
 30
0.0
 10
4.8003283721
 20
3.4465550921
 30
0.0
 10
4.8006279874
 20
3.4479518636
 30
0.0
 10
4.8010391046
 20
3.449311357
 30
0.0
 10
4.8017517123
 20
3.4509309338
 30
0.0
 10
4.8026971464
 20
3.4524153965
 30
0.0
 10
4.8035665566
 20
3.453504349
 30
0.0
 10
4.8044989339
 20
3.4545212461
 30
0.0
 10
4.8057774827
 20
3.455666426
 30
0.0
 10
4.8074553204
 20
3.4568358136
 30
0.0
 10
4.808649966
 20
3.4574819395
 30
0.0
 10
4.8092598392
 20
3.4577712277
 30
0.0
  0
SPLINE
  5
3D3
100
AcDbEntity
  8
0
100
AcDbSpline
 62
7
  6
CONTINUOUS
 70
0
 71
3
 72
15
 73
11
 74
0
 42
0.0000001
 43
0.0000001
 44
0.0000000001
 40
0.0
 40
0.0
 40
0.0
 40
0.0
 40
0.0755551322
 40
0.1662048751
 40
0.2722662822
 40
0.3936586827
 40
0.5295873986
 40
0.6782423515
 40
0.8365037654
 40
1.0
 40
1.0
 40
1.0
 40
1.0
 10
4.7888500051
 20
3.4577712277
 30
0.0
 10
4.7889290487
 20
3.4574516256
 30
0.0
 10
4.7890790911
 20
3.4567426662
 30
0.0
 10
4.7892723328
 20
3.4555718514
 30
0.0
 10
4.7894493623
 20
3.4541968104
 30
0.0
 10
4.7896054773
 20
3.4526208982
 30
0.0
 10
4.7897353377
 20
3.4508564612
 30
0.0
 10
4.7898334226
 20
3.4489291054
 30
0.0
 10
4.789894712
 20
3.4468800625
 30
0.0
 10
4.7899085476
 20
3.4454779619
 30
0.0
 10
4.7899085476
 20
3.444765527
 30
0.0
  0
SPLINE
  5
3D4
100
AcDbEntity
  8
0
100
AcDbSpline
 62
7
  6
CONTINUOUS
 70
0
 71
3
 72
16
 73
12
 74
0
 42
0.0000001
 43
0.0000001
 44
0.0000000001
 40
0.0
 40
0.0
 40
0.0
 40
0.0
 40
0.1268705972
 40
0.1902637987
 40
0.2535412137
 40
0.3795655612
 40
0.5049214364
 40
0.6295854847
 40
0.7535924845
 40
0.877042768
 40
1.0
 40
1.0
 40
1.0
 40
1.0
 10
4.7795151774
 20
3.444765527
 30
0.0
 10
4.7795151774
 20
3.4454806757
 30
0.0
 10
4.7796102465
 20
3.4465561831
 30
0.0
 10
4.7799202224
 20
3.4479525837
 30
0.0
 10
4.7803460598
 20
3.4493134817
 30
0.0
 10
4.7810849094
 20
3.4509351398
 30
0.0
 10
4.7822559088
 20
3.452711229
 30
0.0
 10
4.7836601787
 20
3.4542927447
 30
0.0
 10
4.7852506408
 20
3.4556688585
 30
0.0
 10
4.7869862326
 20
3.45683763
 30
0.0
 10
4.7882199828
 20
3.4574823588
 30
0.0
 10
4.7888500051
 20
3.4577712277
 30
0.0
  0
LINE
  5
3D5
100
AcDbEntity
  8
0
100
AcDbLine
 62
7
  6
CONTINUOUS
 10
4.7697375117
 20
3.4577712277
 11
4.7698435741
 21
3.444765527
  0
SPLINE
  5
3D6
100
AcDbEntity
  8
0
100
AcDbSpline
 62
7
  6
CONTINUOUS
 70
0
 71
3
 72
16
 73
12
 74
0
 42
0.0000001
 43
0.0000001
 44
0.0000000001
 40
0.0
 40
0.0
 40
0.0
 40
0.0
 40
0.125766532
 40
0.1886671204
 40
0.2515163903
 40
0.3769324684
 40
0.5020708675
 40
0.6269242379
 40
0.7515024679
 40
0.87585875
 40
1.0
 40
1.0
 40
1.0
 40
1.0
 10
4.7601809434
 20
3.444765527
 30
0.0
 10
4.7601809434
 20
3.4454808076
 30
0.0
 10
4.7602784069
 20
3.4465569808
 30
0.0
 10
4.7605957522
 20
3.4479531055
 30
0.0
 10
4.7610321
 20
3.4493150254
 30
0.0
 10
4.761789615
 20
3.450938076
 30
0.0
 10
4.7629889502
 20
3.4527139763
 30
0.0
 10
4.7644267913
 20
3.4542950234
 30
0.0
 10
4.7660549784
 20
3.4556705785
 30
0.0
 10
4.7678315663
 20
3.4568388325
 30
0.0
 10
4.769093148
 20
3.4574826384
 30
0.0
 10
4.7697375117
 20
3.4577712277
 30
0.0
  0
SPLINE
  5
3D7
100
AcDbEntity
  8
0
100
AcDbSpline
 62
7
  6
CONTINUOUS
 70
0
 71
3
 72
16
 73
12
 74
0
 42
0.0000001
 43
0.0000001
 44
0.0000000001
 40
0.0
 40
0.0
 40
0.0
 40
0.0
 40
0.1251249477
 40
0.1877396147
 40
0.2503407348
 40
0.3754054842
 40
0.500420073
 40
0.6253852831
 40
0.7502954814
 40
0.8751758109
 40
1.0
 40
1.0
 40
1.0
 40
1.0
 10
4.7424201487
 20
3.444765527
 30
0.0
 10
4.7424201487
 20
3.4454808862
 30
0.0
 10
4.7425190172
 20
3.4465574553
 30
0.0
 10
4.742840673
 20
3.4479534148
 30
0.0
 10
4.7432831796
 20
3.4493159372
 30
0.0
 10
4.7440516352
 20
3.4509397946
 30
0.0
 10
4.745267543
 20
3.4527155672
 30
0.0
 10
4.7467250103
 20
3.4542963295
 30
0.0
 10
4.748375251
 20
3.4556715552
 30
0.0
 10
4.7501758086
 20
3.45683951
 30
0.0
 10
4.7514536682
 20
3.4574827951
 30
0.0
 10
4.7521064226
 20
3.4577712277
 30
0.0
  0
SPLINE
  5
3D8
100
AcDbEntity
  8
0
100
AcDbSpline
 62
7
  6
CONTINUOUS
 70
0
 71
3
 72
16
 73
12
 74
0
 42
0.0000001
 43
0.0000001
 44
0.0000000001
 40
0.0
 40
0.0
 40
0.0
 40
0.0
 40
0.1249453662
 40
0.1874800483
 40
0.2500117968
 40
0.3749784917
 40
0.4999587626
 40
0.6249555135
 40
0.7499586297
 40
0.8749853203
 40
1.0
 40
1.0
 40
1.0
 40
1.0
 10
4.7264038396
 20
3.444765527
 30
0.0
 10
4.7264038396
 20
3.4454809084
 30
0.0
 10
4.7265031032
 20
3.4465575896
 30
0.0
 10
4.7268259693
 20
3.4479535022
 30
0.0
 10
4.7272702067
 20
3.4493161944
 30
0.0
 10
4.7280417374
 20
3.4509402772
 30
0.0
 10
4.7292622985
 20
3.4527160117
 30
0.0
 10
4.7307252753
 20
3.4542966927
 30
0.0
 10
4.7323817069
 20
3.4556718257
 30
0.0
 10
4.7341889939
 20
3.4568396969
 30
0.0
 10
4.7354714242
 20
3.4574828383
 30
0.0
 10
4.736126535
 20
3.4577712277
 30
0.0
  0
SPLINE
  5
3D9
100
AcDbEntity
  8
0
100
AcDbSpline
 62
7
  6
CONTINUOUS
 70
0
 71
3
 72
16
 73
12
 74
0
 42
0.0000001
 43
0.0000001
 44
0.0000000001
 40
0.0
 40
0.0
 40
0.0
 40
0.0
 40
0.125227579
 40
0.1878879665
 40
0.2505287497
 40
0.3756495933
 40
0.5006838609
 40
0.6256310917
 40
0.7504881867
 40
0.8752848073
 40
1.0
 40
1.0
 40
1.0
 40
1.0
 10
4.7122862617
 20
3.444765527
 30
0.0
 10
4.7122862617
 20
3.4454808735
 30
0.0
 10
4.7123849048
 20
3.4465573789
 30
0.0
 10
4.7127058696
 20
3.447953365
 30
0.0
 10
4.7131473884
 20
3.4493157906
 30
0.0
 10
4.7139140891
 20
3.4509395191
 30
0.0
 10
4.7151273405
 20
3.452715313
 30
0.0
 10
4.7165816622
 20
3.4542961215
 30
0.0
 10
4.7182283684
 20
3.4556714001
 30
0.0
 10
4.7200250842
 20
3.4568394027
 30
0.0
 10
4.7213003345
 20
3.4574827703
 30
0.0
 10
4.7219517438
 20
3.4577712277
 30
0.0
  0
SPLINE
  5
3DA
100
AcDbEntity
  8
0
100
AcDbSpline
 62
7
  6
CONTINUOUS
 70
0
 71
3
 72
16
 73
12
 74
0
 42
0.0000001
 43
0.0000001
 44
0.0000000001
 40
0.0
 40
0.0
 40
0.0
 40
0.0
 40
0.1259718992
 40
0.1889640626
 40
0.2518928652
 40
0.377421735
 40
0.5026001632
 40
0.6274180156
 40
0.7518899856
 40
0.8760781444
 40
1.0
 40
1.0
 40
1.0
 40
1.0
 10
4.7002033752
 20
3.444765527
 30
0.0
 10
4.7002033752
 20
3.4454807827
 30
0.0
 10
4.7003003912
 20
3.4465568307
 30
0.0
 10
4.7006163611
 20
3.4479530074
 30
0.0
 10
4.7010507456
 20
3.4493147358
 30
0.0
 10
4.7018047733
 20
3.4509375278
 30
0.0
 10
4.7029988206
 20
3.4527134662
 30
0.0
 10
4.7044303981
 20
3.4542946025
 30
0.0
 10
4.7060515467
 20
3.4556702624
 30
0.0
 10
4.7078204853
 20
3.4568386123
 30
0.0
 10
4.7090768732
 20
3.4574825873
 30
0.0
 10
4.70971856
 20
3.4577712277
 30
0.0
  0
SPLINE
  5
3DB
100
AcDbEntity
  8
0
100
AcDbSpline
 62
7
  6
CONTINUOUS
 70
0
 71
3
 72
16
 73
12
 74
0
 42
0.0000001
 43
0.0000001
 44
0.0000000001
 40
0.0
 40
0.0
 40
0.0
 40
0.0
 40
0.1271787637
 40
0.1907095946
 40
0.2541067636
 40
0.38030172
 40
0.5057192978
 40
0.6303312218
 40
0.7541787996
 40
0.8773752547
 40
1.0
 40
1.0
 40
1.0
 40
1.0
 10
4.6902715448
 20
3.444765527
 30
0.0
 10
4.6902715448
 20
3.4454806396
 30
0.0
 10
4.6903659506
 20
3.4465559647
 30
0.0
 10
4.69067388
 20
3.4479524404
 30
0.0
 10
4.6910968029
 20
3.4493130565
 30
0.0
 10
4.6918304779
 20
3.4509343252
 30
0.0
 10
4.692993608
 20
3.4527104601
 30
0.0
 10
4.6943885511
 20
3.4542921015
 30
0.0
 10
4.695968532
 20
3.4556683694
 30
0.0
 10
4.697692735
 20
3.4568372858
 30
0.0
 10
4.6989187555
 20
3.4574822784
 30
0.0
 10
4.699544796
 20
3.4577712277
 30
0.0
  0
SPLINE
  5
3DC
100
AcDbEntity
  8
0
100
AcDbSpline
 62
7
  6
CONTINUOUS
 70
0
 71
3
 72
17
 73
13
 74
0
 42
0.0000001
 43
0.0000001
 44
0.0000000001
 40
0.0
 40
0.0
 40
0.0
 40
0.0
 40
0.1288382993
 40
0.1931107804
 40
0.2571537065
 40
0.3842696227
 40
0.5100198605
 40
0.5723982752
 40
0.634418513
 40
0.7573941258
 40
0.8791999983
 40
1.0
 40
1.0
 40
1.0
 40
1.0
 10
4.6825864195
 20
3.444765527
 30
0.0
 10
4.6825864195
 20
3.4454804496
 30
0.0
 10
4.6826772704
 20
3.4465548132
 30
0.0
 10
4.6829741877
 20
3.4479516795
 30
0.0
 10
4.6833814748
 20
3.4493108075
 30
0.0
 10
4.6840872884
 20
3.4509298635
 30
0.0
 10
4.6850243286
 20
3.4524147979
 30
0.0
 10
4.6858861633
 20
3.4535041087
 30
0.0
 10
4.6868098706
 20
3.4545207379
 30
0.0
 10
4.6880765415
 20
3.4556657451
 30
0.0
 10
4.6897393536
 20
3.4568353277
 30
0.0
 10
4.6909238046
 20
3.4574818249
 30
0.0
 10
4.6915284305
 20
3.4577712277
 30
0.0
  0
SPLINE
  5
3DD
100
AcDbEntity
  8
0
100
AcDbSpline
 62
7
  6
CONTINUOUS
 70
0
 71
3
 72
15
 73
11
 74
0
 42
0.0000001
 43
0.0000001
 44
0.0000000001
 40
0.0
 40
0.0
 40
0.0
 40
0.0
 40
0.1309881433
 40
0.261013077
 40
0.3893519122
 40
0.5155783274
 40
0.6395873276
 40
0.761485036
 40
0.8815328765
 40
1.0
 40
1.0
 40
1.0
 40
1.0
 10
4.6772220113
 20
3.444765527
 30
0.0
 10
4.6772220113
 20
3.4454802199
 30
0.0
 10
4.677336753
 20
3.4469069812
 30
0.0
 10
4.6778423712
 20
3.44897888
 30
0.0
 10
4.6786501414
 20
3.4509243514
 30
0.0
 10
4.6797176408
 20
3.4527009563
 30
0.0
 10
4.680999051
 20
3.454283917
 30
0.0
 10
4.6824514285
 20
3.455662007
 30
0.0
 10
4.684037014
 20
3.4568327155
 30
0.0
 10
4.685169011
 20
3.4574811979
 30
0.0
 10
4.6857466656
 20
3.4577712277
 30
0.0
  0
SPLINE
  5
3DE
100
AcDbEntity
  8
0
100
AcDbSpline
 62
7
  6
CONTINUOUS
 70
0
 71
3
 72
17
 73
13
 74
0
 42
0.0000001
 43
0.0000001
 44
0.0000000001
 40
0.0
 40
0.0
 40
0.0
 40
0.0
 40
0.1335423504
 40
0.1999270505
 40
0.2658198264
 40
0.3956136466
 40
0.5223974961
 40
0.5846302044
 40
0.6460663346
 40
0.7666154663
 40
0.8844627699
 40
1.0
 40
1.0
 40
1.0
 40
1.0
 10
4.6742299822
 20
3.444765527
 30
0.0
 10
4.6742299822
 20
3.4454799594
 30
0.0
 10
4.6743110915
 20
3.4465518249
 30
0.0
 10
4.6745775376
 20
3.4479496901
 30
0.0
 10
4.6749417776
 20
3.4493048127
 30
0.0
 10
4.6755713556
 20
3.4509178984
 30
0.0
 10
4.6764132916
 20
3.4524079026
 30
0.0
 10
4.6771892673
 20
3.4535012969
 30
0.0
 10
4.6780152277
 20
3.4545146902
 30
0.0
 10
4.6791477529
 20
3.4556573915
 30
0.0
 10
4.6806405946
 20
3.4568292046
 30
0.0
 10
4.6817097929
 20
3.4574803553
 30
0.0
 10
4.6822551829
 20
3.4577712277
 30
0.0
  0
SPLINE
  5
3DF
100
AcDbEntity
  8
0
100
AcDbSpline
 62
7
  6
CONTINUOUS
 70
0
 71
3
 72
17
 73
13
 74
0
 42
0.0000001
 43
0.0000001
 44
0.0000000001
 40
0.0
 40
0.0
 40
0.0
 40
0.0
 40
0.1155372222
 40
0.2333845256
 40
0.3539336407
 40
0.4153697613
 40
0.4776024653
 40
0.6043862925
 40
0.7341801245
 40
0.8000729161
 40
0.8664576305
 40
1.0
 40
1.0
 40
1.0
 40
1.0
 10
4.6822551829
 20
3.0567598263
 30
0.0
 10
4.6817097929
 20
3.0570506986
 30
0.0
 10
4.6806405946
 20
3.0577018492
 30
0.0
 10
4.6791477531
 20
3.0588736623
 30
0.0
 10
4.6780152279
 20
3.0600163634
 30
0.0
 10
4.6771892676
 20
3.0610297567
 30
0.0
 10
4.676413292
 20
3.0621231507
 30
0.0
 10
4.6755713559
 20
3.0636131548
 30
0.0
 10
4.6749417779
 20
3.0652262405
 30
0.0
 10
4.6745775377
 20
3.0665813633
 30
0.0
 10
4.6743110915
 20
3.0679792288
 30
0.0
 10
4.6742299822
 20
3.0690510945
 30
0.0
 10
4.6742299822
 20
3.069765527
 30
0.0
  0
SPLINE
  5
3E0
100
AcDbEntity
  8
0
100
AcDbSpline
 62
7
  6
CONTINUOUS
 70
0
 71
3
 72
15
 73
11
 74
0
 42
0.0000001
 43
0.0000001
 44
0.0000000001
 40
0.0
 40
0.0
 40
0.0
 40
0.0
 40
0.1184671154
 40
0.2385149557
 40
0.3604126475
 40
0.484421634
 40
0.6106480275
 40
0.7389868745
 40
0.8690118379
 40
1.0
 40
1.0
 40
1.0
 40
1.0
 10
4.6857466656
 20
3.0567598263
 30
0.0
 10
4.685169011
 20
3.0570498561
 30
0.0
 10
4.6840370141
 20
3.0576983384
 30
0.0
 10
4.6824514287
 20
3.0588690468
 30
0.0
 10
4.6809990512
 20
3.0602471366
 30
0.0
 10
4.6797176413
 20
3.0618300971
 30
0.0
 10
4.6786501417
 20
3.0636067018
 30
0.0
 10
4.6778423714
 20
3.0655521733
 30
0.0
 10
4.677336753
 20
3.0676240724
 30
0.0
 10
4.6772220113
 20
3.0690508339
 30
0.0
 10
4.6772220113
 20
3.069765527
 30
0.0
  0
SPLINE
  5
3E1
100
AcDbEntity
  8
0
100
AcDbSpline
 62
7
  6
CONTINUOUS
 70
0
 71
3
 72
17
 73
13
 74
0
 42
0.0000001
 43
0.0000001
 44
0.0000000001
 40
0.0
 40
0.0
 40
0.0
 40
0.0
 40
0.1207999934
 40
0.2426058658
 40
0.365581462
 40
0.4276016903
 40
0.4899801008
 40
0.6157303175
 40
0.7428462456
 40
0.8068891872
 40
0.8711616822
 40
1.0
 40
1.0
 40
1.0
 40
1.0
 10
4.6915284305
 20
3.0567598263
 30
0.0
 10
4.6909238047
 20
3.057049229
 30
0.0
 10
4.6897393536
 20
3.0576957262
 30
0.0
 10
4.6880765417
 20
3.0588653087
 30
0.0
 10
4.6868098708
 20
3.0600103158
 30
0.0
 10
4.6858861637
 20
3.0610269448
 30
0.0
 10
4.685024329
 20
3.0621162555
 30
0.0
 10
4.6840872887
 20
3.0636011897
 30
0.0
 10
4.6833814751
 20
3.0652202458
 30
0.0
 10
4.6829741879
 20
3.0665793739
 30
0.0
 10
4.6826772704
 20
3.0679762405
 30
0.0
 10
4.6825864195
 20
3.0690506043
 30
0.0
 10
4.6825864195
 20
3.069765527
 30
0.0
  0
SPLINE
  5
3E2
100
AcDbEntity
  8
0
100
AcDbSpline
 62
7
  6
CONTINUOUS
 70
0
 71
3
 72
16
 73
12
 74
0
 42
0.0000001
 43
0.0000001
 44
0.0000000001
 40
0.0
 40
0.0
 40
0.0
 40
0.0
 40
0.122624737
 40
0.2458211919
 40
0.3696687532
 40
0.4942806635
 40
0.6196982206
 40
0.745893189
 40
0.8092903733
 40
0.872821218
 40
1.0
 40
1.0
 40
1.0
 40
1.0
 10
4.699544796
 20
3.0567598263
 30
0.0
 10
4.6989187555
 20
3.0570487755
 30
0.0
 10
4.6976927351
 20
3.0576937681
 30
0.0
 10
4.6959685322
 20
3.0588626844
 30
0.0
 10
4.6943885513
 20
3.0602389521
 30
0.0
 10
4.6929936084
 20
3.0618205934
 30
0.0
 10
4.6918304783
 20
3.063596728
 30
0.0
 10
4.6910968032
 20
3.0652179967
 30
0.0
 10
4.6906738802
 20
3.066578613
 30
0.0
 10
4.6903659506
 20
3.067975089
 30
0.0
 10
4.6902715448
 20
3.0690504142
 30
0.0
 10
4.6902715448
 20
3.069765527
 30
0.0
  0
SPLINE
  5
3E3
100
AcDbEntity
  8
0
100
AcDbSpline
 62
7
  6
CONTINUOUS
 70
0
 71
3
 72
16
 73
12
 74
0
 42
0.0000001
 43
0.0000001
 44
0.0000000001
 40
0.0
 40
0.0
 40
0.0
 40
0.0
 40
0.1239218472
 40
0.2481100058
 40
0.3725819593
 40
0.4973997981
 40
0.6225782059
 40
0.7481070877
 40
0.8110359055
 40
0.8740280827
 40
1.0
 40
1.0
 40
1.0
 40
1.0
 10
4.70971856
 20
3.0567598263
 30
0.0
 10
4.7090768733
 20
3.0570484666
 30
0.0
 10
4.7078204854
 20
3.0576924416
 30
0.0
 10
4.7060515469
 20
3.0588607915
 30
0.0
 10
4.7044303984
 20
3.0602364511
 30
0.0
 10
4.702998821
 20
3.0618175873
 30
0.0
 10
4.7018047737
 20
3.0635935254
 30
0.0
 10
4.7010507459
 20
3.0652163174
 30
0.0
 10
4.7006163612
 20
3.066578046
 30
0.0
 10
4.7003003912
 20
3.067974223
 30
0.0
 10
4.7002033752
 20
3.0690502711
 30
0.0
 10
4.7002033752
 20
3.069765527
 30
0.0
  0
SPLINE
  5
3E4
100
AcDbEntity
  8
0
100
AcDbSpline
 62
7
  6
CONTINUOUS
 70
0
 71
3
 72
16
 73
12
 74
0
 42
0.0000001
 43
0.0000001
 44
0.0000000001
 40
0.0
 40
0.0
 40
0.0
 40
0.0
 40
0.1247151843
 40
0.2495118046
 40
0.3743688831
 40
0.4993161004
 40
0.6243503477
 40
0.7494712034
 40
0.8121120018
 40
0.874772403
 40
1.0
 40
1.0
 40
1.0
 40
1.0
 10
4.7219517438
 20
3.0567598263
 30
0.0
 10
4.7213003346
 20
3.0570482836
 30
0.0
 10
4.7200250842
 20
3.0576916512
 30
0.0
 10
4.7182283686
 20
3.0588596537
 30
0.0
 10
4.7165816625
 20
3.0602349321
 30
0.0
 10
4.715127341
 20
3.0618157404
 30
0.0
 10
4.7139140895
 20
3.0635915341
 30
0.0
 10
4.7131473887
 20
3.0652152626
 30
0.0
 10
4.7127058697
 20
3.0665776884
 30
0.0
 10
4.7123849048
 20
3.0679736748
 30
0.0
 10
4.7122862617
 20
3.0690501803
 30
0.0
 10
4.7122862617
 20
3.069765527
 30
0.0
  0
SPLINE
  5
3E5
100
AcDbEntity
  8
0
100
AcDbSpline
 62
7
  6
CONTINUOUS
 70
0
 71
3
 72
16
 73
12
 74
0
 42
0.0000001
 43
0.0000001
 44
0.0000000001
 40
0.0
 40
0.0
 40
0.0
 40
0.0
 40
0.1250146712
 40
0.2500413616
 40
0.3750444614
 40
0.5000411987
 40
0.6250214494
 40
0.7499881564
 40
0.8125199201
 40
0.8750546158
 40
1.0
 40
1.0
 40
1.0
 40
1.0
 10
4.736126535
 20
3.0567598263
 30
0.0
 10
4.7354714242
 20
3.0570482156
 30
0.0
 10
4.734188994
 20
3.0576913569
 30
0.0
 10
4.7323817072
 20
3.0588592282
 30
0.0
 10
4.7307252755
 20
3.0602343609
 30
0.0
 10
4.729262299
 20
3.0618150417
 30
0.0
 10
4.7280417378
 20
3.0635907759
 30
0.0
 10
4.727270207
 20
3.0652148588
 30
0.0
 10
4.7268259694
 20
3.0665775512
 30
0.0
 10
4.7265031032
 20
3.0679734641
 30
0.0
 10
4.7264038396
 20
3.0690501454
 30
0.0
 10
4.7264038396
 20
3.069765527
 30
0.0
  0
SPLINE
  5
3E6
100
AcDbEntity
  8
0
100
AcDbSpline
 62
7
  6
CONTINUOUS
 70
0
 71
3
 72
16
 73
12
 74
0
 42
0.0000001
 43
0.0000001
 44
0.0000000001
 40
0.0
 40
0.0
 40
0.0
 40
0.0
 40
0.1248241807
 40
0.24970451
 40
0.3746146918
 40
0.4995798884
 40
0.6245944568
 40
0.7496592183
 40
0.8122603537
 40
0.8748750343
 40
1.0
 40
1.0
 40
1.0
 40
1.0
 10
4.7521064226
 20
3.0567598263
 30
0.0
 10
4.7514536683
 20
3.0570482588
 30
0.0
 10
4.7501758087
 20
3.0576915439
 30
0.0
 10
4.7483752512
 20
3.0588594986
 30
0.0
 10
4.7467250105
 20
3.0602347241
 30
0.0
 10
4.7452675435
 20
3.0618154862
 30
0.0
 10
4.7440516355
 20
3.0635912586
 30
0.0
 10
4.7432831799
 20
3.065215116
 30
0.0
 10
4.7428406731
 20
3.0665776386
 30
0.0
 10
4.7425190172
 20
3.0679735984
 30
0.0
 10
4.7424201487
 20
3.0690501677
 30
0.0
 10
4.7424201487
 20
3.069765527
 30
0.0
  0
SPLINE
  5
3E7
100
AcDbEntity
  8
0
100
AcDbSpline
 62
7
  6
CONTINUOUS
 70
0
 71
3
 72
16
 73
12
 74
0
 42
0.0000001
 43
0.0000001
 44
0.0000000001
 40
0.0
 40
0.0
 40
0.0
 40
0.0
 40
0.1241412416
 40
0.2484975235
 40
0.373075737
 40
0.4979290939
 40
0.6230674725
 40
0.7484835626
 40
0.8113328478
 40
0.87423345
 40
1.0
 40
1.0
 40
1.0
 40
1.0
 10
4.7697375117
 20
3.0567598263
 30
0.0
 10
4.7690931481
 20
3.0570484156
 30
0.0
 10
4.7678315663
 20
3.0576922214
 30
0.0
 10
4.7660549786
 20
3.0588604753
 30
0.0
 10
4.7644267916
 20
3.0602360302
 30
0.0
 10
4.7629889507
 20
3.0618170771
 30
0.0
 10
4.7617896153
 20
3.0635929772
 30
0.0
 10
4.7610321003
 20
3.0652160278
 30
0.0
 10
4.7605957523
 20
3.0665779479
 30
0.0
 10
4.7602784069
 20
3.0679740728
 30
0.0
 10
4.7601809434
 20
3.0690502463
 30
0.0
 10
4.7601809434
 20
3.069765527
 30
0.0
  0
LINE
  5
3E8
100
AcDbEntity
  8
0
100
AcDbLine
 62
7
  6
CONTINUOUS
 10
4.7698435741
 20
3.069765527
 11
4.7697375117
 21
3.0567598263
  0
SPLINE
  5
3E9
100
AcDbEntity
  8
0
100
AcDbSpline
 62
7
  6
CONTINUOUS
 70
0
 71
3
 72
16
 73
12
 74
0
 42
0.0000001
 43
0.0000001
 44
0.0000000001
 40
0.0
 40
0.0
 40
0.0
 40
0.0
 40
0.1229572237
 40
0.246407507
 40
0.3704144903
 40
0.4950785249
 40
0.6204343795
 40
0.7464587389
 40
0.8097361692
 40
0.8731293846
 40
1.0
 40
1.0
 40
1.0
 40
1.0
 10
4.7888500051
 20
3.0567598263
 30
0.0
 10
4.7882199828
 20
3.0570486952
 30
0.0
 10
4.7869862327
 20
3.0576934239
 30
0.0
 10
4.7852506411
 20
3.0588621953
 30
0.0
 10
4.783660179
 20
3.060238309
 30
0.0
 10
4.7822559093
 20
3.0618198245
 30
0.0
 10
4.7810849098
 20
3.0635959133
 30
0.0
 10
4.7803460601
 20
3.0652175715
 30
0.0
 10
4.7799202225
 20
3.0665784697
 30
0.0
 10
4.7796102465
 20
3.0679748705
 30
0.0
 10
4.7795151774
 20
3.0690503782
 30
0.0
 10
4.7795151774
 20
3.069765527
 30
0.0
  0
SPLINE
  5
3EA
100
AcDbEntity
  8
0
100
AcDbSpline
 62
7
  6
CONTINUOUS
 70
0
 71
3
 72
15
 73
11
 74
0
 42
0.0000001
 43
0.0000001
 44
0.0000000001
 40
0.0
 40
0.0
 40
0.0
 40
0.0
 40
0.1634961897
 40
0.3217575632
 40
0.4704125113
 40
0.6063412644
 40
0.7277336844
 40
0.8337951173
 40
0.9244448597
 40
1.0
 40
1.0
 40
1.0
 40
1.0
 10
4.7899085476
 20
3.069765527
 30
0.0
 10
4.7899085476
 20
3.0690530923
 30
0.0
 10
4.789894712
 20
3.067650992
 30
0.0
 10
4.7898334227
 20
3.0656019495
 30
0.0
 10
4.7897353377
 20
3.0636745937
 30
0.0
 10
4.7896054773
 20
3.0619101565
 30
0.0
 10
4.7894493623
 20
3.060334244
 30
0.0
 10
4.7892723328
 20
3.0589592028
 30
0.0
 10
4.7890790911
 20
3.0577883878
 30
0.0
 10
4.7889290487
 20
3.0570794284
 30
0.0
 10
4.7888500051
 20
3.0567598263
 30
0.0
  0
SPLINE
  5
3EB
100
AcDbEntity
  8
0
100
AcDbSpline
 62
7
  6
CONTINUOUS
 70
0
 71
3
 72
17
 73
13
 74
0
 42
0.0000001
 43
0.0000001
 44
0.0000000001
 40
0.0
 40
0.0
 40
0.0
 40
0.0
 40
0.1212492455
 40
0.2433962068
 40
0.3665840824
 40
0.428656869
 40
0.4910501394
 40
0.6167150323
 40
0.7436010756
 40
0.8074836718
 40
0.8715723608
 40
1.0
 40
1.0
 40
1.0
 40
1.0
 10
4.8092598392
 20
3.0567598263
 30
0.0
 10
4.808649966
 20
3.0570491145
 30
0.0
 10
4.8074553205
 20
3.0576952403
 30
0.0
 10
4.8057774829
 20
3.0588646278
 30
0.0
 10
4.8044989342
 20
3.0600098076
 30
0.0
 10
4.803566557
 20
3.0610267045
 30
0.0
 10
4.8026971469
 20
3.0621156569
 30
0.0
 10
4.8017517126
 20
3.0636001194
 30
0.0
 10
4.8010391049
 20
3.0652196962
 30
0.0
 10
4.8006279875
 20
3.0665791898
 30
0.0
 10
4.8003283721
 20
3.0679759615
 30
0.0
 10
4.8002366516
 20
3.0690505583
 30
0.0
 10
4.8002366516
 20
3.069765527
 30
0.0
  0
SPLINE
  5
3EC
100
AcDbEntity
  8
0
100
AcDbSpline
 62
7
  6
CONTINUOUS
 70
0
 71
3
 72
15
 73
11
 74
0
 42
0.0000001
 43
0.0000001
 44
0.0000000001
 40
0.0
 40
0.0
 40
0.0
 40
0.0
 40
0.1614427903
 40
0.3178798956
 40
0.4651466675
 40
0.6002994209
 40
0.7216781743
 40
0.8286295992
 40
0.921230321
 40
1.0
 40
1.0
 40
1.0
 40
1.0
 10
4.8112606674
 20
3.069765527
 30
0.0
 10
4.8112606674
 20
3.0690530012
 30
0.0
 10
4.8112344847
 20
3.0676498935
 30
0.0
 10
4.811118513
 20
3.0655997664
 30
0.0
 10
4.810932894
 20
3.0636712491
 30
0.0
 10
4.8106870797
 20
3.0619055296
 30
0.0
 10
4.8103914519
 20
3.0603281138
 30
0.0
 10
4.8100559275
 20
3.0589511357
 30
0.0
 10
4.8096892634
 20
3.0577778529
 30
0.0
 10
4.809407064
 20
3.0570747623
 30
0.0
 10
4.8092598392
 20
3.0567598263
 30
0.0
  0
SPLINE
  5
3ED
100
AcDbEntity
  8
0
100
AcDbSpline
 62
7
  6
CONTINUOUS
 70
0
 71
3
 72
15
 73
11
 74
0
 42
0.0000001
 43
0.0000001
 44
0.0000000001
 40
0.0
 40
0.0
 40
0.0
 40
0.0
 40
0.119037834
 40
0.2395158519
 40
0.3616781356
 40
0.4857673735
 40
0.611882672
 40
0.73993115
 40
0.8695236867
 40
1.0
 40
1.0
 40
1.0
 40
1.0
 10
4.830770456
 20
3.0567598263
 30
0.0
 10
4.8301863403
 20
3.0570496998
 30
0.0
 10
4.8290417769
 20
3.0576976844
 30
0.0
 10
4.8274376571
 20
3.0588681505
 30
0.0
 10
4.8259682144
 20
3.0602460066
 30
0.0
 10
4.8246716272
 20
3.0618288041
 30
0.0
 10
4.8235913489
 20
3.0636053962
 30
0.0
 10
4.8227737902
 20
3.065551086
 30
0.0
 10
4.8222619756
 20
3.0676234362
 30
0.0
 10
4.8221458067
 20
3.0690507799
 30
0.0
 10
4.8221458067
 20
3.069765527
 30
0.0
  0
SPLINE
  5
3EE
100
AcDbEntity
  8
0
100
AcDbSpline
 62
7
  6
CONTINUOUS
 70
0
 71
3
 72
15
 73
11
 74
0
 42
0.0000001
 43
0.0000001
 44
0.0000000001
 40
0.0
 40
0.0
 40
0.0
 40
0.0
 40
0.1584273594
 40
0.3121948359
 40
0.4574482893
 40
0.5915039015
 40
0.7129151841
 40
0.8212158963
 40
0.9166691046
 40
1.0
 40
1.0
 40
1.0
 40
1.0
 10
4.8336943008
 20
3.069765527
 30
0.0
 10
4.8336943008
 20
3.0690528575
 30
0.0
 10
4.8336559679
 20
3.0676481638
 30
0.0
 10
4.833486213
 20
3.0655963564
 30
0.0
 10
4.8332144691
 20
3.0636660972
 30
0.0
 10
4.8328544928
 20
3.0618985619
 30
0.0
 10
4.8324213645
 20
3.0603191703
 30
0.0
 10
4.8319293599
 20
3.0589399488
 30
0.0
 10
4.8313910907
 20
3.0577641814
 30
0.0
 10
4.830981903
 20
3.0570693532
 30
0.0
 10
4.830770456
 20
3.0567598263
 30
0.0
  0
SPLINE
  5
3EF
100
AcDbEntity
  8
0
100
AcDbSpline
 62
7
  6
CONTINUOUS
 70
0
 71
3
 72
15
 73
11
 74
0
 42
0.0000001
 43
0.0000001
 44
0.0000000001
 40
0.0
 40
0.0
 40
0.0
 40
0.0
 40
0.1162516886
 40
0.2346374156
 40
0.3555204621
 40
0.479230295
 40
0.6058946816
 40
0.7353573811
 40
0.8670465919
 40
1.0
 40
1.0
 40
1.0
 40
1.0
 10
4.8531746966
 20
3.0567598263
 30
0.0
 10
4.8526216943
 20
3.05705049
 30
0.0
 10
4.8515376824
 20
3.0577009685
 30
0.0
 10
4.8500228855
 20
3.058872604
 30
0.0
 10
4.8486356901
 20
3.0602515546
 30
0.0
 10
4.8474122333
 20
3.0618350749
 30
0.0
 10
4.8463934878
 20
3.0636116546
 30
0.0
 10
4.8456230126
 20
3.065556247
 30
0.0
 10
4.8451409667
 20
3.0676264358
 30
0.0
 10
4.8450316457
 20
3.0690510344
 30
0.0
 10
4.8450316457
 20
3.069765527
 30
0.0
  0
SPLINE
  5
3F0
100
AcDbEntity
  8
0
100
AcDbSpline
 62
7
  6
CONTINUOUS
 70
0
 71
3
 72
15
 73
11
 74
0
 42
0.0000001
 43
0.0000001
 44
0.0000000001
 40
0.0
 40
0.0
 40
0.0
 40
0.0
 40
0.1547769635
 40
0.3053276716
 40
0.4481839374
 40
0.5809772256
 40
0.7025063186
 40
0.812497975
 40
0.9113761142
 40
1.0
 40
1.0
 40
1.0
 40
1.0
 10
4.8569933999
 20
3.069765527
 30
0.0
 10
4.8569933999
 20
3.0690526669
 30
0.0
 10
4.8569432103
 20
3.0676458721
 30
0.0
 10
4.8567210163
 20
3.0655918899
 30
0.0
 10
4.8563652807
 20
3.0636594819
 30
0.0
 10
4.8558939296
 20
3.061889885
 30
0.0
 10
4.8553265864
 20
3.0603085064
 30
0.0
 10
4.8546817763
 20
3.0589274238
 30
0.0
 10
4.8539759035
 20
3.0577501115
 30
0.0
 10
4.8534464385
 20
3.0570643997
 30
0.0
 10
4.8531746966
 20
3.0567598263
 30
0.0
  0
ENDSEC
  0
SECTION
  2
OBJECTS
  0
DICTIONARY
  5
C
100
AcDbDictionary
280
0
281
1
  3
ACAD_GROUP
350
D
  3
ACAD_MLINESTYLE
350
17
  3
ACAD_LAYOUT
350
1A
  3
ACAD_PLOTSETTINGS
350
19
  3
ACAD_PLOTSTYLENAME
350
E
  0
DICTIONARY
  5
D
102
{ACAD_REACTORS
330
C
102
}
100
AcDbDictionary
280
0
281
1
  0
ACDBDICTIONARYWDFLT
  5
E
102
{ACAD_REACTORS
330
C
102
}
100
AcDbDictionary
281
1
  3
Normal
350
F
100
AcDbDictionaryWithDefault
340
F
  0
DICTIONARY
  5
17
102
{ACAD_REACTORS
330
C
102
}
100
AcDbDictionary
280
0
281
1
  3
Standard
350
18
  0
DICTIONARY
  5
19
102
{ACAD_REACTORS
330
C
102
}
100
AcDbDictionary
281
1
  0
DICTIONARY
  5
1A
102
{ACAD_REACTORS
330
C
102
}
100
AcDbDictionary
281
1
  3
Model
350
3F1
  3
Layout1
350
3F2
  0
ACDBPLACEHOLDER
  5
F
102
{ACAD_REACTORS
330
E
102
}
  0
MLINESTYLE
  5
18
102
{ACAD_REACTORS
330
17
102
}
100
AcDbMlineStyle
  2
STANDARD
 70
0
  3

 62
256
 51
90.0
 52
90.0
 71
2
 49
0.5
 62
256
  6
BYLAYER
 49
-0.5
 62
256
  6
BYLAYER
  0
LAYOUT
  5
3F1
102
{ACAD_REACTORS
330
1A
102
}
100
AcDbPlotSettings
  1

  2
none_device
  4
ANSI_A_(11.00_x_8.50_Inches)
  6

 40
0.0
 41
0.0
 42
0.0
 43
0.0
 44
279.4
 45
215.9
 46
0.0
 47
0.0
 48
0.0
 49
0.0
140
0.0
141
0.0
142
1.0
143
1.0
 70
1024
 72
0
 73
0
 74
0
  7

 75
0
147
1.0
148
0.0
149
0.0
100
AcDbLayout
  1
Model
 70
0
 71
0
 10
0.0
 20
0.0
 11
11.0
 21
8.5
 12
0.0
 22
0.0
 32
0.0
 14
0.0
 24
0.0
 34
0.0
 15
0.0
 25
0.0
 35
0.0
146
0.0
 13
0.0
 23
0.0
 33
0.0
 16
1.0
 26
0.0
 36
0.0
 17
0.0
 27
1.0
 37
0.0
 76
0
330
202
345
0
346
0
  0
LAYOUT
  5
3F2
102
{ACAD_REACTORS
330
1A
102
}
100
AcDbPlotSettings
  1

  2
none_device
  4
ANSI_A_(11.00_x_8.50_Inches)
  6

 40
0.0
 41
0.0
 42
0.0
 43
0.0
 44
279.4
 45
215.9
 46
0.0
 47
0.0
 48
0.0
 49
0.0
140
0.0
141
0.0
142
1.0
143
1.0
 70
0
 72
0
 73
0
 74
0
  7

 75
0
147
1.0
148
0.0
149
0.0
100
AcDbLayout
  1
Layout1
 70
0
 71
1
 10
0.0
 20
0.0
 11
11.0
 21
8.5
 12
0.0
 22
0.0
 32
0.0
 14
0.0
 24
0.0
 34
0.0
 15
0.0
 25
0.0
 35
0.0
146
0.0
 13
0.0
 23
0.0
 33
0.0
 16
1.0
 26
0.0
 36
0.0
 17
0.0
 27
1.0
 37
0.0
 76
0
330
203
345
0
346
0
  0
ENDSEC
  0
EOF
