999
DXF file: 3-667_front.dxf
999
Pro/ENGINEER 2018400 by Parametric Technology Corporation
  0
SECTION
  2
HEADER
  9
$ACADVER
  1
AC1027
  9
$DWGCODEPAGE
  3
ANSI_1252
  9
$EXTMAX
 10
11.0
 20
8.5
 30
0.0
  9
$EXTMIN
 10
0.0
 20
0.0
 30
0.0
  9
$LIMMIN
 10
0.0
 20
0.0
  9
$LIMMAX
 10
11.0
 20
8.5
  9
$VIEWCTR
 10
5.5
 20
4.25
  9
$VIEWSIZE
 40
8.5
  9
$CLAYER
  8
0
  9
$LTSCALE
 40
0.605
  9
$CELTYPE
  6
BYLAYER
  9
$DIMSCALE
 40
1.0
  9
$DIMASZ
 40
0.1
  9
$DIMEXO
 40
0.0625
  9
$DIMDLI
 40
0.418
  9
$DIMEXE
 40
0.125
  9
$DIMCEN
 40
0.099
  9
$DIMLFAC
 40
1.0
  9
$DIMBLK
  1
_FILLED
  9
$DIMALT
 70
1
  9
$DIMALTD
 70
2
  9
$DIMALTTD
 70
2
  9
$DIMALTF
 40
25.4
  9
$DIMTXT
 40
0.08
  9
$DIMTOL
 70
1
  9
$DIMLIM
 70
0
  9
$DIMTFAC
 40
1.0
  9
$DIMTP
 40
0.001
  9
$DIMTM
 40
0.001
  9
$DIMGAP
 40
0.09
  9
$DIMDSEP
 70
46
  9
$AUNITS
 70
0
  9
$PDMODE
 70
3
  9
$PDSIZE
 40
0.3125
  9
$HANDSEED
  5
305
  9
$TILEMODE
 70
1
  9
$MEASUREMENT
 70
0
  9
$INSUNITS
 70
1
  0
ENDSEC
  0
SECTION
  2
CLASSES
  0
CLASS
  1
ACDBDICTIONARYWDFLT
  2
AcDbDictionaryWithDefault
  3
AutoCAD 2000
 90
0
 91
1
280
0
281
0
  0
CLASS
  1
ACDBPLACEHOLDER
  2
AcDbPlaceHolder
  3
AutoCAD 2000
 90
0
 91
1
280
0
281
0
  0
CLASS
  1
LAYOUT
  2
AcDbLayout
  3
AutoCAD 2000
 90
0
 91
0
280
0
281
0
  0
ENDSEC
  0
SECTION
  2
TABLES
  0
TABLE
  2
VPORT
  5
8
100
AcDbSymbolTable
 70
2
  0
VPORT
  5
1F4
100
AcDbSymbolTableRecord
100
AcDbViewportTableRecord
  2
*ACTIVE
 70
0
 10
0.0
 20
0.0
 11
1.0
 21
1.0
 12
5.5
 22
4.25
 13
0.0
 23
0.0
 14
1.0
 24
1.0
 15
0.0
 25
0.0
 16
0.0
 26
0.0
 36
1.0
 17
0.0
 27
0.0
 37
0.0
 40
8.5
 41
1.2941176471
 42
50.0
 43
0.0
 44
0.0
 50
0.0
 51
0.0
 71
0
 72
100
 73
1
 74
1
 75
0
 76
0
 77
0
 78
0
  0
ENDTAB
  0
TABLE
  2
LTYPE
  5
5
100
AcDbSymbolTable
 70
6
  0
LTYPE
  5
14
100
AcDbSymbolTableRecord
100
AcDbLinetypeTableRecord
  2
BYBLOCK
 70
0
  3

 72
65
 73
0
 40
0.0
  0
LTYPE
  5
15
100
AcDbSymbolTableRecord
100
AcDbLinetypeTableRecord
  2
BYLAYER
 70
0
  3

 72
65
 73
0
 40
0.0
  0
LTYPE
  5
16
100
AcDbSymbolTableRecord
100
AcDbLinetypeTableRecord
  2
CONTINUOUS
 70
64
  3
Solid line
 72
65
 73
0
 40
0.0
  0
LTYPE
  5
1F5
100
AcDbSymbolTableRecord
100
AcDbLinetypeTableRecord
  2
CENTER
 70
64
  3
____ _ ____ _ ____ _ ____ _ ____ _ ____ _ ____
 72
65
 73
4
 40
0.6
 49
0.375
 74
0
 49
-0.075
 74
0
 49
0.075
 74
0
 49
-0.075
 74
0
  0
LTYPE
  5
1F6
100
AcDbSymbolTableRecord
100
AcDbLinetypeTableRecord
  2
HIDDEN
 70
64
  3
- - - - - - - - - - - - - - - - - - - -
 72
65
 73
2
 40
0.2
 49
0.1
 74
0
 49
-0.1
 74
0
  0
LTYPE
  5
1F7
100
AcDbSymbolTableRecord
100
AcDbLinetypeTableRecord
  2
PHANTOM
 70
64
  3
_____ _ _ _____ _ _ _____ _ _ _____
 72
65
 73
6
 40
0.8
 49
0.45
 74
0
 49
-0.05
 74
0
 49
0.1
 74
0
 49
-0.05
 74
0
 49
0.1
 74
0
 49
-0.05
 74
0
  0
LTYPE
  5
1F8
100
AcDbSymbolTableRecord
100
AcDbLinetypeTableRecord
  2
DOT
 70
64
  3
. . . . . . . . . . . . . . . . . . . .
 72
65
 73
2
 40
0.2
 49
0.1
 74
0
 49
-0.1
 74
0
  0
LTYPE
  5
1F9
100
AcDbSymbolTableRecord
100
AcDbLinetypeTableRecord
  2
DASHED
 70
64
  3
- - - - - - - - - - - - - - - - - - - -
 72
65
 73
2
 40
0.2
 49
0.1
 74
0
 49
-0.1
 74
0
  0
ENDTAB
  0
TABLE
  2
LAYER
  5
2
100
AcDbSymbolTable
 70
36
  0
LAYER
  5
10
100
AcDbSymbolTableRecord
100
AcDbLayerTableRecord
  2
0
 70
0
 62
7
  6
CONTINUOUS
370
-3
390
F
  0
LAYER
  5
1FA
100
AcDbSymbolTableRecord
100
AcDbLayerTableRecord
  2
DEFAULT_1
 70
0
 62
7
  6
CENTER
370
-3
390
F
  0
LAYER
  5
1FB
100
AcDbSymbolTableRecord
100
AcDbLayerTableRecord
  2
DEFAULT_2
 70
0
 62
8
  6
HIDDEN
370
-3
390
F
  0
LAYER
  5
1FC
100
AcDbSymbolTableRecord
100
AcDbLayerTableRecord
  2
DEFAULT_3
 70
0
 62
7
  6
PHANTOM
370
-3
390
F
  0
LAYER
  5
1FD
100
AcDbSymbolTableRecord
100
AcDbLayerTableRecord
  2
ALL_ASSEMBLY_MEMBERS
 70
0
 62
7
  6
CONTINUOUS
370
-3
390
F
  0
LAYER
  5
1FE
100
AcDbSymbolTableRecord
100
AcDbLayerTableRecord
  2
ALL_FEATURES
 70
0
 62
7
  6
CONTINUOUS
370
-3
390
F
  0
LAYER
  5
1FF
100
AcDbSymbolTableRecord
100
AcDbLayerTableRecord
  2
AXES_FEATURES
 70
0
 62
7
  6
CONTINUOUS
370
-3
390
F
  0
LAYER
  5
200
100
AcDbSymbolTableRecord
100
AcDbLayerTableRecord
  2
CHAMFER_FEATURES
 70
0
 62
7
  6
CONTINUOUS
370
-3
390
F
  0
LAYER
  5
201
100
AcDbSymbolTableRecord
100
AcDbLayerTableRecord
  2
CUT_FEATURES
 70
0
 62
7
  6
CONTINUOUS
370
-3
390
F
  0
LAYER
  5
202
100
AcDbSymbolTableRecord
100
AcDbLayerTableRecord
  2
DATUM_CURVES
 70
0
 62
7
  6
CONTINUOUS
370
-3
390
F
  0
LAYER
  5
203
100
AcDbSymbolTableRecord
100
AcDbLayerTableRecord
  2
DATUM_PLANES
 70
0
 62
7
  6
CONTINUOUS
370
-3
390
F
  0
LAYER
  5
204
100
AcDbSymbolTableRecord
100
AcDbLayerTableRecord
  2
DATUM_POINTS
 70
0
 62
7
  6
CONTINUOUS
370
-3
390
F
  0
LAYER
  5
205
100
AcDbSymbolTableRecord
100
AcDbLayerTableRecord
  2
DEFAULT_COORDINATE_SYSTEM
 70
0
 62
7
  6
CONTINUOUS
370
-3
390
F
  0
LAYER
  5
206
100
AcDbSymbolTableRecord
100
AcDbLayerTableRecord
  2
DEFAULT_DATUM_AXES
 70
0
 62
7
  6
CONTINUOUS
370
-3
390
F
  0
LAYER
  5
207
100
AcDbSymbolTableRecord
100
AcDbLayerTableRecord
  2
DEFAULT_DATUM_PLANES
 70
0
 62
7
  6
CONTINUOUS
370
-3
390
F
  0
LAYER
  5
208
100
AcDbSymbolTableRecord
100
AcDbLayerTableRecord
  2
DIMENSIONS
 70
0
 62
7
  6
CONTINUOUS
370
-3
390
F
  0
LAYER
  5
209
100
AcDbSymbolTableRecord
100
AcDbLayerTableRecord
  2
HOLE_FEATURES
 70
0
 62
7
  6
CONTINUOUS
370
-3
390
F
  0
LAYER
  5
20A
100
AcDbSymbolTableRecord
100
AcDbLayerTableRecord
  2
PART_REFERENCE_DIMENSIONS
 70
0
 62
7
  6
CONTINUOUS
370
-3
390
F
  0
LAYER
  5
20B
100
AcDbSymbolTableRecord
100
AcDbLayerTableRecord
  2
POINTS
 70
0
 62
7
  6
CONTINUOUS
370
-3
390
F
  0
LAYER
  5
20C
100
AcDbSymbolTableRecord
100
AcDbLayerTableRecord
  2
PROTRUSION_FEATURES
 70
0
 62
7
  6
CONTINUOUS
370
-3
390
F
  0
LAYER
  5
20D
100
AcDbSymbolTableRecord
100
AcDbLayerTableRecord
  2
REFERENCE_DIMENSIONS
 70
0
 62
7
  6
CONTINUOUS
370
-3
390
F
  0
LAYER
  5
20E
100
AcDbSymbolTableRecord
100
AcDbLayerTableRecord
  2
ROUND_FEATURES
 70
0
 62
7
  6
CONTINUOUS
370
-3
390
F
  0
ENDTAB
  0
TABLE
  2
STYLE
  5
3
100
AcDbSymbolTable
 70
1
  0
STYLE
  5
11
100
AcDbSymbolTableRecord
100
AcDbTextStyleTableRecord
  2
STANDARD
 70
0
 40
0.0
 41
0.8
 50
0.0
 71
0
 42
0.2
  3
txt
  4

  0
STYLE
  5
20F
100
AcDbSymbolTableRecord
100
AcDbTextStyleTableRecord
  2
TEXTSTYLE_1
 70
0
 40
0.0
 41
0.8
 50
0.0
 71
0
 42
0.2
  3
gdt
  4

  0
ENDTAB
  0
TABLE
  2
VIEW
  5
6
100
AcDbSymbolTable
 70
0
  0
ENDTAB
  0
TABLE
  2
UCS
  5
7
100
AcDbSymbolTable
 70
0
  0
ENDTAB
  0
TABLE
  2
APPID
  5
9
100
AcDbSymbolTable
 70
1
  0
APPID
  5
210
100
AcDbSymbolTableRecord
100
AcDbRegAppTableRecord
  2
ACAD
 70
0
  0
ENDTAB
  0
TABLE
  2
BLOCK_RECORD
  5
1
100
AcDbSymbolTable
 70
0
  0
BLOCK_RECORD
  5
211
100
AcDbSymbolTableRecord
100
AcDbBlockTableRecord
  2
*Model_Space
  0
BLOCK_RECORD
  5
212
100
AcDbSymbolTableRecord
100
AcDbBlockTableRecord
  2
*Paper_Space
  0
BLOCK_RECORD
  5
213
100
AcDbSymbolTableRecord
100
AcDbBlockTableRecord
  2
_FILLED
  0
ENDTAB
  0
TABLE
  2
DIMSTYLE
  5
A
100
AcDbSymbolTable
 70
1
100
AcDbDimStyleTable
 71
0
  0
DIMSTYLE
105
214
100
AcDbSymbolTableRecord
100
AcDbDimStyleTableRecord
  2
STANDARD
 70
0
  3

  4

 40
1.0
 41
0.1
 42
0.0625
 43
0.38
 44
0.125
 45
0.0
 46
0.0
 47
0.001
 48
0.001
140
0.08
141
0.09
142
0.0
143
25.4
144
1.0
145
0.0
146
1.0
147
0.09
 71
1.0
 72
0.0
 73
1
 74
1
 75
0
 76
0
 77
0
 78
4
 79
1
170
1
171
2
172
0
173
0
174
0
175
0
176
0
177
0
178
0
270
2
179
3
271
3
272
3
273
2
274
2
275
0
280
0
281
0
282
0
283
1
284
4
285
0
286
0
287
3
288
0
340
11
278
46
341
213
342
213
343
213
344
213
  0
ENDTAB
  0
ENDSEC
  0
SECTION
  2
BLOCKS
  0
BLOCK
  5
20
100
AcDbEntity
  8
0
100
AcDbBlockBegin
  2
*Model_Space
 70
0
 10
0.0
 20
0.0
 30
0.0
  3
*Model_Space
  1

  0
ENDBLK
  5
21
100
AcDbEntity
  8
0
100
AcDbBlockEnd
  0
BLOCK
  5
1C
100
AcDbEntity
  8
0
100
AcDbBlockBegin
  2
*Paper_Space
 70
0
 10
0.0
 20
0.0
 30
0.0
  3
*Paper_Space
  1

  0
ENDBLK
  5
1D
100
AcDbEntity
  8
0
100
AcDbBlockEnd
  0
BLOCK
  5
215
100
AcDbEntity
  8
0
100
AcDbBlockBegin
  2
_FILLED
 70
64
 10
0.0
 20
0.0
  3
_FILLED
  1

  0
SOLID
  5
216
100
AcDbEntity
  8
0
  6
BYBLOCK
 62
0
100
AcDbTrace
 10
0.0
 20
0.0
 11
-1.0
 21
0.2
 12
-1.0
 22
-0.2
 13
-1.0
 23
-0.2
  0
ENDBLK
  5
217
100
AcDbEntity
  8
0
  6
BYBLOCK
 62
0
100
AcDbBlockEnd
  0
ENDSEC
  0
SECTION
  2
ENTITIES
  0
MTEXT
  5
218
100
AcDbEntity
  8
0
100
AcDbMText
 62
2
  6
CONTINUOUS
  7
STANDARD
 71
3
 72
1
 10
5.2232919255
 20
2.4556897384
 30
0.0
 11
1.0
 21
0.0
 31
0.0
 73
2
 44
0.9
  1
SCALE  .500
 40
0.08
 41
0.704
  0
LINE
  5
219
100
AcDbEntity
  8
0
100
AcDbLine
 62
7
  6
CONTINUOUS
 10
0.0
 20
0.0
 11
0.0
 21
8.5
  0
LINE
  5
21A
100
AcDbEntity
  8
0
100
AcDbLine
 62
7
  6
CONTINUOUS
 10
0.0
 20
0.0
 11
11.0
 21
0.0
  0
LINE
  5
21B
100
AcDbEntity
  8
0
100
AcDbLine
 62
7
  6
CONTINUOUS
 10
0.0
 20
8.5
 11
11.0
 21
8.5
  0
LINE
  5
21C
100
AcDbEntity
  8
0
100
AcDbLine
 62
7
  6
CONTINUOUS
 10
11.0
 20
0.0
 11
11.0
 21
8.5
  0
LINE
  5
21D
100
AcDbEntity
  8
ALL_FEATURES
100
AcDbLine
 62
7
  6
CONTINUOUS
 10
4.70632845
 20
5.6666846655
 11
4.4082065732
 21
5.4945639197
  0
LINE
  5
21E
100
AcDbEntity
  8
ALL_ASSEMBLY_MEMBERS
100
AcDbLine
 62
7
  6
CONTINUOUS
 10
4.4909023794
 20
4.2277144411
 11
4.49019095
 21
4.2286509408
  0
LINE
  5
21F
100
AcDbEntity
  8
ALL_FEATURES
100
AcDbLine
 62
7
  6
CONTINUOUS
 10
4.2947593168
 20
5.2980956458
 11
4.2947593168
 21
4.9538163827
  0
LINE
  5
220
100
AcDbEntity
  8
ALL_ASSEMBLY_MEMBERS
100
AcDbLine
 62
7
  6
CONTINUOUS
 10
4.5813881522
 20
4.2514814002
 11
4.5817533147
 21
4.2515678803
  0
LINE
  5
221
100
AcDbEntity
  8
ALL_ASSEMBLY_MEMBERS
100
AcDbLine
 62
7
  6
CONTINUOUS
 10
4.581377953
 20
4.2514827535
 11
4.5817533147
 21
4.2515678803
  0
LINE
  5
222
100
AcDbEntity
  8
ALL_ASSEMBLY_MEMBERS
100
AcDbLine
 62
7
  6
CONTINUOUS
 10
4.5197593168
 20
4.2198547865
 11
4.5197593168
 21
3.9219504412
  0
LINE
  5
223
100
AcDbEntity
  8
ALL_FEATURES
100
AcDbLine
 62
7
  6
CONTINUOUS
 10
4.5697593168
 20
5.1259562244
 11
4.5697593168
 21
4.4102567733
  0
LINE
  5
224
100
AcDbEntity
  8
ALL_FEATURES
100
AcDbLine
 62
7
  6
CONTINUOUS
 10
4.4081891024
 20
4.7573586158
 11
4.5697593168
 21
4.664076009
  0
LINE
  5
225
100
AcDbEntity
  8
ALL_ASSEMBLY_MEMBERS
100
AcDbLine
 62
7
  6
CONTINUOUS
 10
4.591796506
 20
4.3253182007
 11
4.591796506
 21
4.2767620849
  0
LINE
  5
226
100
AcDbEntity
  8
ALL_ASSEMBLY_MEMBERS
100
AcDbLine
 62
7
  6
CONTINUOUS
 10
4.6097577415
 20
4.3280656881
 11
4.6097577415
 21
4.2795095723
  0
LINE
  5
227
100
AcDbEntity
  8
ALL_ASSEMBLY_MEMBERS
100
AcDbLine
 62
7
  6
CONTINUOUS
 10
4.6288138644
 20
4.3305809541
 11
4.6288138644
 21
4.2820248383
  0
LINE
  5
228
100
AcDbEntity
  8
ALL_ASSEMBLY_MEMBERS
100
AcDbLine
 62
7
  6
CONTINUOUS
 10
4.6488655217
 20
4.3328508847
 11
4.6488655217
 21
4.2842947689
  0
LINE
  5
229
100
AcDbEntity
  8
ALL_ASSEMBLY_MEMBERS
100
AcDbLine
 62
7
  6
CONTINUOUS
 10
4.6698081698
 20
4.3348636453
 11
4.6698081698
 21
4.2863075295
  0
LINE
  5
22A
100
AcDbEntity
  8
ALL_ASSEMBLY_MEMBERS
100
AcDbLine
 62
7
  6
CONTINUOUS
 10
5.1426480906
 20
4.2974024876
 11
5.1424918819
 21
4.2975520167
  0
LINE
  5
22B
100
AcDbEntity
  8
ALL_ASSEMBLY_MEMBERS
100
AcDbLine
 62
7
  6
CONTINUOUS
 10
4.6915326199
 20
4.3366087418
 11
4.6915326199
 21
4.288052626
  0
LINE
  5
22C
100
AcDbEntity
  8
ALL_ASSEMBLY_MEMBERS
100
AcDbLine
 62
7
  6
CONTINUOUS
 10
4.7139256068
 20
4.3380770759
 11
4.7139256068
 21
4.2895209601
  0
LINE
  5
22D
100
AcDbEntity
  8
ALL_ASSEMBLY_MEMBERS
100
AcDbLine
 62
7
  6
CONTINUOUS
 10
4.73687038
 20
4.339260992
 11
4.73687038
 21
4.2907048762
  0
LINE
  5
22E
100
AcDbEntity
  8
ALL_ASSEMBLY_MEMBERS
100
AcDbLine
 62
7
  6
CONTINUOUS
 10
5.1426564648
 20
4.2973774961
 11
5.1425033191
 21
4.2975345988
  0
LINE
  5
22F
100
AcDbEntity
  8
ALL_ASSEMBLY_MEMBERS
100
AcDbLine
 62
7
  6
CONTINUOUS
 10
4.7602473122
 20
4.3401543176
 11
4.7602473122
 21
4.2915982018
  0
LINE
  5
230
100
AcDbEntity
  8
ALL_ASSEMBLY_MEMBERS
100
AcDbLine
 62
7
  6
CONTINUOUS
 10
4.7839345227
 20
4.3407523951
 11
4.7839345227
 21
4.2921962793
  0
LINE
  5
231
100
AcDbEntity
  8
ALL_ASSEMBLY_MEMBERS
100
AcDbLine
 62
7
  6
CONTINUOUS
 10
4.8078085134
 20
4.3410521064
 11
4.8078085134
 21
4.2924959906
  0
LINE
  5
232
100
AcDbEntity
  8
ALL_ASSEMBLY_MEMBERS
100
AcDbLine
 62
7
  6
CONTINUOUS
 10
4.8317448121
 20
4.3410518888
 11
4.8317448121
 21
4.292495773
  0
LINE
  5
233
100
AcDbEntity
  8
ALL_ASSEMBLY_MEMBERS
100
AcDbLine
 62
7
  6
CONTINUOUS
 10
4.8556186219
 20
4.3407517434
 11
4.8556186219
 21
4.2921956276
  0
LINE
  5
234
100
AcDbEntity
  8
ALL_ASSEMBLY_MEMBERS
100
AcDbLine
 62
7
  6
CONTINUOUS
 10
4.8793054716
 20
4.3401532351
 11
4.8793054716
 21
4.2915971193
  0
LINE
  5
235
100
AcDbEntity
  8
ALL_ASSEMBLY_MEMBERS
100
AcDbLine
 62
7
  6
CONTINUOUS
 10
4.902681865
 20
4.3392594844
 11
4.902681865
 21
4.2907033686
  0
LINE
  5
236
100
AcDbEntity
  8
ALL_ASSEMBLY_MEMBERS
100
AcDbLine
 62
7
  6
CONTINUOUS
 10
4.9256259241
 20
4.3380751511
 11
4.9256259241
 21
4.2895190353
  0
LINE
  5
237
100
AcDbEntity
  8
ALL_ASSEMBLY_MEMBERS
100
AcDbLine
 62
7
  6
CONTINUOUS
 10
4.9480180254
 20
4.3366064098
 11
4.9480180254
 21
4.288050294
  0
LINE
  5
238
100
AcDbEntity
  8
ALL_ASSEMBLY_MEMBERS
100
AcDbLine
 62
7
  6
CONTINUOUS
 10
4.9697414229
 20
4.3348609182
 11
4.9697414229
 21
4.2863048024
  0
LINE
  5
239
100
AcDbEntity
  8
ALL_ASSEMBLY_MEMBERS
100
AcDbLine
 62
7
  6
CONTINUOUS
 10
4.9906828571
 20
4.3328477769
 11
4.9906828571
 21
4.2842916611
  0
LINE
  5
23A
100
AcDbEntity
  8
ALL_ASSEMBLY_MEMBERS
100
AcDbLine
 62
7
  6
CONTINUOUS
 10
5.0107331454
 20
4.3305774816
 11
5.0107331454
 21
4.2820213658
  0
LINE
  5
23B
100
AcDbEntity
  8
ALL_ASSEMBLY_MEMBERS
100
AcDbLine
 62
7
  6
CONTINUOUS
 10
5.0297877514
 20
4.3280618691
 11
5.0297877514
 21
4.2795057533
  0
LINE
  5
23C
100
AcDbEntity
  8
ALL_ASSEMBLY_MEMBERS
100
AcDbLine
 62
7
  6
CONTINUOUS
 10
5.0477473299
 20
4.3253140551
 11
5.0477473299
 21
4.2767579393
  0
LINE
  5
23D
100
AcDbEntity
  8
ALL_FEATURES
100
AcDbLine
 62
7
  6
CONTINUOUS
 10
5.0697593168
 20
5.1259562244
 11
5.0697593168
 21
4.4102544034
  0
LINE
  5
23E
100
AcDbEntity
  8
ALL_ASSEMBLY_MEMBERS
100
AcDbLine
 62
7
  6
CONTINUOUS
 10
5.1197593168
 20
4.2198547865
 11
5.1197593168
 21
3.9219504412
  0
LINE
  5
23F
100
AcDbEntity
  8
ALL_FEATURES
100
AcDbLine
 62
7
  6
CONTINUOUS
 10
5.0697593168
 20
4.664076009
 11
5.2313120604
 21
4.757348529
  0
LINE
  5
240
100
AcDbEntity
  8
ALL_FEATURES
100
AcDbLine
 62
7
  6
CONTINUOUS
 10
5.3447593168
 20
4.9538168029
 11
5.3447593168
 21
5.298096066
  0
LINE
  5
241
100
AcDbEntity
  8
ALL_ASSEMBLY_MEMBERS
100
AcDbLine
 62
7
  6
CONTINUOUS
 10
5.1486118774
 20
4.2277084611
 11
5.1493245518
 21
4.2286467795
  0
LINE
  5
242
100
AcDbEntity
  8
ALL_ASSEMBLY_MEMBERS
100
AcDbLine
 62
7
  6
CONTINUOUS
 10
5.1398732462
 20
4.2185807135
 11
5.1399804592
 21
4.2186790092
  0
LINE
  5
243
100
AcDbEntity
  8
ALL_ASSEMBLY_MEMBERS
100
AcDbLine
 62
7
  6
CONTINUOUS
 10
5.1398643534
 20
4.2185687339
 11
5.139973151
 21
4.2186624559
  0
LINE
  5
244
100
AcDbEntity
  8
ALL_FEATURES
100
AcDbLine
 62
7
  6
CONTINUOUS
 10
5.2313295311
 20
5.494553833
 11
4.9331724476
 21
5.6666949054
  0
ARC
  5
245
100
AcDbEntity
  8
ALL_ASSEMBLY_MEMBERS
100
AcDbCircle
 62
7
  6
CONTINUOUS
 10
4.6764156726
 20
3.8332402751
 40
0.4289043568
100
AcDbArc
 50
102.3814659224
 51
102.7505843526
  0
ARC
  5
246
100
AcDbEntity
  8
ALL_ASSEMBLY_MEMBERS
100
AcDbCircle
 62
7
  6
CONTINUOUS
 10
4.6724198038
 20
3.8508797378
 40
0.4108179582
100
AcDbArc
 50
102.8036827453
 51
102.9719763951
  0
ARC
  5
247
100
AcDbEntity
  8
ALL_ASSEMBLY_MEMBERS
100
AcDbCircle
 62
7
  6
CONTINUOUS
 10
4.6585270467
 20
3.9096726211
 40
0.3504070674
100
AcDbArc
 50
102.9162657185
 51
105.1851015595
  0
ARC
  5
248
100
AcDbEntity
  8
ALL_ASSEMBLY_MEMBERS
100
AcDbCircle
 62
7
  6
CONTINUOUS
 10
4.3543839861
 20
4.3825701095
 40
0.1844908359
100
AcDbArc
 50
338.7386308294
 51
357.949959205
  0
ARC
  5
249
100
AcDbEntity
  8
ALL_ASSEMBLY_MEMBERS
100
AcDbCircle
 62
7
  6
CONTINUOUS
 10
4.5453258167
 20
4.2468502851
 40
0.0700203959
100
AcDbArc
 50
127.572876275
 51
133.7560170332
  0
ARC
  5
24A
100
AcDbEntity
  8
ALL_ASSEMBLY_MEMBERS
100
AcDbCircle
 62
7
  6
CONTINUOUS
 10
4.5433991677
 20
4.2489450248
 40
0.0671749587
100
AcDbArc
 50
133.8047168524
 51
134.4435610789
  0
ARC
  5
24B
100
AcDbEntity
  8
ALL_ASSEMBLY_MEMBERS
100
AcDbCircle
 62
7
  6
CONTINUOUS
 10
4.5420229706
 20
4.2680678411
 40
0.065157399
100
AcDbArc
 50
223.280764148
 51
229.3318757721
  0
ARC
  5
24C
100
AcDbEntity
  8
ALL_ASSEMBLY_MEMBERS
100
AcDbCircle
 62
7
  6
CONTINUOUS
 10
4.5412617946
 20
4.2510977939
 40
0.0641414101
100
AcDbArc
 50
134.4269687868
 51
138.3842222678
  0
ARC
  5
24D
100
AcDbEntity
  8
ALL_ASSEMBLY_MEMBERS
100
AcDbCircle
 62
7
  6
CONTINUOUS
 10
4.5403853723
 20
4.2664681133
 40
0.0628685049
100
AcDbArc
 50
222.0712574662
 51
223.2425674679
  0
ARC
  5
24E
100
AcDbEntity
  8
ALL_ASSEMBLY_MEMBERS
100
AcDbCircle
 62
7
  6
CONTINUOUS
 10
4.5382698495
 20
4.2646125575
 40
0.0600548169
100
AcDbArc
 50
217.9200931682
 51
222.1095282788
  0
ARC
  5
24F
100
AcDbEntity
  8
ALL_ASSEMBLY_MEMBERS
100
AcDbCircle
 62
7
  6
CONTINUOUS
 10
4.5344253506
 20
4.2568454497
 40
0.0552027249
100
AcDbArc
 50
142.7010408391
 51
149.9601740032
  0
ARC
  5
250
100
AcDbEntity
  8
ALL_ASSEMBLY_MEMBERS
100
AcDbCircle
 62
7
  6
CONTINUOUS
 10
4.534348063
 20
4.2616726427
 40
0.0551520534
100
AcDbArc
 50
212.7630884709
 51
215.267487854
  0
ARC
  5
251
100
AcDbEntity
  8
ALL_ASSEMBLY_MEMBERS
100
AcDbCircle
 62
7
  6
CONTINUOUS
 10
4.5328550621
 20
4.260725742
 40
0.0533841361
100
AcDbArc
 50
209.1051360477
 51
212.7756444413
  0
ARC
  5
252
100
AcDbEntity
  8
ALL_ASSEMBLY_MEMBERS
100
AcDbCircle
 62
7
  6
CONTINUOUS
 10
4.531959599
 20
4.2602236602
 40
0.052357525
100
AcDbArc
 50
202.1754035843
 51
209.1017243618
  0
ARC
  5
253
100
AcDbEntity
  8
ALL_ASSEMBLY_MEMBERS
100
AcDbCircle
 62
7
  6
CONTINUOUS
 10
4.5271005163
 20
4.2602478968
 40
0.0477216419
100
AcDbArc
 50
211.9832228948
 51
216.5118859329
  0
ARC
  5
254
100
AcDbEntity
  8
ALL_ASSEMBLY_MEMBERS
100
AcDbCircle
 62
7
  6
CONTINUOUS
 10
4.5279629655
 20
4.2571292083
 40
0.047315067
100
AcDbArc
 50
217.0219087998
 51
218.438822589
  0
ARC
  5
255
100
AcDbEntity
  8
ALL_ASSEMBLY_MEMBERS
100
AcDbCircle
 62
7
  6
CONTINUOUS
 10
4.5277425379
 20
4.2569632505
 40
0.0470391499
100
AcDbArc
 50
216.0351422678
 51
217.0221795608
  0
ARC
  5
256
100
AcDbEntity
  8
ALL_ASSEMBLY_MEMBERS
100
AcDbCircle
 62
7
  6
CONTINUOUS
 10
4.5275591296
 20
4.2568299393
 40
0.0468124112
100
AcDbArc
 50
215.2154633326
 51
216.0352558174
  0
ARC
  5
257
100
AcDbEntity
  8
ALL_ASSEMBLY_MEMBERS
100
AcDbCircle
 62
7
  6
CONTINUOUS
 10
4.5245360432
 20
4.2614287406
 40
0.0442934487
100
AcDbArc
 50
151.7600265018
 51
156.7519735985
  0
ARC
  5
258
100
AcDbEntity
  8
ALL_ASSEMBLY_MEMBERS
100
AcDbCircle
 62
7
  6
CONTINUOUS
 10
4.5198133528
 20
4.2588570338
 40
0.0400454202
100
AcDbArc
 50
171.8148333508
 51
182.0662061769
  0
ARC
  5
259
100
AcDbEntity
  8
ALL_ASSEMBLY_MEMBERS
100
AcDbCircle
 62
7
  6
CONTINUOUS
 10
4.5149764189
 20
4.2532996161
 40
0.0340207956
100
AcDbArc
 50
195.3495762955
 51
202.2042470048
  0
ARC
  5
25A
100
AcDbEntity
  8
ALL_ASSEMBLY_MEMBERS
100
AcDbCircle
 62
7
  6
CONTINUOUS
 10
4.5134651104
 20
4.2689637948
 40
0.0309930147
100
AcDbArc
 50
149.9250060435
 51
154.3476409829
  0
ARC
  5
25B
100
AcDbEntity
  8
ALL_ASSEMBLY_MEMBERS
100
AcDbCircle
 62
7
  6
CONTINUOUS
 10
4.5106486444
 20
4.251069572
 40
0.0291376989
100
AcDbArc
 50
211.8157139429
 51
221.2597634263
  0
ARC
  5
25C
100
AcDbEntity
  8
ALL_ASSEMBLY_MEMBERS
100
AcDbCircle
 62
7
  6
CONTINUOUS
 10
4.5131685957
 20
4.2457619306
 40
0.0286631292
100
AcDbArc
 50
214.374222832
 51
215.0760087443
  0
ARC
  5
25D
100
AcDbEntity
  8
ALL_ASSEMBLY_MEMBERS
100
AcDbCircle
 62
7
  6
CONTINUOUS
 10
4.5128176
 20
4.2455134192
 40
0.0282330675
100
AcDbArc
 50
215.0726089643
 51
216.7087918079
  0
ARC
  5
25E
100
AcDbEntity
  8
ALL_ASSEMBLY_MEMBERS
100
AcDbCircle
 62
7
  6
CONTINUOUS
 10
4.9427772756
 20
3.7758809045
 40
0.5677702501
100
AcDbArc
 50
78.5847550557
 51
79.1747705767
  0
ARC
  5
25F
100
AcDbEntity
  8
ALL_ASSEMBLY_MEMBERS
100
AcDbCircle
 62
7
  6
CONTINUOUS
 10
4.9498539571
 20
3.8108790411
 40
0.5320638239
100
AcDbArc
 50
78.1536575247
 51
78.5858241289
  0
ARC
  5
260
100
AcDbEntity
  8
ALL_ASSEMBLY_MEMBERS
100
AcDbCircle
 62
7
  6
CONTINUOUS
 10
4.9543045531
 20
3.8321039255
 40
0.5103773414
100
AcDbArc
 50
77.933371109
 51
78.1535000852
  0
ARC
  5
261
100
AcDbEntity
  8
ALL_ASSEMBLY_MEMBERS
100
AcDbCircle
 62
7
  6
CONTINUOUS
 10
4.9652360878
 20
3.8436331288
 40
0.4182971134
100
AcDbArc
 50
76.1307595187
 51
78.3301827735
  0
ARC
  5
262
100
AcDbEntity
  8
ALL_ASSEMBLY_MEMBERS
100
AcDbCircle
 62
7
  6
CONTINUOUS
 10
4.9881407264
 20
3.9371112769
 40
0.3220539376
100
AcDbArc
 50
74.7637129576
 51
76.1004274101
  0
ARC
  5
263
100
AcDbEntity
  8
ALL_ASSEMBLY_MEMBERS
100
AcDbCircle
 62
7
  6
CONTINUOUS
 10
5.2850305722
 20
4.382548263
 40
0.1843850802
100
AcDbArc
 50
182.0444135084
 51
201.2651532138
  0
ARC
  5
264
100
AcDbEntity
  8
ALL_ASSEMBLY_MEMBERS
100
AcDbCircle
 62
7
  6
CONTINUOUS
 10
5.1019238578
 20
4.2640847894
 40
0.0592005582
100
AcDbArc
 50
318.4233465765
 51
322.0533921819
  0
ARC
  5
265
100
AcDbEntity
  8
ALL_ASSEMBLY_MEMBERS
100
AcDbCircle
 62
7
  6
CONTINUOUS
 10
5.1050121272
 20
4.261717452
 40
0.0553083455
100
AcDbArc
 50
324.7551530012
 51
327.253803799
  0
ARC
  5
266
100
AcDbEntity
  8
ALL_ASSEMBLY_MEMBERS
100
AcDbCircle
 62
7
  6
CONTINUOUS
 10
5.1056669898
 20
4.2612925341
 40
0.054527711
100
AcDbArc
 50
327.2571246606
 51
330.8921434808
  0
ARC
  5
267
100
AcDbEntity
  8
ALL_ASSEMBLY_MEMBERS
100
AcDbCircle
 62
7
  6
CONTINUOUS
 10
5.1062730839
 20
4.2609472826
 40
0.0538302143
100
AcDbArc
 50
330.8993924295
 51
331.8639459218
  0
ARC
  5
268
100
AcDbEntity
  8
ALL_ASSEMBLY_MEMBERS
100
AcDbCircle
 62
7
  6
CONTINUOUS
 10
5.1105776575
 20
4.2592748958
 40
0.04918236
100
AcDbArc
 50
349.7595232694
 51
357.7769872517
  0
ARC
  5
269
100
AcDbEntity
  8
ALL_ASSEMBLY_MEMBERS
100
AcDbCircle
 62
7
  6
CONTINUOUS
 10
5.1124190324
 20
4.2602428751
 40
0.0477199886
100
AcDbArc
 50
323.4851543289
 51
328.0154301426
  0
ARC
  5
26A
100
AcDbEntity
  8
ALL_ASSEMBLY_MEMBERS
100
AcDbCircle
 62
7
  6
CONTINUOUS
 10
5.111553553
 20
4.2571242491
 40
0.0473139302
100
AcDbArc
 50
321.5585065614
 51
322.9781760645
  0
ARC
  5
26B
100
AcDbEntity
  8
ALL_ASSEMBLY_MEMBERS
100
AcDbCircle
 62
7
  6
CONTINUOUS
 10
5.1117703808
 20
4.2569609593
 40
0.0470424937
100
AcDbArc
 50
322.977951124
 51
323.9321655421
  0
ARC
  5
26C
100
AcDbEntity
  8
ALL_ASSEMBLY_MEMBERS
100
AcDbCircle
 62
7
  6
CONTINUOUS
 10
5.1119512563
 20
4.2568293548
 40
0.0468188071
100
AcDbArc
 50
323.9320303611
 51
324.7602602907
  0
ARC
  5
26D
100
AcDbEntity
  8
ALL_ASSEMBLY_MEMBERS
100
AcDbCircle
 62
7
  6
CONTINUOUS
 10
5.114977682
 20
4.2614207406
 40
0.0443011204
100
AcDbArc
 50
23.2944410687
 51
28.2234325982
  0
ARC
  5
26E
100
AcDbEntity
  8
ALL_ASSEMBLY_MEMBERS
100
AcDbCircle
 62
7
  6
CONTINUOUS
 10
5.1197157552
 20
4.2588517448
 40
0.040034699
100
AcDbArc
 50
357.8630910317
 51
8.1446318944
  0
ARC
  5
26F
100
AcDbEntity
  8
ALL_ASSEMBLY_MEMBERS
100
AcDbCircle
 62
7
  6
CONTINUOUS
 10
5.1245354137
 20
4.2532935007
 40
0.0340247884
100
AcDbArc
 50
337.8318060431
 51
344.617821166
  0
ARC
  5
270
100
AcDbEntity
  8
ALL_ASSEMBLY_MEMBERS
100
AcDbCircle
 62
7
  6
CONTINUOUS
 10
5.1260419444
 20
4.268948082
 40
0.0310109102
100
AcDbArc
 50
25.6371238108
 51
29.9827561221
  0
ARC
  5
271
100
AcDbEntity
  8
ALL_ASSEMBLY_MEMBERS
100
AcDbCircle
 62
7
  6
CONTINUOUS
 10
5.1288679834
 20
4.2510617111
 40
0.0291365787
100
AcDbArc
 50
318.7431215564
 51
328.1870704302
  0
ARC
  5
272
100
AcDbEntity
  8
ALL_ASSEMBLY_MEMBERS
100
AcDbCircle
 62
7
  6
CONTINUOUS
 10
5.1263517585
 20
4.2457495978
 40
0.0286543689
100
AcDbArc
 50
324.8779893132
 51
325.6291303627
  0
ARC
  5
273
100
AcDbEntity
  8
ALL_ASSEMBLY_MEMBERS
100
AcDbCircle
 62
7
  6
CONTINUOUS
 10
5.1267010295
 20
4.2455020702
 40
0.0282262826
100
AcDbArc
 50
323.2990916351
 51
324.8810696348
  0
ARC
  5
274
100
AcDbEntity
  8
ALL_FEATURES
100
AcDbCircle
 62
7
  6
CONTINUOUS
 10
4.8197593168
 20
5.1259562244
 40
0.685
100
AcDbArc
 50
291.4087698808
 51
248.5912301192
  0
ARC
  5
275
100
AcDbEntity
  8
ALL_FEATURES
100
AcDbCircle
 62
7
  6
CONTINUOUS
 10
4.8197593168
 20
5.1259562244
 40
0.6713706144
100
AcDbArc
 50
291.8677256268
 51
248.1322800779
  0
ARC
  5
276
100
AcDbEntity
  8
ALL_FEATURES
100
AcDbCircle
 62
7
  6
CONTINUOUS
 10
4.8197593168
 20
5.1259562244
 40
0.6613899404
100
AcDbArc
 50
292.2153346718
 51
247.7846712824
  0
ARC
  5
277
100
AcDbEntity
  8
ALL_FEATURES
100
AcDbCircle
 62
7
  6
CONTINUOUS
 10
4.8197593168
 20
5.1259562244
 40
0.5890977069
100
AcDbArc
 50
295.1153123221
 51
244.8846876779
  0
ARC
  5
278
100
AcDbEntity
  8
ALL_FEATURES
100
AcDbCircle
 62
7
  6
CONTINUOUS
 10
4.8197593168
 20
5.1259562244
 40
0.5525
100
AcDbArc
 50
138.1533121441
 51
161.8466878559
  0
ARC
  5
279
100
AcDbEntity
  8
ALL_FEATURES
100
AcDbCircle
 62
7
  6
CONTINUOUS
 10
4.8197593168
 20
5.1259562244
 40
0.5525
100
AcDbArc
 50
78.1533121441
 51
101.8466878559
  0
ARC
  5
27A
100
AcDbEntity
  8
ALL_FEATURES
100
AcDbCircle
 62
7
  6
CONTINUOUS
 10
4.8197593168
 20
5.1259562244
 40
0.5525
100
AcDbArc
 50
18.1533121441
 51
41.8466878559
  0
ARC
  5
27B
100
AcDbEntity
  8
ALL_FEATURES
100
AcDbCircle
 62
7
  6
CONTINUOUS
 10
4.8197593168
 20
5.1259562244
 40
0.5525
100
AcDbArc
 50
198.1533121441
 51
221.8466878559
  0
ARC
  5
27C
100
AcDbEntity
  8
ALL_FEATURES
100
AcDbCircle
 62
7
  6
CONTINUOUS
 10
4.8197593168
 20
5.1259562244
 40
0.5525
100
AcDbArc
 50
318.1533121441
 51
341.8466878559
  0
ARC
  5
27D
100
AcDbEntity
  8
ALL_FEATURES
100
AcDbCircle
 62
7
  6
CONTINUOUS
 10
4.8197593168
 20
5.1259562244
 40
0.4825
100
AcDbArc
 50
301.2085462722
 51
238.7914537278
  0
ARC
  5
27E
100
AcDbEntity
  8
ALL_FEATURES
100
AcDbCircle
 62
7
  6
CONTINUOUS
 10
4.8197593168
 20
5.1259562244
 40
0.3991949516
100
AcDbArc
 50
308.7802273771
 51
231.2197726229
  0
ARC
  5
27F
100
AcDbEntity
  8
ALL_FEATURES
100
AcDbCircle
 62
7
  6
CONTINUOUS
 10
4.8197593168
 20
5.1259562244
 40
0.3575
100
AcDbArc
 50
314.3882446657
 51
225.6117553343
  0
ARC
  5
280
100
AcDbEntity
  8
ALL_FEATURES
100
AcDbCircle
 62
7
  6
CONTINUOUS
 10
4.8197593168
 20
5.1259562244
 40
0.3175
100
AcDbArc
 50
321.9571794448
 51
218.0428205552
  0
ARC
  5
281
100
AcDbEntity
  8
ALL_FEATURES
100
AcDbCircle
 62
7
  6
CONTINUOUS
 10
4.8197593168
 20
5.1259562244
 40
0.2868450182
100
AcDbArc
 50
330.6635465003
 51
209.3364534994
  0
ARC
  5
282
100
AcDbEntity
  8
ALL_FEATURES
100
AcDbCircle
 62
7
  6
CONTINUOUS
 10
4.8197593168
 20
5.1259562244
 40
0.2618450142
100
AcDbArc
 50
342.7505996139
 51
197.249115538
  0
ARC
  5
283
100
AcDbEntity
  8
ALL_FEATURES
100
AcDbCircle
 62
7
  6
CONTINUOUS
 10
4.8197593168
 20
5.1259562244
 40
0.25
100
AcDbArc
 50
0.0
 51
180.0
  0
SPLINE
  5
284
100
AcDbEntity
  8
ALL_ASSEMBLY_MEMBERS
100
AcDbSpline
 62
7
  6
CONTINUOUS
 70
0
 71
3
 72
41
 73
37
 74
0
 42
0.0000001
 43
0.0000001
 44
0.0000000001
 40
0.0
 40
0.0
 40
0.0
 40
0.0
 40
0.0877426776
 40
0.1746820939
 40
0.2599533589
 40
0.3427870823
 40
0.4224186173
 40
0.4981359212
 40
0.5343221097
 40
0.569295084
 40
0.6029847203
 40
0.6353317924
 40
0.6662860714
 40
0.6958003133
 40
0.7238465025
 40
0.7504112725
 40
0.7754883575
 40
0.7991104556
 40
0.8213362842
 40
0.8422590359
 40
0.8620549942
 40
0.87159787
 40
0.880954089
 40
0.8901749085
 40
0.8993161666
 40
0.9038760012
 40
0.9084390653
 40
0.9176111502
 40
0.9269207535
 40
0.9364765479
 40
0.9463644186
 40
0.9565376282
 40
0.9669461147
 40
0.977587348
 40
0.9885535696
 40
1.0
 40
1.0
 40
1.0
 40
1.0
 10
4.8197593168
 20
3.8533289514
 30
0.0
 10
4.8291954242
 20
3.8533289514
 30
0.0
 10
4.8479816661
 20
3.8534916396
 30
0.0
 10
4.8759296808
 20
3.8542215094
 30
0.0
 10
4.9033327966
 20
3.8554308168
 30
0.0
 10
4.9299240141
 20
3.857107492
 30
0.0
 10
4.9554520678
 20
3.8592364084
 30
0.0
 10
4.9759382477
 20
3.8614024374
 30
0.0
 10
4.9916122394
 20
3.8633612958
 30
0.0
 10
5.0027815939
 20
3.8649093382
 30
0.0
 10
5.0135193808
 20
3.8665558271
 30
0.0
 10
5.0238039783
 20
3.8682983113
 30
0.0
 10
5.033615866
 20
3.8701343928
 30
0.0
 10
5.0429384066
 20
3.8720621219
 30
0.0
 10
5.0517580771
 20
3.874081202
 30
0.0
 10
5.0600647215
 20
3.8761926599
 30
0.0
 10
5.0678537525
 20
3.8783980926
 30
0.0
 10
5.075125244
 20
3.8807059226
 30
0.0
 10
5.0818872378
 20
3.8831276758
 30
0.0
 10
5.0881585187
 20
3.8856823942
 30
0.0
 10
5.0930511387
 20
3.887988302
 30
0.0
 10
5.096725693
 20
3.8899429598
 30
0.0
 10
5.0993429563
 20
3.8914594707
 30
0.0
 10
5.1018591652
 20
3.8930594452
 30
0.0
 10
5.1038776896
 20
3.8944762078
 30
0.0
 10
5.1054429356
 20
3.8956631207
 30
0.0
 10
5.106979524
 20
3.8968922065
 30
0.0
 10
5.1088461676
 20
3.8985251664
 30
0.0
 10
5.1109733847
 20
3.9006660507
 30
0.0
 10
5.1129754091
 20
3.9030271865
 30
0.0
 10
5.1148259616
 20
3.9056245132
 30
0.0
 10
5.1164778049
 20
3.9084603407
 30
0.0
 10
5.1178681066
 20
3.9115238135
 30
0.0
 10
5.1189315402
 20
3.91480708
 30
0.0
 10
5.119607582
 20
3.9183060002
 30
0.0
 10
5.1197593168
 20
3.9207194581
 30
0.0
 10
5.1197593168
 20
3.9219504412
 30
0.0
  0
SPLINE
  5
285
100
AcDbEntity
  8
ALL_ASSEMBLY_MEMBERS
100
AcDbSpline
 62
7
  6
CONTINUOUS
 70
0
 71
3
 72
15
 73
11
 74
0
 42
0.0000001
 43
0.0000001
 44
0.0000000001
 40
0.0
 40
0.0
 40
0.0
 40
0.0
 40
0.121425363
 40
0.255354091
 40
0.3978197318
 40
0.5423810035
 40
0.6808842914
 40
0.8059243256
 40
0.9128810662
 40
1.0
 40
1.0
 40
1.0
 40
1.0
 10
5.0645182449
 20
4.27379225
 30
0.0
 10
5.0646017248
 20
4.2757564683
 30
0.0
 10
5.0647526461
 20
4.2798882341
 30
0.0
 10
5.0649204902
 20
4.2863272307
 30
0.0
 10
5.0650287928
 20
4.2931421606
 30
0.0
 10
5.0650673266
 20
4.3000319191
 30
0.0
 10
5.0650319548
 20
4.3066395655
 30
0.0
 10
5.064926934
 20
4.3126375769
 30
0.0
 10
5.0647625925
 20
4.3178019237
 30
0.0
 10
5.0646070522
 20
4.3209406263
 30
0.0
 10
5.0645182449
 20
4.3223483658
 30
0.0
  0
SPLINE
  5
286
100
AcDbEntity
  8
ALL_ASSEMBLY_MEMBERS
100
AcDbSpline
 62
7
  6
CONTINUOUS
 70
0
 71
3
 72
18
 73
14
 74
0
 42
0.0000001
 43
0.0000001
 44
0.0000000001
 40
0.0
 40
0.0
 40
0.0
 40
0.0
 40
0.1215545288
 40
0.2554025829
 40
0.3976386815
 40
0.4700087959
 40
0.5419121316
 40
0.6801720792
 40
0.805133425
 40
0.8610954618
 40
0.9122925211
 40
0.9585956336
 40
1.0
 40
1.0
 40
1.0
 40
1.0
 10
5.0800130576
 20
4.2706241477
 30
0.0
 10
5.0802292405
 20
4.272584245
 30
0.0
 10
5.0806203693
 20
4.2767097985
 30
0.0
 10
5.0810557571
 20
4.2831466864
 30
0.0
 10
5.0812885943
 20
4.288795612
 30
0.0
 10
5.0813872298
 20
4.2934427439
 30
0.0
 10
5.0814202972
 20
4.2980263018
 30
0.0
 10
5.0813447619
 20
4.3034633202
 30
0.0
 10
5.0811100989
 20
4.3086372753
 30
0.0
 10
5.0808305529
 20
4.3123928075
 30
0.0
 10
5.0805940088
 20
4.3148713793
 30
0.0
 10
5.0803273341
 20
4.3171092095
 30
0.0
 10
5.0801213273
 20
4.3185173425
 30
0.0
 10
5.0800130576
 20
4.3191802635
 30
0.0
  0
SPLINE
  5
287
100
AcDbEntity
  8
ALL_ASSEMBLY_MEMBERS
100
AcDbSpline
 62
7
  6
CONTINUOUS
 70
0
 71
3
 72
17
 73
13
 74
0
 42
0.0000001
 43
0.0000001
 44
0.0000000001
 40
0.0
 40
0.0
 40
0.0
 40
0.0
 40
0.1217947992
 40
0.2554966043
 40
0.3973114178
 40
0.5410459274
 40
0.6788599015
 40
0.8036803935
 40
0.8597544154
 40
0.9112147311
 40
0.9579566008
 40
1.0
 40
1.0
 40
1.0
 40
1.0
 10
5.0941509827
 20
4.2672701501
 30
0.0
 10
5.0944981115
 20
4.2692226295
 30
0.0
 10
5.0951270216
 20
4.2733365405
 30
0.0
 10
5.0958282342
 20
4.2797694087
 30
0.0
 10
5.0962806971
 20
4.2865828494
 30
0.0
 10
5.0964416779
 20
4.293476585
 30
0.0
 10
5.0962935663
 20
4.3000939163
 30
0.0
 10
5.0959154678
 20
4.3052724276
 30
0.0
 10
5.0954658528
 20
4.3090294546
 30
0.0
 10
5.0950849228
 20
4.3115129126
 30
0.0
 10
5.0946553948
 20
4.3137562094
 30
0.0
 10
5.0943245419
 20
4.3151640703
 30
0.0
 10
5.0941509827
 20
4.3158262659
 30
0.0
  0
SPLINE
  5
288
100
AcDbEntity
  8
ALL_ASSEMBLY_MEMBERS
100
AcDbSpline
 62
7
  6
CONTINUOUS
 70
0
 71
3
 72
18
 73
14
 74
0
 42
0.0000001
 43
0.0000001
 44
0.0000000001
 40
0.0
 40
0.0
 40
0.0
 40
0.0
 40
0.1221336689
 40
0.2556263414
 40
0.396839773
 40
0.5398107708
 40
0.6769903502
 40
0.7412255917
 40
0.801635406
 40
0.8578698714
 40
0.909703546
 40
0.9570636999
 40
1.0
 40
1.0
 40
1.0
 40
1.0
 10
5.106858309
 20
4.2637477437
 30
0.0
 10
5.1073336428
 20
4.2656894104
 30
0.0
 10
5.1081964326
 20
4.2697864819
 30
0.0
 10
5.1091606889
 20
4.2762131792
 30
0.0
 10
5.1097829354
 20
4.2830250781
 30
0.0
 10
5.1100041543
 20
4.2899221834
 30
0.0
 10
5.1098309464
 20
4.2955608635
 30
0.0
 10
5.1094704774
 20
4.2998318926
 30
0.0
 10
5.1091098904
 20
4.3027711531
 30
0.0
 10
5.1086629857
 20
4.305493058
 30
0.0
 10
5.1081393008
 20
4.3079834974
 30
0.0
 10
5.1075486543
 20
4.3102345497
 30
0.0
 10
5.1070954903
 20
4.3116423412
 30
0.0
 10
5.106858309
 20
4.3123038595
 30
0.0
  0
SPLINE
  5
289
100
AcDbEntity
  8
ALL_ASSEMBLY_MEMBERS
100
AcDbSpline
 62
7
  6
CONTINUOUS
 70
0
 71
3
 72
17
 73
13
 74
0
 42
0.0000001
 43
0.0000001
 44
0.0000000001
 40
0.0
 40
0.0
 40
0.0
 40
0.0
 40
0.1225619482
 40
0.2557995964
 40
0.3962670854
 40
0.5382888767
 40
0.6746848666
 40
0.7990765146
 40
0.8555200652
 40
0.9078271703
 40
0.9559599248
 40
1.0
 40
1.0
 40
1.0
 40
1.0
 10
5.1180687842
 20
4.2600752936
 30
0.0
 10
5.1186686878
 20
4.2620032493
 30
0.0
 10
5.1197600175
 20
4.2660784538
 30
0.0
 10
5.1209833865
 20
4.2724966364
 30
0.0
 10
5.1217728958
 20
4.2793061454
 30
0.0
 10
5.1220536022
 20
4.2862082789
 30
0.0
 10
5.1217944747
 20
4.2928465318
 30
0.0
 10
5.1211339267
 20
4.2980396808
 30
0.0
 10
5.1203530083
 20
4.3018019854
 30
0.0
 10
5.119688828
 20
4.3043012866
 30
0.0
 10
5.1189396517
 20
4.3065620551
 30
0.0
 10
5.1183675238
 20
4.3079702338
 30
0.0
 10
5.1180687842
 20
4.3086314093
 30
0.0
  0
SPLINE
  5
28A
100
AcDbEntity
  8
ALL_ASSEMBLY_MEMBERS
100
AcDbSpline
 62
7
  6
CONTINUOUS
 70
0
 71
3
 72
17
 73
13
 74
0
 42
0.0000001
 43
0.0000001
 44
0.0000000001
 40
0.0
 40
0.0
 40
0.0
 40
0.0
 40
0.123058735
 40
0.2559970247
 40
0.3955885526
 40
0.5364970501
 40
0.671979163
 40
0.7961113124
 40
0.8528051614
 40
0.9056675564
 40
0.954696004
 40
1.0
 40
1.0
 40
1.0
 40
1.0
 10
5.1277239601
 20
4.2562719466
 30
0.0
 10
5.1284440627
 20
4.2581837687
 30
0.0
 10
5.1297572298
 20
4.2622325419
 30
0.0
 10
5.1312345502
 20
4.268639613
 30
0.0
 10
5.132188107
 20
4.2754458779
 30
0.0
 10
5.1325269979
 20
4.2823535713
 30
0.0
 10
5.1322134203
 20
4.2890060426
 30
0.0
 10
5.1314150879
 20
4.2942088307
 30
0.0
 10
5.1304748515
 20
4.2979750403
 30
0.0
 10
5.1296732567
 20
4.3004849163
 30
0.0
 10
5.1287690036
 20
4.3027572031
 30
0.0
 10
5.1280819383
 20
4.3041666112
 30
0.0
 10
5.1277239601
 20
4.3048280624
 30
0.0
  0
SPLINE
  5
28B
100
AcDbEntity
  8
ALL_ASSEMBLY_MEMBERS
100
AcDbSpline
 62
7
  6
CONTINUOUS
 70
0
 71
3
 72
16
 73
12
 74
0
 42
0.0000001
 43
0.0000001
 44
0.0000000001
 40
0.0
 40
0.0
 40
0.0
 40
0.0
 40
0.1236160384
 40
0.2562327757
 40
0.3948613243
 40
0.5345443467
 40
0.6690301619
 40
0.7929028671
 40
0.8498889549
 40
0.9033771612
 40
1.0
 40
1.0
 40
1.0
 40
1.0
 10
5.1357734975
 20
4.2523575325
 30
0.0
 10
5.1366087952
 20
4.2542511907
 30
0.0
 10
5.13813581
 20
4.2582693699
 30
0.0
 10
5.1398606405
 20
4.2646624993
 30
0.0
 10
5.1409742322
 20
4.2714644412
 30
0.0
 10
5.1413698316
 20
4.2783783601
 30
0.0
 10
5.1410027283
 20
4.2850473061
 30
0.0
 10
5.1400699151
 20
4.2902606937
 30
0.0
 10
5.138975638
 20
4.2940322501
 30
0.0
 10
5.1377694954
 20
4.2972848596
 30
0.0
 10
5.1366318475
 20
4.2995423842
 30
0.0
 10
5.1357734975
 20
4.3009136483
 30
0.0
  0
SPLINE
  5
28C
100
AcDbEntity
  8
ALL_ASSEMBLY_MEMBERS
100
AcDbSpline
 62
7
  6
CONTINUOUS
 70
0
 71
3
 72
19
 73
15
 74
0
 42
0.0000001
 43
0.0000001
 44
0.0000000001
 40
0.0
 40
0.0
 40
0.0
 40
0.0
 40
0.124169343
 40
0.2564030525
 40
0.324769552
 40
0.3940199088
 40
0.4634728772
 40
0.5324203912
 40
0.6001248054
 40
0.6658886877
 40
0.7894726485
 40
0.8467672518
 40
0.900916034
 40
1.0
 40
1.0
 40
1.0
 40
1.0
 10
5.1421754284
 20
4.2483524598
 30
0.0
 10
5.1431203998
 20
4.2502263162
 30
0.0
 10
5.1448520788
 20
4.2542099495
 30
0.0
 10
5.1464716717
 20
4.2594673865
 30
0.0
 10
5.1474404303
 20
4.2639264297
 30
0.0
 10
5.1479805518
 20
4.2673864405
 30
0.0
 10
5.1483138187
 20
4.2708824033
 30
0.0
 10
5.14842606
 20
4.2743663316
 30
0.0
 10
5.1483178299
 20
4.2777884756
 30
0.0
 10
5.1478875953
 20
4.2821138296
 30
0.0
 10
5.1470532061
 20
4.2862160125
 30
0.0
 10
5.1458112462
 20
4.289993311
 30
0.0
 10
5.1444335063
 20
4.2932764153
 30
0.0
 10
5.1431408086
 20
4.2955401666
 30
0.0
 10
5.1421754284
 20
4.2969085756
 30
0.0
  0
SPLINE
  5
28D
100
AcDbEntity
  8
ALL_ASSEMBLY_MEMBERS
100
AcDbSpline
 62
7
  6
CONTINUOUS
 70
0
 71
3
 72
16
 73
12
 74
0
 42
0.0000001
 43
0.0000001
 44
0.0000000001
 40
0.0
 40
0.0
 40
0.0
 40
0.0
 40
0.2460057663
 40
0.3767110082
 40
0.4431359816
 40
0.5097335968
 40
0.6416397537
 40
0.7061073044
 40
0.7690188547
 40
0.8889337275
 40
1.0
 40
1.0
 40
1.0
 40
1.0
 10
5.146896375
 20
4.2442776098
 30
0.0
 10
5.1486885727
 20
4.2474439449
 30
0.0
 10
5.1509352735
 20
4.2525971208
 30
0.0
 10
5.1526088255
 20
4.258943328
 30
0.0
 10
5.1532917303
 20
4.2627858211
 30
0.0
 10
5.1537615329
 20
4.2666772458
 30
0.0
 10
5.1538921088
 20
4.2705753198
 30
0.0
 10
5.1536689696
 20
4.2744056803
 30
0.0
 10
5.1532245089
 20
4.2780381192
 30
0.0
 10
5.1522868578
 20
4.2822957167
 30
0.0
 10
5.1510956911
 20
4.2855118166
 30
0.0
 10
5.1504104241
 20
4.2870046913
 30
0.0
  0
SPLINE
  5
28E
100
AcDbEntity
  8
ALL_ASSEMBLY_MEMBERS
100
AcDbSpline
 62
7
  6
CONTINUOUS
 70
0
 71
3
 72
9
 73
5
 74
0
 42
0.0000001
 43
0.0000001
 44
0.0000000001
 40
0.0
 40
0.0
 40
0.0
 40
0.0
 40
0.5162495299
 40
1.0
 40
1.0
 40
1.0
 40
1.0
 10
5.1504104241
 20
4.2870046913
 30
0.0
 10
5.149920988
 20
4.2880709427
 30
0.0
 10
5.1488594859
 20
4.2900865897
 30
0.0
 10
5.1475721036
 20
4.2919665547
 30
0.0
 10
5.146896375
 20
4.2928337256
 30
0.0
  0
SPLINE
  5
28F
100
AcDbEntity
  8
ALL_ASSEMBLY_MEMBERS
100
AcDbSpline
 62
7
  6
CONTINUOUS
 70
0
 71
3
 72
40
 73
36
 74
0
 42
0.0000001
 43
0.0000001
 44
0.0000000001
 40
0.0
 40
0.0
 40
0.0
 40
0.0
 40
0.0114538393
 40
0.0224185072
 40
0.0330548102
 40
0.0434594469
 40
0.0536314726
 40
0.0635219047
 40
0.0730812449
 40
0.0823916174
 40
0.0915629376
 40
0.1006842436
 40
0.1098255039
 40
0.1190466414
 40
0.1284030076
 40
0.1379455494
 40
0.1577419929
 40
0.1786652373
 40
0.2008907932
 40
0.2245136896
 40
0.2495906265
 40
0.2761556998
 40
0.3042026003
 40
0.3337167043
 40
0.3646709656
 40
0.3970181645
 40
0.4307075574
 40
0.4656804676
 40
0.5018666731
 40
0.5775836509
 40
0.6572147666
 40
0.7400482084
 40
0.8253190252
 40
0.9122575332
 40
1.0
 40
1.0
 40
1.0
 40
1.0
 10
4.5197593168
 20
3.9219504412
 30
0.0
 10
4.5197593168
 20
3.9207186622
 30
0.0
 10
4.5199109081
 20
3.9183045619
 30
0.0
 10
4.5205871137
 20
3.9148055514
 30
0.0
 10
4.5216506933
 20
3.9115235049
 30
0.0
 10
4.523040807
 20
3.9084611389
 30
0.0
 10
4.5246926184
 20
3.9056256085
 30
0.0
 10
4.5265434293
 20
3.9030278263
 30
0.0
 10
4.5285455008
 20
3.9006657944
 30
0.0
 10
4.5306724882
 20
3.8985240813
 30
0.0
 10
4.5329083653
 20
3.896568309
 30
0.0
 10
4.5352397731
 20
3.8947581135
 30
0.0
 10
4.5376598753
 20
3.8930594754
 30
0.0
 10
4.54017616
 20
3.8914594565
 30
0.0
 10
4.5427932881
 20
3.8899427091
 30
0.0
 10
4.5464679669
 20
3.8879882072
 30
0.0
 10
4.5513605862
 20
3.8856821738
 30
0.0
 10
4.5576318651
 20
3.8831272356
 30
0.0
 10
4.5643941009
 20
3.8807058488
 30
0.0
 10
4.5716655697
 20
3.8783978451
 30
0.0
 10
4.5794547166
 20
3.876192454
 30
0.0
 10
4.5877614551
 20
3.8740810187
 30
0.0
 10
4.5965812039
 20
3.8720618855
 30
0.0
 10
4.6059038034
 20
3.8701341768
 30
0.0
 10
4.6157156881
 20
3.8682981347
 30
0.0
 10
4.6260002668
 20
3.86655567
 30
0.0
 10
4.6367380274
 20
3.8649091873
 30
0.0
 10
4.6479073462
 20
3.8633611715
 30
0.0
 10
4.6635812895
 20
3.861402339
 30
0.0
 10
4.6840673786
 20
3.859236333
 30
0.0
 10
4.7095953052
 20
3.8571074357
 30
0.0
 10
4.7361863824
 20
3.8554307933
 30
0.0
 10
4.7635893033
 20
3.8542214996
 30
0.0
 10
4.79153713
 20
3.8534916323
 30
0.0
 10
4.8103232385
 20
3.8533289514
 30
0.0
 10
4.8197593168
 20
3.8533289514
 30
0.0
  0
SPLINE
  5
290
100
AcDbEntity
  8
ALL_ASSEMBLY_MEMBERS
100
AcDbSpline
 62
7
  6
CONTINUOUS
 70
0
 71
3
 72
40
 73
36
 74
0
 42
0.0000001
 43
0.0000001
 44
0.0000000001
 40
0.0
 40
0.0
 40
0.0
 40
0.0
 40
0.0117688226
 40
0.0230213541
 40
0.0339187946
 40
0.044556815
 40
0.0549372237
 40
0.0650160099
 40
0.0747513113
 40
0.08422858
 40
0.0935562079
 40
0.1028226431
 40
0.112097898
 40
0.1214421853
 40
0.1309111999
 40
0.1405562382
 40
0.1605258029
 40
0.1815835281
 40
0.2039087923
 40
0.22759731
 40
0.2527106191
 40
0.2792831573
 40
0.3073108051
 40
0.3367826459
 40
0.3676718747
 40
0.3999326776
 40
0.4335164475
 40
0.4683651298
 40
0.5044099864
 40
0.5797990844
 40
0.6590501445
 40
0.7414613993
 40
0.8262787338
 40
0.9127429569
 40
1.0
 40
1.0
 40
1.0
 40
1.0
 10
5.1007605585
 20
4.3759703951
 30
0.0
 10
5.1007177187
 20
4.3771538773
 30
0.0
 10
5.1004910261
 20
4.3794666475
 30
0.0
 10
5.099734399
 20
4.3828032242
 30
0.0
 10
5.0986252761
 20
4.3859182989
 30
0.0
 10
5.0972226909
 20
4.3888137771
 30
0.0
 10
5.0955862011
 20
4.3914862944
 30
0.0
 10
5.093773811
 20
4.3939294422
 30
0.0
 10
5.0918293271
 20
4.3961485884
 30
0.0
 10
5.0897759643
 20
4.3981600607
 30
0.0
 10
5.087627377
 20
4.3999966063
 30
0.0
 10
5.0853952861
 20
4.4016963467
 30
0.0
 10
5.0830844425
 20
4.4032899091
 30
0.0
 10
5.0806876802
 20
4.4047896561
 30
0.0
 10
5.0782004482
 20
4.4062102977
 30
0.0
 10
5.0747178069
 20
4.4080388638
 30
0.0
 10
5.070093191
 20
4.410194077
 30
0.0
 10
5.0641792464
 20
4.4125801936
 30
0.0
 10
5.0578176884
 20
4.4148396074
 30
0.0
 10
5.0509898875
 20
4.4169906057
 30
0.0
 10
5.043687559
 20
4.4190446115
 30
0.0
 10
5.0359098653
 20
4.4210098524
 30
0.0
 10
5.0276603981
 20
4.4228880875
 30
0.0
 10
5.0189480506
 20
4.4246806191
 30
0.0
 10
5.0097849218
 20
4.4263873577
 30
0.0
 10
5.0001861123
 20
4.4280066046
 30
0.0
 10
4.9901694385
 20
4.42953627
 30
0.0
 10
4.9797546893
 20
4.4309741912
 30
0.0
 10
4.9651472053
 20
4.432793109
 30
0.0
 10
4.9460629129
 20
4.4348041443
 30
0.0
 10
4.9222895588
 20
4.4367805438
 30
0.0
 10
4.8975344315
 20
4.438336861
 30
0.0
 10
4.8720294157
 20
4.4394592323
 30
0.0
 10
4.8460210735
 20
4.4401365868
 30
0.0
 10
4.8285397015
 20
4.440287566
 30
0.0
 10
4.8197593168
 20
4.440287566
 30
0.0
  0
SPLINE
  5
291
100
AcDbEntity
  8
ALL_ASSEMBLY_MEMBERS
100
AcDbSpline
 62
7
  6
CONTINUOUS
 70
0
 71
3
 72
40
 73
36
 74
0
 42
0.0000001
 43
0.0000001
 44
0.0000000001
 40
0.0
 40
0.0
 40
0.0
 40
0.0
 40
0.0872573567
 40
0.1737224912
 40
0.2585403454
 40
0.34095196
 40
0.4202035018
 40
0.4955929934
 40
0.566485075
 40
0.6000691197
 40
0.6323298751
 40
0.6632191342
 40
0.6926912456
 40
0.72071836
 40
0.7472905414
 40
0.7724040614
 40
0.796091967
 40
0.8184174481
 40
0.8394748867
 40
0.8594439868
 40
0.8690893338
 40
0.8785582643
 40
0.8879023067
 40
0.8971775721
 40
0.9018085112
 40
0.9064454541
 40
0.9157737495
 40
0.9252503715
 40
0.93498266
 40
0.9450594487
 40
0.9554413642
 40
0.9660828309
 40
0.9769837382
 40
0.9882367525
 40
1.0
 40
1.0
 40
1.0
 40
1.0
 10
4.8197593168
 20
4.440287566
 30
0.0
 10
4.8109789084
 20
4.440287566
 30
0.0
 10
4.7934974285
 20
4.4401365814
 30
0.0
 10
4.7674889371
 20
4.4394592227
 30
0.0
 10
4.7419837548
 20
4.4383368484
 30
0.0
 10
4.717228549
 20
4.436780476
 30
0.0
 10
4.6934549714
 20
4.4348041628
 30
0.0
 10
4.670883426
 20
4.4324252466
 30
0.0
 10
4.6529338676
 20
4.4300835447
 30
0.0
 10
4.6393317115
 20
4.4280065043
 30
0.0
 10
4.6297328829
 20
4.4263872116
 30
0.0
 10
4.6205697431
 20
4.4246804516
 30
0.0
 10
4.6118574339
 20
4.4228878875
 30
0.0
 10
4.603608029
 20
4.4210096969
 30
0.0
 10
4.5958304116
 20
4.4190444566
 30
0.0
 10
4.5885281885
 20
4.4169903922
 30
0.0
 10
4.5817003651
 20
4.4148395403
 30
0.0
 10
4.5753389787
 20
4.4125798621
 30
0.0
 10
4.569425056
 20
4.4101938745
 30
0.0
 10
4.5648004156
 20
4.4080388047
 30
0.0
 10
4.5613179014
 20
4.4062100691
 30
0.0
 10
4.5588305592
 20
4.4047896108
 30
0.0
 10
4.5564338643
 20
4.4032898908
 30
0.0
 10
4.5545070097
 20
4.4019612764
 30
0.0
 10
4.5530098137
 20
4.4008473865
 30
0.0
 10
4.5515368124
 20
4.3996930385
 30
0.0
 10
4.5497425962
 20
4.3981592041
 30
0.0
 10
4.5476890335
 20
4.3961484301
 30
0.0
 10
4.5457446268
 20
4.393929946
 30
0.0
 10
4.5439325105
 20
4.3914870323
 30
0.0
 10
4.5422959957
 20
4.3888141838
 30
0.0
 10
4.5408932102
 20
4.3859178586
 30
0.0
 10
4.5397841136
 20
4.3828019863
 30
0.0
 10
4.5390276252
 20
4.3794655614
 30
0.0
 10
4.5388008945
 20
4.3771533156
 30
0.0
 10
4.538758075
 20
4.3759703951
 30
0.0
  0
SPLINE
  5
292
100
AcDbEntity
  8
ALL_ASSEMBLY_MEMBERS
100
AcDbSpline
 62
7
  6
CONTINUOUS
 70
0
 71
3
 72
9
 73
5
 74
0
 42
0.0000001
 43
0.0000001
 44
0.0000000001
 40
0.0
 40
0.0
 40
0.0
 40
0.0
 40
0.5055414711
 40
1.0
 40
1.0
 40
1.0
 40
1.0
 10
4.4995614233
 20
4.2186461491
 30
0.0
 10
4.5006284075
 20
4.2177277441
 30
0.0
 10
4.5027953506
 20
4.2159758203
 30
0.0
 10
4.5050516618
 20
4.214341631
 30
0.0
 10
4.5061853717
 20
4.2135601718
 30
0.0
  0
SPLINE
  5
293
100
AcDbEntity
  8
ALL_ASSEMBLY_MEMBERS
100
AcDbSpline
 62
7
  6
CONTINUOUS
 70
0
 71
3
 72
11
 73
7
 74
0
 42
0.0000001
 43
0.0000001
 44
0.0000000001
 40
0.0
 40
0.0
 40
0.0
 40
0.0
 40
0.2512721557
 40
0.5005894181
 40
0.7496516956
 40
1.0
 40
1.0
 40
1.0
 40
1.0
 10
4.5061853717
 20
4.2135601718
 30
0.0
 10
4.5072646277
 20
4.2128162473
 30
0.0
 10
4.5094487545
 20
4.2113829369
 30
0.0
 10
4.5128071504
 20
4.2093772954
 30
0.0
 10
4.5162351032
 20
4.207503459
 30
0.0
 10
4.5185612086
 20
4.2063290961
 30
0.0
 10
4.5197355501
 20
4.20575767
 30
0.0
  0
SPLINE
  5
294
100
AcDbEntity
  8
ALL_ASSEMBLY_MEMBERS
100
AcDbSpline
 62
7
  6
CONTINUOUS
 70
0
 71
3
 72
11
 73
7
 74
0
 42
0.0000001
 43
0.0000001
 44
0.0000000001
 40
0.0
 40
0.0
 40
0.0
 40
0.0
 40
0.2543680142
 40
0.5067745918
 40
0.7557518307
 40
1.0
 40
1.0
 40
1.0
 40
1.0
 10
4.4805397601
 20
4.2505291268
 30
0.0
 10
4.4807925007
 20
4.2491273307
 30
0.0
 10
4.4814408904
 20
4.2463585672
 30
0.0
 10
4.4828147069
 20
4.2423490002
 30
0.0
 10
4.4845362792
 20
4.2385387409
 30
0.0
 10
4.4858984885
 20
4.2361312868
 30
0.0
 10
4.4866228656
 20
4.2349711309
 30
0.0
  0
SPLINE
  5
295
100
AcDbEntity
  8
ALL_ASSEMBLY_MEMBERS
100
AcDbSpline
 62
7
  6
CONTINUOUS
 70
0
 71
3
 72
17
 73
13
 74
0
 42
0.0000001
 43
0.0000001
 44
0.0000000001
 40
0.0
 40
0.0
 40
0.0
 40
0.0
 40
0.1216380876
 40
0.2472180695
 40
0.3110615731
 40
0.3753048969
 40
0.4397432844
 40
0.5041692702
 40
0.5683635829
 40
0.6321534506
 40
0.7580318277
 40
1.0
 40
1.0
 40
1.0
 40
1.0
 10
4.4810241551
 20
4.2703250912
 30
0.0
 10
4.480695609
 20
4.2689004682
 30
0.0
 10
4.4802039636
 20
4.2659617156
 30
0.0
 10
4.4800241594
 20
4.2622187818
 30
0.0
 10
4.4801318237
 20
4.2591704776
 30
0.0
 10
4.4803417752
 20
4.2568647484
 30
0.0
 10
4.4806773104
 20
4.2545670012
 30
0.0
 10
4.4811323769
 20
4.2522905478
 30
0.0
 10
4.4817020909
 20
4.2500481268
 30
0.0
 10
4.4826026552
 20
4.247131425
 30
0.0
 10
4.4844926878
 20
4.2422932765
 30
0.0
 10
4.4866714084
 20
4.2384102124
 30
0.0
 10
4.4883135064
 20
4.2360098385
 30
0.0
  0
SPLINE
  5
296
100
AcDbEntity
  8
ALL_ASSEMBLY_MEMBERS
100
AcDbSpline
 62
7
  6
CONTINUOUS
 70
0
 71
3
 72
17
 73
13
 74
0
 42
0.0000001
 43
0.0000001
 44
0.0000000001
 40
0.0
 40
0.0
 40
0.0
 40
0.0
 40
0.1127602971
 40
0.2332220818
 40
0.2960307481
 40
0.3602003636
 40
0.4911147557
 40
0.557152707
 40
0.6230483195
 40
0.7529980248
 40
0.8790821849
 40
1.0
 40
1.0
 40
1.0
 40
1.0
 10
4.4855268511
 20
4.2823809713
 30
0.0
 10
4.4848077204
 20
4.280885185
 30
0.0
 10
4.4835593186
 20
4.2776717564
 30
0.0
 10
4.4825850182
 20
4.2734096203
 30
0.0
 10
4.4821384681
 20
4.2697926544
 30
0.0
 10
4.4819318285
 20
4.2660000493
 30
0.0
 10
4.4821027977
 20
4.2621478802
 30
0.0
 10
4.4826358689
 20
4.2583141903
 30
0.0
 10
4.4833956443
 20
4.2545331314
 30
0.0
 10
4.4847398166
 20
4.2499773017
 30
0.0
 10
4.4868987625
 20
4.2448551846
 30
0.0
 10
4.4886657238
 20
4.2416687926
 30
0.0
 10
4.4896100388
 20
4.2401602312
 30
0.0
  0
SPLINE
  5
297
100
AcDbEntity
  8
ALL_ASSEMBLY_MEMBERS
100
AcDbSpline
 62
7
  6
CONTINUOUS
 70
0
 71
3
 72
29
 73
25
 74
0
 42
0.0000001
 43
0.0000001
 44
0.0000000001
 40
0.0
 40
0.0
 40
0.0
 40
0.0
 40
0.079746084
 40
0.1590328881
 40
0.2373129173
 40
0.314121919
 40
0.3890068892
 40
0.4615202588
 40
0.5312526326
 40
0.5978287581
 40
0.6609298501
 40
0.720288279
 40
0.7485088616
 40
0.7757320515
 40
0.8271879568
 40
0.8514492008
 40
0.874766675
 40
0.897202945
 40
0.9188288239
 40
0.9397472833
 40
0.9601159404
 40
0.9701487541
 40
0.9801159419
 40
1.0
 40
1.0
 40
1.0
 40
1.0
 10
4.8197593168
 20
4.3513415499
 30
0.0
 10
4.8113812201
 20
4.3513415499
 30
0.0
 10
4.7946730344
 20
4.3512227034
 30
0.0
 10
4.7697458951
 20
4.350689772
 30
0.0
 10
4.7451374618
 20
4.3498043775
 30
0.0
 10
4.7210069544
 20
4.3485723534
 30
0.0
 10
4.6975032511
 20
4.3470008986
 30
0.0
 10
4.6747698956
 20
4.3450984279
 30
0.0
 10
4.6529427996
 20
4.3428750798
 30
0.0
 10
4.6321451794
 20
4.3403410148
 30
0.0
 10
4.6124867762
 20
4.337506306
 30
0.0
 10
4.5968774579
 20
4.3348572141
 30
0.0
 10
4.5850334023
 20
4.3325769383
 30
0.0
 10
4.5740396527
 20
4.3302801609
 30
0.0
 10
4.5635094475
 20
4.3278012985
 30
0.0
 10
4.5534623579
 20
4.3250946559
 30
0.0
 10
4.5464056197
 20
4.323015963
 30
0.0
 10
4.5396700194
 20
4.3208352736
 30
0.0
 10
4.5332396595
 20
4.3185392204
 30
0.0
 10
4.5270929007
 20
4.31610535
 30
0.0
 10
4.5221626731
 20
4.3139184182
 30
0.0
 10
4.5183470715
 20
4.3120659315
 30
0.0
 10
4.5146239132
 20
4.3101429135
 30
0.0
 10
4.5118981238
 20
4.308586783
 30
0.0
 10
4.5101188872
 20
4.3074921187
 30
0.0
  0
SPLINE
  5
298
100
AcDbEntity
  8
ALL_ASSEMBLY_MEMBERS
100
AcDbSpline
 62
7
  6
CONTINUOUS
 70
0
 71
3
 72
9
 73
5
 74
0
 42
0.0000001
 43
0.0000001
 44
0.0000000001
 40
0.0
 40
0.0
 40
0.0
 40
0.0
 40
0.4960046185
 40
1.0
 40
1.0
 40
1.0
 40
1.0
 10
4.5101188872
 20
4.3074921187
 30
0.0
 10
4.5088389136
 20
4.3067046228
 30
0.0
 10
4.5062950733
 20
4.3050564407
 30
0.0
 10
4.5038387007
 20
4.3032794716
 30
0.0
 10
4.5026294781
 20
4.3023469382
 30
0.0
  0
SPLINE
  5
299
100
AcDbEntity
  8
ALL_ASSEMBLY_MEMBERS
100
AcDbSpline
 62
7
  6
CONTINUOUS
 70
0
 71
3
 72
17
 73
13
 74
0
 42
0.0000001
 43
0.0000001
 44
0.0000000001
 40
0.0
 40
0.0
 40
0.0
 40
0.0
 40
0.11277369
 40
0.2332443514
 40
0.2960551428
 40
0.3602254338
 40
0.4911371146
 40
0.5571722716
 40
0.6230644975
 40
0.7530071936
 40
0.8790855701
 40
1.0
 40
1.0
 40
1.0
 40
1.0
 10
5.1539999041
 20
4.282365572
 30
0.0
 10
5.1547185417
 20
4.2808697438
 30
0.0
 10
5.1559659616
 20
4.2776564203
 30
0.0
 10
5.1569391865
 20
4.2733946836
 30
0.0
 10
5.1573849462
 20
4.2697782732
 30
0.0
 10
5.1575908482
 20
4.2659864825
 30
0.0
 10
5.157419308
 20
4.262135283
 30
0.0
 10
5.1568858343
 20
4.25830266
 30
0.0
 10
5.1561257791
 20
4.2545227402
 30
0.0
 10
5.1547814617
 20
4.2499683196
 30
0.0
 10
5.152622621
 20
4.2448477766
 30
0.0
 10
5.1508558928
 20
4.2416623497
 30
0.0
 10
5.1499117235
 20
4.2401542276
 30
0.0
  0
SPLINE
  5
29A
100
AcDbEntity
  8
ALL_ASSEMBLY_MEMBERS
100
AcDbSpline
 62
7
  6
CONTINUOUS
 70
0
 71
3
 72
9
 73
5
 74
0
 42
0.0000001
 43
0.0000001
 44
0.0000000001
 40
0.0
 40
0.0
 40
0.0
 40
0.0
 40
0.2554274483
 40
1.0
 40
1.0
 40
1.0
 40
1.0
 10
5.1528939223
 20
4.28446341
 30
0.0
 10
5.1525833199
 20
4.2850012339
 30
0.0
 10
5.151330452
 20
4.2870853977
 30
0.0
 10
5.149936856
 20
4.2890843205
 30
0.0
 10
5.1488329534
 20
4.290519254
 30
0.0
  0
SPLINE
  5
29B
100
AcDbEntity
  8
ALL_ASSEMBLY_MEMBERS
100
AcDbSpline
 62
7
  6
CONTINUOUS
 70
0
 71
3
 72
9
 73
5
 74
0
 42
0.0000001
 43
0.0000001
 44
0.0000000001
 40
0.0
 40
0.0
 40
0.0
 40
0.0
 40
0.5103065077
 40
1.0
 40
1.0
 40
1.0
 40
1.0
 10
5.1488329534
 20
4.290519254
 30
0.0
 10
5.1478724942
 20
4.2917677291
 30
0.0
 10
5.1458899778
 20
4.2941383788
 30
0.0
 10
5.1437382629
 20
4.2963554448
 30
0.0
 10
5.1426480906
 20
4.2974024876
 30
0.0
  0
LINE
  5
29C
100
AcDbEntity
  8
ALL_ASSEMBLY_MEMBERS
100
AcDbLine
 62
7
  6
CONTINUOUS
 10
5.1424918819
 20
4.2975520167
 11
5.1368694738
 21
4.3023595712
  0
SPLINE
  5
29D
100
AcDbEntity
  8
ALL_ASSEMBLY_MEMBERS
100
AcDbSpline
 62
7
  6
CONTINUOUS
 70
0
 71
3
 72
19
 73
15
 74
0
 42
0.0000001
 43
0.0000001
 44
0.0000000001
 40
0.0
 40
0.0
 40
0.0
 40
0.0
 40
0.0287620964
 40
0.0572144472
 40
0.1134689345
 40
0.2252625296
 40
0.2817548812
 40
0.3390797107
 40
0.3975150264
 40
0.4573207235
 40
0.5817057458
 40
0.7132348865
 40
0.8525848283
 40
1.0
 40
1.0
 40
1.0
 40
1.0
 10
5.1368694738
 20
4.3023595712
 30
0.0
 10
5.1362481967
 20
4.3028378333
 30
0.0
 10
5.1349978518
 20
4.3037705331
 30
0.0
 10
5.1324683783
 20
4.3055512787
 30
0.0
 10
5.1279668497
 20
4.3084588047
 30
0.0
 10
5.1225893856
 20
4.3114003665
 30
0.0
 10
5.1170435647
 20
4.3140599263
 30
0.0
 10
5.1127440617
 20
4.3159495735
 30
0.0
 10
5.1083069075
 20
4.3177444359
 30
0.0
 10
5.1021125975
 20
4.3200643272
 30
0.0
 10
5.0939477946
 20
4.3227951075
 30
0.0
 10
5.0836007964
 20
4.3258084929
 30
0.0
 10
5.0725535048
 20
4.3286392207
 30
0.0
 10
5.064928116
 20
4.3303644853
 30
0.0
 10
5.060998442
 20
4.3312045613
 30
0.0
  0
LINE
  5
29E
100
AcDbEntity
  8
ALL_ASSEMBLY_MEMBERS
100
AcDbLine
 62
7
  6
CONTINUOUS
 10
5.0494123827
 20
4.3335474813
 11
5.0485769357
 21
4.3337067001
  0
SPLINE
  5
29F
100
AcDbEntity
  8
ALL_ASSEMBLY_MEMBERS
100
AcDbSpline
 62
7
  6
CONTINUOUS
 70
0
 71
3
 72
17
 73
13
 74
0
 42
0.0000001
 43
0.0000001
 44
0.0000000001
 40
0.0
 40
0.0
 40
0.0
 40
0.0
 40
0.0505400488
 40
0.1032022743
 40
0.1579219208
 40
0.2146023606
 40
0.3334151361
 40
0.4586660663
 40
0.5892254802
 40
0.7238440497
 40
0.861246216
 40
1.0
 40
1.0
 40
1.0
 40
1.0
 10
5.0485769357
 20
4.3337067001
 30
0.0
 10
5.0447736016
 20
4.3344287346
 30
0.0
 10
5.0369928692
 20
4.3358282435
 30
0.0
 10
5.0250520196
 20
4.3377655926
 30
0.0
 10
5.0126169714
 20
4.3395841894
 30
0.0
 10
4.9951332632
 20
4.3418841237
 30
0.0
 10
4.9722345835
 20
4.3444238144
 30
0.0
 10
4.9436454723
 20
4.346917018
 30
0.0
 10
4.91380181
 20
4.348880189
 30
0.0
 10
4.8829956209
 20
4.3502962789
 30
0.0
 10
4.851541052
 20
4.3511510541
 30
0.0
 10
4.8303875713
 20
4.3513415499
 30
0.0
 10
4.8197593168
 20
4.3513415499
 30
0.0
  0
SPLINE
  5
2A0
100
AcDbEntity
  8
ALL_ASSEMBLY_MEMBERS
100
AcDbSpline
 62
7
  6
CONTINUOUS
 70
0
 71
3
 72
17
 73
13
 74
0
 42
0.0000001
 43
0.0000001
 44
0.0000000001
 40
0.0
 40
0.0
 40
0.0
 40
0.0
 40
0.1216719587
 40
0.2472702719
 40
0.3111167809
 40
0.3753597781
 40
0.4397951985
 40
0.504215975
 40
0.5684033937
 40
0.63218596
 40
0.7580500287
 40
1.0
 40
1.0
 40
1.0
 40
1.0
 10
5.1585051958
 20
4.2702785023
 30
0.0
 10
5.1588318402
 20
4.2688547373
 30
0.0
 10
5.159319948
 20
4.2659182281
 30
0.0
 10
5.1594962317
 20
4.2621787688
 30
0.0
 10
5.1593863367
 20
4.2591337796
 30
0.0
 10
5.1591749917
 20
4.2568308388
 30
0.0
 10
5.1588384281
 20
4.2545360283
 30
0.0
 10
5.158382664
 20
4.2522626047
 30
0.0
 10
5.1578125595
 20
4.2500232517
 30
0.0
 10
5.156911899
 20
4.2471105893
 30
0.0
 10
5.1550226204
 20
4.2422790438
 30
0.0
 10
5.1528459881
 20
4.2384011719
 30
0.0
 10
5.151205753
 20
4.2360038114
 30
0.0
  0
SPLINE
  5
2A1
100
AcDbEntity
  8
ALL_ASSEMBLY_MEMBERS
100
AcDbSpline
 62
7
  6
CONTINUOUS
 70
0
 71
3
 72
11
 73
7
 74
0
 42
0.0000001
 43
0.0000001
 44
0.0000000001
 40
0.0
 40
0.0
 40
0.0
 40
0.0
 40
0.2543648453
 40
0.5067716463
 40
0.7557504371
 40
1.0
 40
1.0
 40
1.0
 40
1.0
 10
5.1589796025
 20
4.2505331616
 30
0.0
 10
5.1587270534
 20
4.2491305439
 30
0.0
 10
5.1580788511
 20
4.2463601202
 30
0.0
 10
5.1567047754
 20
4.2423481485
 30
0.0
 10
5.1549824682
 20
4.2385356408
 30
0.0
 10
5.153619498
 20
4.2361268243
 30
0.0
 10
5.1528946866
 20
4.2349660333
 30
0.0
  0
SPLINE
  5
2A2
100
AcDbEntity
  8
ALL_ASSEMBLY_MEMBERS
100
AcDbSpline
 62
7
  6
CONTINUOUS
 70
0
 71
3
 72
9
 73
5
 74
0
 42
0.0000001
 43
0.0000001
 44
0.0000000001
 40
0.0
 40
0.0
 40
0.0
 40
0.0
 40
0.499325746
 40
1.0
 40
1.0
 40
1.0
 40
1.0
 10
5.1197630645
 20
4.2057479931
 30
0.0
 10
5.1221148186
 20
4.2068907725
 30
0.0
 10
5.1267594885
 20
4.20931807
 30
0.0
 10
5.1312065595
 20
4.2120964701
 30
0.0
 10
5.1333662251
 20
4.2135829135
 30
0.0
  0
SPLINE
  5
2A3
100
AcDbEntity
  8
ALL_ASSEMBLY_MEMBERS
100
AcDbSpline
 62
7
  6
CONTINUOUS
 70
0
 71
3
 72
9
 73
5
 74
0
 42
0.0000001
 43
0.0000001
 44
0.0000000001
 40
0.0
 40
0.0
 40
0.0
 40
0.0
 40
0.4946520612
 40
1.0
 40
1.0
 40
1.0
 40
1.0
 10
5.1333662251
 20
4.2135829135
 30
0.0
 10
5.1344790776
 20
4.2143488618
 30
0.0
 10
5.1366931634
 20
4.2159500272
 30
0.0
 10
5.1388177346
 20
4.2176690177
 30
0.0
 10
5.1398643534
 20
4.2185687339
 30
0.0
  0
SPLINE
  5
2A4
100
AcDbEntity
  8
ALL_ASSEMBLY_MEMBERS
100
AcDbSpline
 62
7
  6
CONTINUOUS
 70
0
 71
3
 72
9
 73
5
 74
0
 42
0.0000001
 43
0.0000001
 44
0.0000000001
 40
0.0
 40
0.0
 40
0.0
 40
0.0
 40
0.4909437331
 40
1.0
 40
1.0
 40
1.0
 40
1.0
 10
5.139973151
 20
4.2186624559
 30
0.0
 10
5.1410575311
 20
4.2195985274
 30
0.0
 10
5.1432076507
 20
4.2215741671
 30
0.0
 10
5.1452243903
 20
4.2236867124
 30
0.0
 10
5.1462099343
 20
4.2247980292
 30
0.0
  0
SPLINE
  5
2A5
100
AcDbEntity
  8
ALL_ASSEMBLY_MEMBERS
100
AcDbSpline
 62
7
  6
CONTINUOUS
 70
0
 71
3
 72
9
 73
5
 74
0
 42
0.0000001
 43
0.0000001
 44
0.0000000001
 40
0.0
 40
0.0
 40
0.0
 40
0.0
 40
0.4837464825
 40
1.0
 40
1.0
 40
1.0
 40
1.0
 10
4.492627874
 20
4.2928396744
 30
0.0
 10
4.4919522371
 20
4.2919725072
 30
0.0
 10
4.4906650328
 20
4.290092547
 30
0.0
 10
4.4896036949
 20
4.2880769322
 30
0.0
 10
4.4891143333
 20
4.2870106957
 30
0.0
  0
SPLINE
  5
2A6
100
AcDbEntity
  8
ALL_ASSEMBLY_MEMBERS
100
AcDbSpline
 62
7
  6
CONTINUOUS
 70
0
 71
3
 72
16
 73
12
 74
0
 42
0.0000001
 43
0.0000001
 44
0.0000000001
 40
0.0
 40
0.0
 40
0.0
 40
0.0
 40
0.1110646478
 40
0.2309793265
 40
0.2938911785
 40
0.3583592175
 40
0.4902666342
 40
0.5568648594
 40
0.6232903469
 40
0.7539961214
 40
1.0
 40
1.0
 40
1.0
 40
1.0
 10
4.4891143333
 20
4.2870106957
 30
0.0
 10
4.4884291609
 20
4.2855178208
 30
0.0
 10
4.4872381656
 20
4.2823017231
 30
0.0
 10
4.4863006594
 20
4.2780441619
 30
0.0
 10
4.4858562656
 20
4.2744117409
 30
0.0
 10
4.4856331599
 20
4.2705813845
 30
0.0
 10
4.4857637172
 20
4.2666833144
 30
0.0
 10
4.4862334513
 20
4.2627918832
 30
0.0
 10
4.4869162555
 20
4.2589493849
 30
0.0
 10
4.4885895511
 20
4.2526031894
 30
0.0
 10
4.4908359185
 20
4.2474499597
 30
0.0
 10
4.492627874
 20
4.2442835586
 30
0.0
  0
SPLINE
  5
2A7
100
AcDbEntity
  8
ALL_ASSEMBLY_MEMBERS
100
AcDbSpline
 62
7
  6
CONTINUOUS
 70
0
 71
3
 72
19
 73
15
 74
0
 42
0.0000001
 43
0.0000001
 44
0.0000000001
 40
0.0
 40
0.0
 40
0.0
 40
0.0
 40
0.0990803152
 40
0.1532280992
 40
0.2105222212
 40
0.3341065625
 40
0.3998711221
 40
0.4675764189
 40
0.5365249127
 40
0.6059788522
 40
0.6752300748
 40
0.7435972494
 40
0.875831498
 40
1.0
 40
1.0
 40
1.0
 40
1.0
 10
4.4973512779
 20
4.2969144385
 30
0.0
 10
4.4963860482
 20
4.2955460271
 30
0.0
 10
4.49509357
 20
4.2932822856
 30
0.0
 10
4.4937160751
 20
4.2899992267
 30
0.0
 10
4.4924743243
 20
4.2862219376
 30
0.0
 10
4.4916400831
 20
4.2821197789
 30
0.0
 10
4.4912099234
 20
4.2777944455
 30
0.0
 10
4.4911017122
 20
4.2743723061
 30
0.0
 10
4.4912139343
 20
4.2708883781
 30
0.0
 10
4.4915471441
 20
4.2673924114
 30
0.0
 10
4.492087173
 20
4.2639323928
 30
0.0
 10
4.4930557637
 20
4.2594733423
 30
0.0
 10
4.494675072
 20
4.2542158943
 30
0.0
 10
4.4964064612
 20
4.2502322088
 30
0.0
 10
4.4973512779
 20
4.2483583227
 30
0.0
  0
SPLINE
  5
2A8
100
AcDbEntity
  8
ALL_ASSEMBLY_MEMBERS
100
AcDbSpline
 62
7
  6
CONTINUOUS
 70
0
 71
3
 72
16
 73
12
 74
0
 42
0.0000001
 43
0.0000001
 44
0.0000000001
 40
0.0
 40
0.0
 40
0.0
 40
0.0
 40
0.0966193193
 40
0.1501065833
 40
0.2070922276
 40
0.330965321
 40
0.4654526471
 40
0.6051375331
 40
0.7437675486
 40
0.8763847837
 40
1.0
 40
1.0
 40
1.0
 40
1.0
 10
4.503755624
 20
4.3009193947
 30
0.0
 10
4.5028974338
 20
4.2995481248
 30
0.0
 10
4.5017600159
 20
4.2972906086
 30
0.0
 10
4.5005541257
 20
4.2940380418
 30
0.0
 10
4.4994600674
 20
4.2902664932
 30
0.0
 10
4.4985274466
 20
4.2850531222
 30
0.0
 10
4.4981604201
 20
4.2783842013
 30
0.0
 10
4.4985559386
 20
4.2714702919
 30
0.0
 10
4.4996693014
 20
4.2646683428
 30
0.0
 10
4.5013937784
 20
4.2582751911
 30
0.0
 10
4.5029204895
 20
4.2542569648
 30
0.0
 10
4.503755624
 20
4.2523632789
 30
0.0
  0
SPLINE
  5
2A9
100
AcDbEntity
  8
ALL_ASSEMBLY_MEMBERS
100
AcDbSpline
 62
7
  6
CONTINUOUS
 70
0
 71
3
 72
17
 73
13
 74
0
 42
0.0000001
 43
0.0000001
 44
0.0000000001
 40
0.0
 40
0.0
 40
0.0
 40
0.0
 40
0.0453020712
 40
0.0943291462
 40
0.1471906838
 40
0.2038841407
 40
0.3280166768
 40
0.463500192
 40
0.6044104032
 40
0.7440032782
 40
0.8769420263
 40
1.0
 40
1.0
 40
1.0
 40
1.0
 10
4.511807522
 20
4.3048336625
 30
0.0
 10
4.5114496279
 20
4.3041722122
 30
0.0
 10
4.5107627261
 20
4.3027628066
 30
0.0
 10
4.5098586949
 20
4.3004905377
 30
0.0
 10
4.5090572968
 20
4.2979806782
 30
0.0
 10
4.5081172877
 20
4.2942144749
 30
0.0
 10
4.5073191528
 20
4.2890117017
 30
0.0
 10
4.5070056536
 20
4.2823592527
 30
0.0
 10
4.5073444611
 20
4.2754515678
 30
0.0
 10
4.5082977828
 20
4.2686452975
 30
0.0
 10
4.5097747392
 20
4.2622382084
 30
0.0
 10
4.5110875901
 20
4.2581893937
 30
0.0
 10
4.511807522
 20
4.2562775467
 30
0.0
  0
SPLINE
  5
2AA
100
AcDbEntity
  8
ALL_ASSEMBLY_MEMBERS
100
AcDbSpline
 62
7
  6
CONTINUOUS
 70
0
 71
3
 72
17
 73
13
 74
0
 42
0.0000001
 43
0.0000001
 44
0.0000000001
 40
0.0
 40
0.0
 40
0.0
 40
0.0
 40
0.0440383476
 40
0.0921698859
 40
0.1444762416
 40
0.2009194581
 40
0.3253114674
 40
0.4617087001
 40
0.6037319993
 40
0.7442006727
 40
0.8774387253
 40
1.0
 40
1.0
 40
1.0
 40
1.0
 10
4.5214649915
 20
4.3086368338
 30
0.0
 10
4.5211663395
 20
4.3079756581
 30
0.0
 10
4.5205943813
 20
4.3065674806
 30
0.0
 10
4.5198454326
 20
4.3043067275
 30
0.0
 10
4.519181454
 20
4.3018074405
 30
0.0
 10
4.5184007701
 20
4.2980451408
 30
0.0
 10
4.5177404239
 20
4.2928520049
 30
0.0
 10
4.517481376
 20
4.2862137708
 30
0.0
 10
4.517761997
 20
4.2793116447
 30
0.0
 10
4.518551266
 20
4.2725021318
 30
0.0
 10
4.5197742627
 20
4.266083935
 30
0.0
 10
4.5208652655
 20
4.2620086955
 30
0.0
 10
4.5214649915
 20
4.260080718
 30
0.0
  0
SPLINE
  5
2AB
100
AcDbEntity
  8
ALL_ASSEMBLY_MEMBERS
100
AcDbSpline
 62
7
  6
CONTINUOUS
 70
0
 71
3
 72
18
 73
14
 74
0
 42
0.0000001
 43
0.0000001
 44
0.0000000001
 40
0.0
 40
0.0
 40
0.0
 40
0.0
 40
0.0429348378
 40
0.0902939703
 40
0.1421270254
 40
0.1983612198
 40
0.2587710657
 40
0.3230065817
 40
0.4601872102
 40
0.603159472
 40
0.7443738974
 40
0.8778669033
 40
1.0
 40
1.0
 40
1.0
 40
1.0
 10
4.5326776814
 20
4.3123090801
 30
0.0
 10
4.5324405909
 20
4.311647561
 30
0.0
 10
4.531987602
 20
4.3102397698
 30
0.0
 10
4.5313971875
 20
4.3079887305
 30
0.0
 10
4.5308737082
 20
4.3054983028
 30
0.0
 10
4.5304269787
 20
4.3027764079
 30
0.0
 10
4.5300665331
 20
4.2998371557
 30
0.0
 10
4.5297062048
 20
4.29556613
 30
0.0
 10
4.5295330653
 20
4.2899274574
 30
0.0
 10
4.5297541973
 20
4.2830303574
 30
0.0
 10
4.5303761994
 20
4.2762184556
 30
0.0
 10
4.5313400768
 20
4.2697917479
 30
0.0
 10
4.532202531
 20
4.2656946486
 30
0.0
 10
4.5326776814
 20
4.2637529643
 30
0.0
  0
SPLINE
  5
2AC
100
AcDbEntity
  8
ALL_ASSEMBLY_MEMBERS
100
AcDbSpline
 62
7
  6
CONTINUOUS
 70
0
 71
3
 72
17
 73
13
 74
0
 42
0.0000001
 43
0.0000001
 44
0.0000000001
 40
0.0
 40
0.0
 40
0.0
 40
0.0
 40
0.042042279
 40
0.0887833771
 40
0.1402432276
 40
0.19631705
 40
0.3211377878
 40
0.4589525497
 40
0.6026880057
 40
0.744503562
 40
0.8782056235
 40
1.0
 40
1.0
 40
1.0
 40
1.0
 10
4.5453871318
 20
4.3158312553
 30
0.0
 10
4.5452136662
 20
4.3151690587
 30
0.0
 10
4.5448829927
 20
4.3137611975
 30
0.0
 10
4.5444536997
 20
4.3115179102
 30
0.0
 10
4.5440729781
 20
4.3090344609
 30
0.0
 10
4.5436236079
 20
4.3052774366
 30
0.0
 10
4.5432457167
 20
4.3000989334
 30
0.0
 10
4.5430976863
 20
4.2934816132
 30
0.0
 10
4.5432585791
 20
4.2865878822
 30
0.0
 10
4.5437107943
 20
4.2797744397
 30
0.0
 10
4.5444116233
 20
4.2733415642
 30
0.0
 10
4.5450401911
 20
4.2692276324
 30
0.0
 10
4.5453871318
 20
4.2672751395
 30
0.0
  0
SPLINE
  5
2AD
100
AcDbEntity
  8
ALL_ASSEMBLY_MEMBERS
100
AcDbSpline
 62
7
  6
CONTINUOUS
 70
0
 71
3
 72
18
 73
14
 74
0
 42
0.0000001
 43
0.0000001
 44
0.0000000001
 40
0.0
 40
0.0
 40
0.0
 40
0.0
 40
0.041403644
 40
0.0877062627
 40
0.1389030264
 40
0.194864938
 40
0.319826445
 40
0.4580868982
 40
0.5299905362
 40
0.6023609472
 40
0.7445975206
 40
0.8784457396
 40
1.0
 40
1.0
 40
1.0
 40
1.0
 10
4.5595270794
 20
4.3191849959
 30
0.0
 10
4.5594189054
 20
4.3185220739
 30
0.0
 10
4.559213081
 20
4.3171139405
 30
0.0
 10
4.5589466433
 20
4.3148761165
 30
0.0
 10
4.5587103094
 20
4.3123975501
 30
0.0
 10
4.5584310115
 20
4.3086420197
 30
0.0
 10
4.5581965572
 20
4.3034680696
 30
0.0
 10
4.558121089
 20
4.2980310583
 30
0.0
 10
4.5581541271
 20
4.2934475013
 30
0.0
 10
4.558252675
 20
4.2888003695
 30
0.0
 10
4.5584853052
 20
4.2831514447
 30
0.0
 10
4.5589203061
 20
4.2767145524
 30
0.0
 10
4.5593110879
 20
4.2725889859
 30
0.0
 10
4.5595270794
 20
4.2706288801
 30
0.0
  0
SPLINE
  5
2AE
100
AcDbEntity
  8
ALL_ASSEMBLY_MEMBERS
100
AcDbSpline
 62
7
  6
CONTINUOUS
 70
0
 71
3
 72
15
 73
11
 74
0
 42
0.0000001
 43
0.0000001
 44
0.0000000001
 40
0.0
 40
0.0
 40
0.0
 40
0.0
 40
0.121425257
 40
0.2553540471
 40
0.3978198713
 40
0.5423813786
 40
0.6808848638
 40
0.80592496
 40
0.9128815388
 40
1.0
 40
1.0
 40
1.0
 40
1.0
 10
4.5750238026
 20
4.2737967006
 30
0.0
 10
4.5749405159
 20
4.2757609223
 30
0.0
 10
4.5747899439
 20
4.279892693
 30
0.0
 10
4.5746224884
 20
4.2863316913
 30
0.0
 10
4.5745144366
 20
4.2931466215
 30
0.0
 10
4.5744759921
 20
4.3000363789
 30
0.0
 10
4.5745112819
 20
4.3066440227
 30
0.0
 10
4.5746160594
 20
4.3126420295
 30
0.0
 10
4.5747800203
 20
4.31780637
 30
0.0
 10
4.5749352006
 20
4.3209450738
 30
0.0
 10
4.5750238026
 20
4.3223528164
 30
0.0
  0
SPLINE
  5
2AF
100
AcDbEntity
  8
ALL_ASSEMBLY_MEMBERS
100
AcDbSpline
 62
7
  6
CONTINUOUS
 70
0
 71
3
 72
23
 73
19
 74
0
 42
0.0000001
 43
0.0000001
 44
0.0000000001
 40
0.0
 40
0.0
 40
0.0
 40
0.0
 40
0.0634461667
 40
0.1269656267
 40
0.1904568881
 40
0.2538540349
 40
0.3171063727
 40
0.3802193073
 40
0.4431177852
 40
0.5057826909
 40
0.5681965377
 40
0.6303576733
 40
0.6923030953
 40
0.7540337813
 40
0.8156436588
 40
0.8771712338
 40
0.9386331114
 40
1.0
 40
1.0
 40
1.0
 40
1.0
 10
5.0941509827
 20
4.3158262659
 30
0.0
 10
5.0950059961
 20
4.3150230998
 30
0.0
 10
5.0966556582
 20
4.3133488299
 30
0.0
 10
5.0989139581
 20
4.3106414063
 30
0.0
 10
5.1009201871
 20
4.3077421731
 30
0.0
 10
5.1026354063
 20
4.304666739
 30
0.0
 10
5.1040223731
 20
4.3014365964
 30
0.0
 10
5.105042495
 20
4.2980815196
 30
0.0
 10
5.1056713479
 20
4.2946419225
 30
0.0
 10
5.1058812691
 20
4.2911642094
 30
0.0
 10
5.1056730214
 20
4.2876999396
 30
0.0
 10
5.1050453997
 20
4.284300342
 30
0.0
 10
5.1040258693
 20
4.2810108909
 30
0.0
 10
5.1026387656
 20
4.2778705115
 30
0.0
 10
5.1009228599
 20
4.2749069788
 30
0.0
 10
5.0989155954
 20
4.2721394538
 30
0.0
 10
5.0966561469
 20
4.2695810664
 30
0.0
 10
5.0950058605
 20
4.2680161983
 30
0.0
 10
5.0941509827
 20
4.2672701501
 30
0.0
  0
SPLINE
  5
2B0
100
AcDbEntity
  8
ALL_ASSEMBLY_MEMBERS
100
AcDbSpline
 62
7
  6
CONTINUOUS
 70
0
 71
3
 72
71
 73
67
 74
0
 42
0.0000001
 43
0.0000001
 44
0.0000000001
 40
0.0
 40
0.0
 40
0.0
 40
0.0
 40
0.0471152644
 40
0.0938049523
 40
0.1396087701
 40
0.184114024
 40
0.2269060342
 40
0.2675902128
 40
0.287025376
 40
0.305797404
 40
0.3238637571
 40
0.3411847658
 40
0.3577237714
 40
0.3734450637
 40
0.3883168231
 40
0.4023107728
 40
0.4154004078
 40
0.4275647447
 40
0.438787657
 40
0.4490570068
 40
0.458369707
 40
0.4667319223
 40
0.4705621822
 40
0.474163065
 40
0.4775402045
 40
0.480700828
 40
0.4836541741
 40
0.4864120203
 40
0.488989375
 40
0.4914054412
 40
0.4936838994
 40
0.4958531368
 40
0.4979461933
 40
0.4999999997
 40
0.502053806
 40
0.5041468625
 40
0.5063160998
 40
0.508594558
 40
0.5110106241
 40
0.5135879788
 40
0.516345825
 40
0.519299171
 40
0.5224597944
 40
0.5258369338
 40
0.5294378165
 40
0.5332680764
 40
0.5416302915
 40
0.5509429915
 40
0.5612123412
 40
0.5724352534
 40
0.58459959
 40
0.597689225
 40
0.6116831746
 40
0.6265549338
 40
0.642276226
 40
0.6588152313
 40
0.6761362398
 40
0.6942025929
 40
0.7129746208
 40
0.7324097839
 40
0.7730939618
 40
0.8158859724
 40
0.8603912281
 40
0.9061950469
 40
0.9528847354
 40
1.0
 40
1.0
 40
1.0
 40
1.0
 10
4.8197593168
 20
3.8536327964
 30
0.0
 10
4.8106120681
 20
3.8536327964
 30
0.0
 10
4.7923998102
 20
3.8537875813
 30
0.0
 10
4.7653029012
 20
3.8544819835
 30
0.0
 10
4.738728551
 20
3.8556322686
 30
0.0
 10
4.7129351218
 20
3.8572264786
 30
0.0
 10
4.6881687995
 20
3.8592491614
 30
0.0
 10
4.6682930042
 20
3.8613046142
 30
0.0
 10
4.6530890802
 20
3.8631608178
 30
0.0
 10
4.6422620427
 20
3.8646252795
 30
0.0
 10
4.6318623966
 20
3.8661799188
 30
0.0
 10
4.621915139
 20
3.8678210166
 30
0.0
 10
4.6124441251
 20
3.8695442042
 30
0.0
 10
4.6034721143
 20
3.8713456033
 30
0.0
 10
4.5950205862
 20
3.8732207541
 30
0.0
 10
4.5871096682
 20
3.8751646791
 30
0.0
 10
4.579758272
 20
3.8771730211
 30
0.0
 10
4.5729837463
 20
3.879240689
 30
0.0
 10
4.5668018596
 20
3.8813621919
 30
0.0
 10
4.5612268559
 20
3.8835329043
 30
0.0
 10
4.5562714825
 20
3.8857473589
 30
0.0
 10
4.5525650001
 20
3.8876771804
 30
0.0
 10
4.5499316785
 20
3.8892494726
 30
0.0
 10
4.5481772097
 20
3.8904019242
 30
0.0
 10
4.5465856473
 20
3.8915616139
 30
0.0
 10
4.5451577852
 20
3.8927280412
 30
0.0
 10
4.5438944131
 20
3.8939007149
 30
0.0
 10
4.5427963471
 20
3.8950792506
 30
0.0
 10
4.5418645207
 20
3.8962634576
 30
0.0
 10
4.5410996773
 20
3.897453015
 30
0.0
 10
4.5405026594
 20
3.898647606
 30
0.0
 10
4.5400746223
 20
3.8998467431
 30
0.0
 10
4.5398169196
 20
3.9010494823
 30
0.0
 10
4.539730788
 20
3.9022542859
 30
0.0
 10
4.5398169196
 20
3.9034590894
 30
0.0
 10
4.5400746222
 20
3.9046618286
 30
0.0
 10
4.5405026592
 20
3.9058609657
 30
0.0
 10
4.5410996771
 20
3.9070555567
 30
0.0
 10
4.5418645204
 20
3.9082451142
 30
0.0
 10
4.5427963468
 20
3.9094293211
 30
0.0
 10
4.5438944127
 20
3.9106078568
 30
0.0
 10
4.5451577848
 20
3.9117805305
 30
0.0
 10
4.5465856468
 20
3.9129469578
 30
0.0
 10
4.5481772091
 20
3.9141066475
 30
0.0
 10
4.5499316779
 20
3.9152590992
 30
0.0
 10
4.5525649994
 20
3.9168313913
 30
0.0
 10
4.5562714818
 20
3.9187612128
 30
0.0
 10
4.561226855
 20
3.9209756674
 30
0.0
 10
4.5668018586
 20
3.9231463798
 30
0.0
 10
4.5729837452
 20
3.9252678827
 30
0.0
 10
4.5797582708
 20
3.9273355507
 30
0.0
 10
4.5871096669
 20
3.9293438926
 30
0.0
 10
4.5950205848
 20
3.9312878177
 30
0.0
 10
4.6034721128
 20
3.9331629685
 30
0.0
 10
4.6124441236
 20
3.9349643676
 30
0.0
 10
4.6219151374
 20
3.9366875552
 30
0.0
 10
4.6318623949
 20
3.9383286531
 30
0.0
 10
4.6422620409
 20
3.9398832923
 30
0.0
 10
4.6530890784
 20
3.941347754
 30
0.0
 10
4.6682930022
 20
3.9432039576
 30
0.0
 10
4.6881687974
 20
3.9452594107
 30
0.0
 10
4.71293512
 20
3.9472820934
 30
0.0
 10
4.7387285498
 20
3.9488763028
 30
0.0
 10
4.7653029006
 20
3.950026589
 30
0.0
 10
4.79239981
 20
3.9507209915
 30
0.0
 10
4.8106120681
 20
3.9508757759
 30
0.0
 10
4.8197593168
 20
3.9508757759
 30
0.0
  0
SPLINE
  5
2B1
100
AcDbEntity
  8
ALL_ASSEMBLY_MEMBERS
100
AcDbSpline
 62
7
  6
CONTINUOUS
 70
0
 71
3
 72
22
 73
18
 74
0
 42
0.0000001
 43
0.0000001
 44
0.0000000001
 40
0.0
 40
0.0
 40
0.0
 40
0.0
 40
0.063572208
 40
0.1272972547
 40
0.1910637938
 40
0.2547910075
 40
0.3184064231
 40
0.3818879891
 40
0.4451275741
 40
0.5080705051
 40
0.5706673345
 40
0.6328899935
 40
0.6947599542
 40
0.7562724168
 40
0.8175261836
 40
0.8785711432
 40
1.0
 40
1.0
 40
1.0
 40
1.0
 10
5.106858309
 20
4.3123038595
 30
0.0
 10
5.107699809
 20
4.3114895137
 30
0.0
 10
5.1093232271
 20
4.3097935866
 30
0.0
 10
5.1115440877
 20
4.3070581025
 30
0.0
 10
5.1135169539
 20
4.3041341408
 30
0.0
 10
5.1152035305
 20
4.30103781
 30
0.0
 10
5.1165673084
 20
4.2977911104
 30
0.0
 10
5.1175703854
 20
4.2944242354
 30
0.0
 10
5.118188843
 20
4.2909778378
 30
0.0
 10
5.1183955236
 20
4.2874984511
 30
0.0
 10
5.1181911031
 20
4.2840375427
 30
0.0
 10
5.1175743314
 20
4.2806461248
 30
0.0
 10
5.1165720748
 20
4.2773693965
 30
0.0
 10
5.115208228
 20
4.27424606
 30
0.0
 10
5.1135205123
 20
4.2713031234
 30
0.0
 10
5.110894781
 20
4.267654386
 30
0.0
 10
5.1085419309
 20
4.2652203193
 30
0.0
 10
5.106858309
 20
4.2637477437
 30
0.0
  0
SPLINE
  5
2B2
100
AcDbEntity
  8
ALL_ASSEMBLY_MEMBERS
100
AcDbSpline
 62
7
  6
CONTINUOUS
 70
0
 71
3
 72
22
 73
18
 74
0
 42
0.0000001
 43
0.0000001
 44
0.0000000001
 40
0.0
 40
0.0
 40
0.0
 40
0.0
 40
0.0636082334
 40
0.1274734898
 40
0.1914773515
 40
0.2555235169
 40
0.3195164164
 40
0.3834026471
 40
0.4470354177
 40
0.5103180648
 40
0.5731602327
 40
0.6354979597
 40
0.6973295092
 40
0.7586371883
 40
0.8195193998
 40
0.8800352636
 40
1.0
 40
1.0
 40
1.0
 40
1.0
 10
5.1180687842
 20
4.3086314093
 30
0.0
 10
5.1188925092
 20
4.3078059264
 30
0.0
 10
5.1204814528
 20
4.3060883908
 30
0.0
 10
5.1226532477
 20
4.3033253931
 30
0.0
 10
5.1245823787
 20
4.300377184
 30
0.0
 10
5.1262314973
 20
4.2972603987
 30
0.0
 10
5.1275649069
 20
4.2939975012
 30
0.0
 10
5.1285456637
 20
4.2906191595
 30
0.0
 10
5.129150449
 20
4.2871662362
 30
0.0
 10
5.1293527486
 20
4.2836853975
 30
0.0
 10
5.1291532504
 20
4.2802279948
 30
0.0
 10
5.1285505819
 20
4.2768447801
 30
0.0
 10
5.1275709084
 20
4.2735806989
 30
0.0
 10
5.1262374807
 20
4.2704740734
 30
0.0
 10
5.1245870693
 20
4.2675516327
 30
0.0
 10
5.1220220959
 20
4.2639388173
 30
0.0
 10
5.119718592
 20
4.2615297424
 30
0.0
 10
5.1180687842
 20
4.2600752936
 30
0.0
  0
SPLINE
  5
2B3
100
AcDbEntity
  8
ALL_ASSEMBLY_MEMBERS
100
AcDbSpline
 62
7
  6
CONTINUOUS
 70
0
 71
3
 72
21
 73
17
 74
0
 42
0.0000001
 43
0.0000001
 44
0.0000000001
 40
0.0
 40
0.0
 40
0.0
 40
0.0
 40
0.0534948602
 40
0.1085892525
 40
0.1654115667
 40
0.2240656789
 40
0.2845915833
 40
0.3469846131
 40
0.4110227653
 40
0.4764284927
 40
0.5427913332
 40
0.6096585671
 40
0.6765860331
 40
0.743123163
 40
0.8738120819
 40
1.0
 40
1.0
 40
1.0
 40
1.0
 10
4.8317448121
 20
4.3410518888
 30
0.0
 10
4.8323905995
 20
4.3403714349
 30
0.0
 10
4.8336373921
 20
4.3389277657
 30
0.0
 10
4.8353210602
 20
4.3365605148
 30
0.0
 10
4.8368149594
 20
4.3339635982
 30
0.0
 10
4.8380901802
 20
4.3311476206
 30
0.0
 10
4.8391193291
 20
4.3281290787
 30
0.0
 10
4.8398742194
 20
4.3249334934
 30
0.0
 10
4.8403378456
 20
4.3215964297
 30
0.0
 10
4.8404904034
 20
4.3181612293
 30
0.0
 10
4.840333313
 20
4.3146767816
 30
0.0
 10
4.8398658837
 20
4.3111936113
 30
0.0
 10
4.8391081526
 20
4.3077589483
 30
0.0
 10
4.8377429202
 20
4.3033278443
 30
0.0
 10
4.8354461615
 20
4.2981172801
 30
0.0
 10
4.8330453093
 20
4.2942861999
 30
0.0
 10
4.8317448121
 20
4.292495773
 30
0.0
  0
SPLINE
  5
2B4
100
AcDbEntity
  8
ALL_ASSEMBLY_MEMBERS
100
AcDbSpline
 62
7
  6
CONTINUOUS
 70
0
 71
3
 72
21
 73
17
 74
0
 42
0.0000001
 43
0.0000001
 44
0.0000000001
 40
0.0
 40
0.0
 40
0.0
 40
0.0
 40
0.1274335806
 40
0.1916541632
 40
0.2560234343
 40
0.3204209709
 40
0.3847592585
 40
0.448847961
 40
0.5125416127
 40
0.5757011981
 40
0.6382185626
 40
0.700060411
 40
0.7611892959
 40
0.821698687
 40
0.8816539858
 40
1.0
 40
1.0
 40
1.0
 40
1.0
 10
5.1277239601
 20
4.3048280624
 30
0.0
 10
5.1293311335
 20
4.3031512025
 30
0.0
 10
5.1315660937
 20
4.3004412125
 30
0.0
 10
5.1340587298
 20
4.2964908958
 30
0.0
 10
5.1356619001
 20
4.293353939
 30
0.0
 10
5.1369578775
 20
4.290075401
 30
0.0
 10
5.1379111281
 20
4.2866860072
 30
0.0
 10
5.1384990147
 20
4.2832269287
 30
0.0
 10
5.1386958491
 20
4.2797449277
 30
0.0
 10
5.1385023003
 20
4.2762912198
 30
0.0
 10
5.1379169316
 20
4.2729162578
 30
0.0
 10
5.1369650581
 20
4.2696647111
 30
0.0
 10
5.1356691207
 20
4.266574503
 30
0.0
 10
5.1340647539
 20
4.2636720682
 30
0.0
 10
5.131574559
 20
4.2600952466
 30
0.0
 10
5.1293321238
 20
4.2577095388
 30
0.0
 10
5.1277239601
 20
4.2562719466
 30
0.0
  0
SPLINE
  5
2B5
100
AcDbEntity
  8
ALL_ASSEMBLY_MEMBERS
100
AcDbSpline
 62
7
  6
CONTINUOUS
 70
0
 71
3
 72
40
 73
36
 74
0
 42
0.0000001
 43
0.0000001
 44
0.0000000001
 40
0.0
 40
0.0
 40
0.0
 40
0.0
 40
0.0041076025
 40
0.0082937052
 40
0.012632169
 40
0.017189074
 40
0.0220211943
 40
0.0271758909
 40
0.0326915696
 40
0.0385982467
 40
0.0449194775
 40
0.0516737393
 40
0.0588754865
 40
0.0665359873
 40
0.0746633751
 40
0.0832627843
 40
0.1018881368
 40
0.1224267848
 40
0.1448725523
 40
0.1692011634
 40
0.1953803675
 40
0.223368195
 40
0.2531116374
 40
0.2845541437
 40
0.3176320715
 40
0.3522740008
 40
0.3884066149
 40
0.4259505725
 40
0.464820799
 40
0.5461889602
 40
0.6317727657
 40
0.7207830297
 40
0.8123904528
 40
0.9057696678
 40
1.0
 40
1.0
 40
1.0
 40
1.0
 10
4.5197593168
 20
3.9219504412
 30
0.0
 10
4.5197593168
 20
3.9223776611
 30
0.0
 10
4.5198210341
 20
3.9232414642
 30
0.0
 10
4.520097144
 20
3.9245299056
 30
0.0
 10
4.520555755
 20
3.9258147538
 30
0.0
 10
4.5211954169
 20
3.9270946559
 30
0.0
 10
4.5220148918
 20
3.9283691865
 30
0.0
 10
4.5230132772
 20
3.9296379782
 30
0.0
 10
4.5241897763
 20
3.9309006952
 30
0.0
 10
4.5255433889
 20
3.9321571316
 30
0.0
 10
4.5270732413
 20
3.9334068732
 30
0.0
 10
4.5287784842
 20
3.9346494057
 30
0.0
 10
4.530658281
 20
3.935884143
 30
0.0
 10
4.5327117493
 20
3.9371103727
 30
0.0
 10
4.5349377605
 20
3.9383274398
 30
0.0
 10
4.5382222771
 20
3.9399814163
 30
0.0
 10
4.5427604421
 20
3.9420090427
 30
0.0
 10
4.5487334054
 20
3.9443348325
 30
0.0
 10
4.5553569322
 20
3.9466078631
 30
0.0
 10
4.5626153279
 20
3.9488232241
 30
0.0
 10
4.5704918297
 20
3.9509750181
 30
0.0
 10
4.57896781
 20
3.9530577952
 30
0.0
 10
4.5880230179
 20
3.9550668853
 30
0.0
 10
4.5976358855
 20
3.9569969556
 30
0.0
 10
4.6077833993
 20
3.9588432279
 30
0.0
 10
4.6184411738
 20
3.9606015471
 30
0.0
 10
4.6295836499
 20
3.9622672321
 30
0.0
 10
4.6411840452
 20
3.9638362989
 30
0.0
 10
4.6574739622
 20
3.9658250889
 30
0.0
 10
4.6787694559
 20
3.9680273572
 30
0.0
 10
4.705304797
 20
3.9701945188
 30
0.0
 10
4.7329406105
 20
3.9719026086
 30
0.0
 10
4.7614131336
 20
3.9731350465
 30
0.0
 10
4.7904455468
 20
3.9738790461
 30
0.0
 10
4.8099586901
 20
3.9740448945
 30
0.0
 10
4.8197593168
 20
3.9740448945
 30
0.0
  0
SPLINE
  5
2B6
100
AcDbEntity
  8
ALL_ASSEMBLY_MEMBERS
100
AcDbSpline
 62
7
  6
CONTINUOUS
 70
0
 71
3
 72
23
 73
19
 74
0
 42
0.0000001
 43
0.0000001
 44
0.0000000001
 40
0.0
 40
0.0
 40
0.0
 40
0.0
 40
0.0324175164
 40
0.0661063154
 40
0.1021958563
 40
0.1416022774
 40
0.1850185802
 40
0.2329408655
 40
0.2857213346
 40
0.3436079695
 40
0.4067612795
 40
0.4752774757
 40
0.5492131815
 40
0.628593148
 40
0.7134038982
 40
0.8036100978
 40
0.8991638047
 40
1.0
 40
1.0
 40
1.0
 40
1.0
 10
4.5197593168
 20
4.2198547865
 30
0.0
 10
4.5197593168
 20
4.2204734783
 30
0.0
 10
4.5198911922
 20
4.2217386022
 30
0.0
 10
4.5204763486
 20
4.2236106781
 30
0.0
 10
4.5214420821
 20
4.2254677625
 30
0.0
 10
4.5227819651
 20
4.2273080428
 30
0.0
 10
4.5244917832
 20
4.2291325317
 30
0.0
 10
4.5265684589
 20
4.2309418795
 30
0.0
 10
4.5290098954
 20
4.2327356377
 30
0.0
 10
4.531813943
 20
4.2345123568
 30
0.0
 10
4.5349775964
 20
4.2362705157
 30
0.0
 10
4.5384972376
 20
4.2380083744
 30
0.0
 10
4.5423689568
 20
4.2397238181
 30
0.0
 10
4.5465883439
 20
4.2414145265
 30
0.0
 10
4.551150192
 20
4.2430786074
 30
0.0
 10
4.5560488726
 20
4.2447139977
 30
0.0
 10
4.5612784543
 20
4.2463185029
 30
0.0
 10
4.564885301
 20
4.2473390184
 30
0.0
 10
4.5667420363
 20
4.2478450989
 30
0.0
  0
SPLINE
  5
2B7
100
AcDbEntity
  8
ALL_ASSEMBLY_MEMBERS
100
AcDbSpline
 62
7
  6
CONTINUOUS
 70
0
 71
3
 72
19
 73
15
 74
0
 42
0.0000001
 43
0.0000001
 44
0.0000000001
 40
0.0
 40
0.0
 40
0.0
 40
0.0
 40
0.0468690562
 40
0.0966042401
 40
0.1490705132
 40
0.2041165591
 40
0.2615840169
 40
0.3213030813
 40
0.3830952618
 40
0.4467762119
 40
0.5790257034
 40
0.7164375197
 40
0.8573478308
 40
1.0
 40
1.0
 40
1.0
 40
1.0
 10
4.5844502657
 20
4.2521690414
 30
0.0
 10
4.5880595905
 20
4.252961539
 30
0.0
 10
4.5955194997
 20
4.2545023483
 30
0.0
 10
4.6070784072
 20
4.2566345569
 30
0.0
 10
4.6193119336
 20
4.2586509128
 30
0.0
 10
4.6321813466
 20
4.2605453895
 30
0.0
 10
4.6456458935
 20
4.2623114796
 30
0.0
 10
4.6596628884
 20
4.2639436549
 30
0.0
 10
4.6741879168
 20
4.2654367346
 30
0.0
 10
4.6944262344
 20
4.2672581855
 30
0.0
 10
4.720643094
 20
4.2691396389
 30
0.0
 10
4.7529758801
 20
4.2707543809
 30
0.0
 10
4.7861545821
 20
4.2717314987
 30
0.0
 10
4.808512168
 20
4.2719492398
 30
0.0
 10
4.8197593168
 20
4.2719492398
 30
0.0
  0
SPLINE
  5
2B8
100
AcDbEntity
  8
ALL_ASSEMBLY_MEMBERS
100
AcDbSpline
 62
7
  6
CONTINUOUS
 70
0
 71
3
 72
19
 73
15
 74
0
 42
0.0000001
 43
0.0000001
 44
0.0000000001
 40
0.0
 40
0.0
 40
0.0
 40
0.0
 40
0.1257218229
 40
0.2568674916
 40
0.323908473
 40
0.3914674911
 40
0.4590319479
 40
0.5260863725
 40
0.5921013872
 40
0.6565901432
 40
0.7192089715
 40
0.7796806547
 40
0.8939528078
 40
1.0
 40
1.0
 40
1.0
 40
1.0
 10
4.8317448121
 20
4.292495773
 30
0.0
 10
4.8305301159
 20
4.2943094575
 30
0.0
 10
4.8282913727
 20
4.2981840668
 30
0.0
 10
4.8261623714
 20
4.3034109662
 30
0.0
 10
4.8248949053
 20
4.3078514126
 30
0.0
 10
4.824190595
 20
4.3112938073
 30
0.0
 10
4.8237560918
 20
4.3147809331
 30
0.0
 10
4.8236099761
 20
4.3182653912
 30
0.0
 10
4.8237515637
 20
4.3216968066
 30
0.0
 10
4.8241821369
 20
4.3250264769
 30
0.0
 10
4.8248835247
 20
4.3282116593
 30
0.0
 10
4.8261343204
 20
4.3321434727
 30
0.0
 10
4.8282406744
 20
4.3365728948
 30
0.0
 10
4.8305183449
 20
4.339678554
 30
0.0
 10
4.8317448121
 20
4.3410518888
 30
0.0
  0
SPLINE
  5
2B9
100
AcDbEntity
  8
ALL_ASSEMBLY_MEMBERS
100
AcDbSpline
 62
7
  6
CONTINUOUS
 70
0
 71
3
 72
21
 73
17
 74
0
 42
0.0000001
 43
0.0000001
 44
0.0000000001
 40
0.0
 40
0.0
 40
0.0
 40
0.0
 40
0.1273624714
 40
0.191768235
 40
0.2564526042
 40
0.3212685757
 40
0.3860915581
 40
0.4506830915
 40
0.5148430254
 40
0.5783764627
 40
0.6411231688
 40
0.7030105969
 40
0.7639746001
 40
0.8240985048
 40
0.8834506477
 40
1.0
 40
1.0
 40
1.0
 40
1.0
 10
5.1357734975
 20
4.3009136483
 30
0.0
 10
5.137330429
 20
4.2992127623
 30
0.0
 10
5.1394913798
 20
4.2964715758
 30
0.0
 10
5.1418967679
 20
4.2924952323
 30
0.0
 10
5.1434454075
 20
4.2893390125
 30
0.0
 10
5.1446972038
 20
4.2860453334
 30
0.0
 10
5.1456179183
 20
4.2826453766
 30
0.0
 10
5.146185799
 20
4.2791804986
 30
0.0
 10
5.1463761038
 20
4.275697587
 30
0.0
 10
5.1461895006
 20
4.2722476986
 30
0.0
 10
5.1456245082
 20
4.2688809661
 30
0.0
 10
5.1447054657
 20
4.2656417689
 30
0.0
 10
5.1434538782
 20
4.262567604
 30
0.0
 10
5.1419040359
 20
4.259684614
 30
0.0
 10
5.1395022243
 20
4.2561437592
 30
0.0
 10
5.1373323547
 20
4.2537796789
 30
0.0
 10
5.1357734975
 20
4.2523575325
 30
0.0
  0
SPLINE
  5
2BA
100
AcDbEntity
  8
ALL_ASSEMBLY_MEMBERS
100
AcDbSpline
 62
7
  6
CONTINUOUS
 70
0
 71
3
 72
21
 73
17
 74
0
 42
0.0000001
 43
0.0000001
 44
0.0000000001
 40
0.0
 40
0.0
 40
0.0
 40
0.0
 40
0.0548160956
 40
0.1109335748
 40
0.1684638387
 40
0.2275090316
 40
0.2881237229
 40
0.3503345892
 40
0.4139699184
 40
0.478814375
 40
0.544530897
 40
0.610741143
 40
0.6770705079
 40
0.7431287919
 40
0.8733799301
 40
1.0
 40
1.0
 40
1.0
 40
1.0
 10
4.8556186219
 20
4.3407517434
 30
0.0
 10
4.8563040496
 20
4.3400649512
 30
0.0
 10
4.8576276365
 20
4.3386099401
 30
0.0
 10
4.8594204709
 20
4.3362216066
 30
0.0
 10
4.8610116225
 20
4.3336056329
 30
0.0
 10
4.862370177
 20
4.3307729181
 30
0.0
 10
4.8634668262
 20
4.3277403071
 30
0.0
 10
4.8642714184
 20
4.3245336216
 30
0.0
 10
4.8647656791
 20
4.3211889252
 30
0.0
 10
4.8649284631
 20
4.3177498315
 30
0.0
 10
4.8647612437
 20
4.3142655403
 30
0.0
 10
4.8642633469
 20
4.3107867174
 30
0.0
 10
4.8634561696
 20
4.3073604407
 30
0.0
 10
4.8620001881
 20
4.3029401545
 30
0.0
 10
4.8595473096
 20
4.2977487814
 30
0.0
 10
4.8569977233
 20
4.2939624279
 30
0.0
 10
4.8556186219
 20
4.2921956276
 30
0.0
  0
SPLINE
  5
2BB
100
AcDbEntity
  8
ALL_ASSEMBLY_MEMBERS
100
AcDbSpline
 62
7
  6
CONTINUOUS
 70
0
 71
3
 72
10
 73
6
 74
0
 42
0.0000001
 43
0.0000001
 44
0.0000000001
 40
0.0
 40
0.0
 40
0.0
 40
0.0
 40
0.2462728329
 40
0.4956044906
 40
1.0
 40
1.0
 40
1.0
 40
1.0
 10
5.1421754284
 20
4.2969085756
 30
0.0
 10
5.1430221667
 20
4.29593412
 30
0.0
 10
5.1446464428
 20
4.2939013621
 30
0.0
 10
5.1475551574
 20
4.2895361501
 30
0.0
 10
5.1492813107
 20
4.2859444837
 30
0.0
 10
5.1501733956
 20
4.2834555257
 30
0.0
  0
SPLINE
  5
2BC
100
AcDbEntity
  8
ALL_ASSEMBLY_MEMBERS
100
AcDbSpline
 62
7
  6
CONTINUOUS
 70
0
 71
3
 72
18
 73
14
 74
0
 42
0.0000001
 43
0.0000001
 44
0.0000000001
 40
0.0
 40
0.0
 40
0.0
 40
0.0
 40
0.1321267972
 40
0.1980992494
 40
0.2637940108
 40
0.3290826608
 40
0.3938284784
 40
0.5211676509
 40
0.5837315202
 40
0.6454500192
 40
0.7664239483
 40
0.8844889023
 40
1.0
 40
1.0
 40
1.0
 40
1.0
 10
5.1501733956
 20
4.2834555257
 30
0.0
 10
5.1507406351
 20
4.2818729014
 30
0.0
 10
5.151433864
 20
4.2794386474
 30
0.0
 10
5.1520101502
 20
4.2761298425
 30
0.0
 10
5.1522592505
 20
4.2736337187
 30
0.0
 10
5.1523215796
 20
4.2711415798
 30
0.0
 10
5.1521584962
 20
4.2678683955
 30
0.0
 10
5.1516234554
 20
4.2646571664
 30
0.0
 10
5.1507362629
 20
4.2615782381
 30
0.0
 10
5.1496434588
 20
4.2586522814
 30
0.0
 10
5.1479024722
 20
4.2552268737
 30
0.0
 10
5.1452873765
 20
4.2515334231
 30
0.0
 10
5.1432476689
 20
4.2493577322
 30
0.0
 10
5.1421754284
 20
4.2483524598
 30
0.0
  0
SPLINE
  5
2BD
100
AcDbEntity
  8
ALL_ASSEMBLY_MEMBERS
100
AcDbSpline
 62
7
  6
CONTINUOUS
 70
0
 71
3
 72
19
 73
15
 74
0
 42
0.0000001
 43
0.0000001
 44
0.0000000001
 40
0.0
 40
0.0
 40
0.0
 40
0.0
 40
0.1251773949
 40
0.2567324783
 40
0.3242619097
 40
0.3924418255
 40
0.4606973679
 40
0.5284417073
 40
0.5950684565
 40
0.6600133688
 40
0.7228644791
 40
0.7832858246
 40
0.8964699676
 40
1.0
 40
1.0
 40
1.0
 40
1.0
 10
4.8556186219
 20
4.2921956276
 30
0.0
 10
4.854496425
 20
4.2940319577
 30
0.0
 10
4.852432074
 20
4.2979483035
 30
0.0
 10
4.8504808171
 20
4.3031886643
 30
0.0
 10
4.8493172472
 20
4.307637017
 30
0.0
 10
4.848669881
 20
4.3110864433
 30
0.0
 10
4.8482704812
 20
4.3145771202
 30
0.0
 10
4.8481360982
 20
4.3180614794
 30
0.0
 10
4.8482660431
 20
4.321489247
 30
0.0
 10
4.8486615146
 20
4.3248119729
 30
0.0
 10
4.8493057734
 20
4.3279871303
 30
0.0
 10
4.8504518577
 20
4.3318916268
 30
0.0
 10
4.8523758403
 20
4.3362788563
 30
0.0
 10
4.8544815387
 20
4.3393823919
 30
0.0
 10
4.8556186219
 20
4.3407517434
 30
0.0
  0
SPLINE
  5
2BE
100
AcDbEntity
  8
ALL_ASSEMBLY_MEMBERS
100
AcDbSpline
 62
7
  6
CONTINUOUS
 70
0
 71
3
 72
9
 73
5
 74
0
 42
0.0000001
 43
0.0000001
 44
0.0000000001
 40
0.0
 40
0.0
 40
0.0
 40
0.0
 40
0.2467188645
 40
1.0
 40
1.0
 40
1.0
 40
1.0
 10
5.146896375
 20
4.2928337256
 30
0.0
 10
5.1473543117
 20
4.2922748829
 30
0.0
 10
5.1491582335
 20
4.2899677315
 30
0.0
 10
5.1507447035
 20
4.2874888472
 30
0.0
 10
5.151787778
 20
4.2855450909
 30
0.0
  0
SPLINE
  5
2BF
100
AcDbEntity
  8
ALL_ASSEMBLY_MEMBERS
100
AcDbSpline
 62
7
  6
CONTINUOUS
 70
0
 71
3
 72
20
 73
16
 74
0
 42
0.0000001
 43
0.0000001
 44
0.0000000001
 40
0.0
 40
0.0
 40
0.0
 40
0.0
 40
0.1309285815
 40
0.1969434489
 40
0.263098331
 40
0.3291388558
 40
0.3948337359
 40
0.5241634222
 40
0.5875169401
 40
0.6497896654
 40
0.7108777791
 40
0.7708103152
 40
0.8296402915
 40
0.8874088025
 40
1.0
 40
1.0
 40
1.0
 40
1.0
 10
5.151787778
 20
4.2855450909
 30
0.0
 10
5.1527096332
 20
4.2838272252
 30
0.0
 10
5.1539235428
 20
4.2811437474
 30
0.0
 10
5.1551411613
 20
4.277417305
 30
0.0
 10
5.155842675
 20
4.2745473264
 30
0.0
 10
5.1563183124
 20
4.2716359032
 30
0.0
 10
5.1566301615
 20
4.2677579307
 30
0.0
 10
5.1564625167
 20
4.2638919583
 30
0.0
 10
5.1558029026
 20
4.260149492
 30
0.0
 10
5.1550861409
 20
4.2574594218
 30
0.0
 10
5.1541548548
 20
4.2548902521
 30
0.0
 10
5.1530272658
 20
4.2524576192
 30
0.0
 10
5.1517221908
 20
4.2501719986
 30
0.0
 10
5.1497867317
 20
4.2473578357
 30
0.0
 10
5.1480992672
 20
4.2454454335
 30
0.0
 10
5.146896375
 20
4.2442776098
 30
0.0
  0
SPLINE
  5
2C0
100
AcDbEntity
  8
ALL_ASSEMBLY_MEMBERS
100
AcDbSpline
 62
7
  6
CONTINUOUS
 70
0
 71
3
 72
21
 73
17
 74
0
 42
0.0000001
 43
0.0000001
 44
0.0000000001
 40
0.0
 40
0.0
 40
0.0
 40
0.0
 40
0.0560586105
 40
0.1131509002
 40
0.1713684785
 40
0.2308073381
 40
0.2915312236
 40
0.353592437
 40
0.4168639388
 40
0.4811876898
 40
0.5462958896
 40
0.6118811958
 40
0.6776358973
 40
0.7432278375
 40
0.8730265273
 40
1.0
 40
1.0
 40
1.0
 40
1.0
 10
4.8793054716
 20
4.3401532351
 30
0.0
 10
4.8800270585
 20
4.3394593421
 30
0.0
 10
4.8814205884
 20
4.3379914987
 30
0.0
 10
4.8833131025
 20
4.3355808433
 30
0.0
 10
4.8849931015
 20
4.3329447916
 30
0.0
 10
4.8864278519
 20
4.3300945291
 30
0.0
 10
4.8875862873
 20
4.3270472353
 30
0.0
 10
4.888436435
 20
4.3238290248
 30
0.0
 10
4.888958816
 20
4.3204764519
 30
0.0
 10
4.8891310277
 20
4.3170334187
 30
0.0
 10
4.8889545699
 20
4.3135494521
 30
0.0
 10
4.888428787
 20
4.3100753737
 30
0.0
 10
4.887576337
 20
4.3066581182
 30
0.0
 10
4.886037054
 20
4.3022501801
 30
0.0
 10
4.8834405426
 20
4.2970808301
 30
0.0
 10
4.880755882
 20
4.293340034
 30
0.0
 10
4.8793054716
 20
4.2915971193
 30
0.0
  0
SPLINE
  5
2C1
100
AcDbEntity
  8
ALL_ASSEMBLY_MEMBERS
100
AcDbSpline
 62
7
  6
CONTINUOUS
 70
0
 71
3
 72
20
 73
16
 74
0
 42
0.0000001
 43
0.0000001
 44
0.0000000001
 40
0.0
 40
0.0
 40
0.0
 40
0.0
 40
0.1103901114
 40
0.167300514
 40
0.2254390852
 40
0.3454738331
 40
0.4075323731
 40
0.4708483071
 40
0.5352865164
 40
0.6006963394
 40
0.6668476126
 40
0.7334875955
 40
0.8003749867
 40
0.8672543273
 40
1.0
 40
1.0
 40
1.0
 40
1.0
 10
5.1499117235
 20
4.2401542276
 30
0.0
 10
5.1509871739
 20
4.2412445643
 30
0.0
 10
5.1524977282
 20
4.2430213889
 30
0.0
 10
5.1542443541
 20
4.2456186142
 30
0.0
 10
5.1558508873
 20
4.2484600384
 30
0.0
 10
5.1571438877
 20
4.2515495759
 30
0.0
 10
5.1580812804
 20
4.254825356
 30
0.0
 10
5.1586070989
 20
4.2574085399
 30
0.0
 10
5.1589370169
 20
4.2600706558
 30
0.0
 10
5.1590622237
 20
4.2627895599
 30
0.0
 10
5.1589841786
 20
4.2655406748
 30
0.0
 10
5.158701497
 20
4.2682988636
 30
0.0
 10
5.1582203599
 20
4.2710396948
 30
0.0
 10
5.1573320976
 20
4.274630947
 30
0.0
 10
5.1563957104
 20
4.2772483294
 30
0.0
 10
5.1556675857
 20
4.2789399018
 30
0.0
  0
SPLINE
  5
2C2
100
AcDbEntity
  8
ALL_ASSEMBLY_MEMBERS
100
AcDbSpline
 62
7
  6
CONTINUOUS
 70
0
 71
3
 72
17
 73
13
 74
0
 42
0.0000001
 43
0.0000001
 44
0.0000000001
 40
0.0
 40
0.0
 40
0.0
 40
0.0
 40
0.2562321202
 40
0.3930453257
 40
0.4620276508
 40
0.5305007963
 40
0.5977819947
 40
0.6632297033
 40
0.7263626419
 40
0.786783613
 40
0.8989648102
 40
1.0
 40
1.0
 40
1.0
 40
1.0
 10
4.8793054716
 20
4.2915971193
 30
0.0
 10
4.8772026028
 20
4.2954161879
 30
0.0
 10
4.8746859612
 20
4.3017019278
 30
0.0
 10
4.873117798
 20
4.3094214103
 30
0.0
 10
4.8726362216
 20
4.3140667855
 30
0.0
 10
4.8725142619
 20
4.3175509186
 30
0.0
 10
4.8726319561
 20
4.3209752474
 30
0.0
 10
4.8729903838
 20
4.324291476
 30
0.0
 10
4.8735743033
 20
4.3274572611
 30
0.0
 10
4.8746104519
 20
4.3313355501
 30
0.0
 10
4.8763434519
 20
4.3356808516
 30
0.0
 10
4.8782642107
 20
4.3387853674
 30
0.0
 10
4.8793054716
 20
4.3401532351
 30
0.0
  0
SPLINE
  5
2C3
100
AcDbEntity
  8
ALL_ASSEMBLY_MEMBERS
100
AcDbSpline
 62
7
  6
CONTINUOUS
 70
0
 71
3
 72
41
 73
37
 74
0
 42
0.0000001
 43
0.0000001
 44
0.0000000001
 40
0.0
 40
0.0
 40
0.0
 40
0.0
 40
0.0939526954
 40
0.1870641725
 40
0.278422661
 40
0.3672118797
 40
0.4526114266
 40
0.5338397717
 40
0.572658927
 40
0.6101654542
 40
0.6462751092
 40
0.6809089084
 40
0.7139941845
 40
0.7454600881
 40
0.775242932
 40
0.8032865308
 40
0.8295380128
 40
0.8539547567
 40
0.8765043087
 40
0.8971616275
 40
0.9067781781
 40
0.9159203172
 40
0.9245898471
 40
0.932789827
 40
0.9405249106
 40
0.9478024251
 40
0.9546328995
 40
0.9610298808
 40
0.9670106779
 40
0.9725973502
 40
0.9778179502
 40
0.9827084083
 40
0.9873134344
 40
0.991686895
 40
0.9958919631
 40
1.0
 40
1.0
 40
1.0
 40
1.0
 10
4.8197593168
 20
4.4244599978
 30
0.0
 10
4.8289028317
 20
4.4244599978
 30
0.0
 10
4.8471083752
 20
4.4243058726
 30
0.0
 10
4.8741970455
 20
4.42361448
 30
0.0
 10
4.9007675021
 20
4.4224691225
 30
0.0
 10
4.9265634317
 20
4.420881571
 30
0.0
 10
4.9513406329
 20
4.4188671445
 30
0.0
 10
4.9712316874
 20
4.4168200485
 30
0.0
 10
4.9864534036
 20
4.4149713072
 30
0.0
 10
4.9972982974
 20
4.4135123894
 30
0.0
 10
5.0077191127
 20
4.4119635126
 30
0.0
 10
5.0176909937
 20
4.4103282976
 30
0.0
 10
5.0271902195
 20
4.4086110844
 30
0.0
 10
5.0361941459
 20
4.4068157442
 30
0.0
 10
5.0446813724
 20
4.4049466122
 30
0.0
 10
5.0526318535
 20
4.4030086465
 30
0.0
 10
5.0600267223
 20
4.4010061965
 30
0.0
 10
5.066848674
 20
4.3989442114
 30
0.0
 10
5.0730817993
 20
4.3968281388
 30
0.0
 10
5.0778817484
 20
4.394982175
 30
0.0
 10
5.0814092224
 20
4.3934740033
 30
0.0
 10
5.0838351294
 20
4.392359479
 30
0.0
 10
5.0861036379
 20
4.3912350964
 30
0.0
 10
5.0882133793
 20
4.3901014856
 30
0.0
 10
5.0901630413
 20
4.3889592246
 30
0.0
 10
5.0919515161
 20
4.3878089125
 30
0.0
 10
5.0935779595
 20
4.3866512296
 30
0.0
 10
5.0950415938
 20
4.3854867346
 30
0.0
 10
5.0963416367
 20
4.3843159222
 30
0.0
 10
5.0974772897
 20
4.3831392078
 30
0.0
 10
5.0984476469
 20
4.3819568178
 30
0.0
 10
5.0992519132
 20
4.3807690216
 30
0.0
 10
5.0998893263
 20
4.3795761751
 30
0.0
 10
5.1003588185
 20
4.3783785987
 30
0.0
 10
5.100659075
 20
4.3771774164
 30
0.0
 10
5.1007460657
 20
4.3763699285
 30
0.0
 10
5.1007605497
 20
4.3759703951
 30
0.0
  0
SPLINE
  5
2C4
100
AcDbEntity
  8
ALL_ASSEMBLY_MEMBERS
100
AcDbSpline
 62
7
  6
CONTINUOUS
 70
0
 71
3
 72
14
 73
10
 74
0
 42
0.0000001
 43
0.0000001
 44
0.0000000001
 40
0.0
 40
0.0
 40
0.0
 40
0.0
 40
0.2277728687
 40
0.3470380447
 40
0.4701212557
 40
0.5970858734
 40
0.7279831924
 40
0.8624609325
 40
1.0
 40
1.0
 40
1.0
 40
1.0
 10
5.151205753
 20
4.2360038114
 30
0.0
 10
5.1524235588
 20
4.2373054091
 30
0.0
 10
5.15410438
 20
4.2394624963
 30
0.0
 10
5.155960574
 20
4.2426428623
 30
0.0
 10
5.1571865466
 20
4.2452648261
 30
0.0
 10
5.1582017491
 20
4.2480720283
 30
0.0
 10
5.1589810927
 20
4.251046109
 30
0.0
 10
5.1595095902
 20
4.2541584754
 30
0.0
 10
5.1596813099
 20
4.2562834121
 30
0.0
 10
5.1597226134
 20
4.2573589529
 30
0.0
  0
SPLINE
  5
2C5
100
AcDbEntity
  8
ALL_ASSEMBLY_MEMBERS
100
AcDbSpline
 62
7
  6
CONTINUOUS
 70
0
 71
3
 72
21
 73
17
 74
0
 42
0.0000001
 43
0.0000001
 44
0.0000000001
 40
0.0
 40
0.0
 40
0.0
 40
0.0
 40
0.1150997048
 40
0.1739782294
 40
0.2338104596
 40
0.2946644091
 40
0.3566122432
 40
0.4195653692
 40
0.4834171384
 40
0.5479636507
 40
0.6129639724
 40
0.678173605
 40
0.7433153575
 40
0.8082350552
 40
0.8727646198
 40
1.0
 40
1.0
 40
1.0
 40
1.0
 10
4.902681865
 20
4.3392594844
 30
0.0
 10
4.9041989423
 20
4.3378478727
 30
0.0
 10
4.9063071586
 20
4.335498758
 30
0.0
 10
4.9086342681
 20
4.3319847337
 30
0.0
 10
4.9101379414
 20
4.3291158796
 30
0.0
 10
4.9113520095
 20
4.3260534348
 30
0.0
 10
4.9122433149
 20
4.3228233205
 30
0.0
 10
4.9127911262
 20
4.3194626977
 30
0.0
 10
4.9129719094
 20
4.3160157242
 30
0.0
 10
4.912787163
 20
4.3125322843
 30
0.0
 10
4.9122362135
 20
4.3090633119
 30
0.0
 10
4.9113430096
 20
4.3056557902
 30
0.0
 10
4.9101285666
 20
4.302351204
 30
0.0
 10
4.90862604
 20
4.2991810717
 30
0.0
 10
4.906294308
 20
4.2951864938
 30
0.0
 10
4.9041960804
 20
4.2924222585
 30
0.0
 10
4.902681865
 20
4.2907033686
 30
0.0
  0
SPLINE
  5
2C6
100
AcDbEntity
  8
ALL_ASSEMBLY_MEMBERS
100
AcDbSpline
 62
7
  6
CONTINUOUS
 70
0
 71
3
 72
9
 73
5
 74
0
 42
0.0000001
 43
0.0000001
 44
0.0000000001
 40
0.0
 40
0.0
 40
0.0
 40
0.0
 40
0.4909252864
 40
1.0
 40
1.0
 40
1.0
 40
1.0
 10
5.1536274833
 20
4.2357024344
 30
0.0
 10
5.1540888544
 20
4.2364439725
 30
0.0
 10
5.1549635154
 20
4.2379958855
 30
0.0
 10
5.1557031115
 20
4.2396164507
 30
0.0
 10
5.1560450962
 20
4.2404550376
 30
0.0
  0
SPLINE
  5
2C7
100
AcDbEntity
  8
ALL_ASSEMBLY_MEMBERS
100
AcDbSpline
 62
7
  6
CONTINUOUS
 70
0
 71
3
 72
18
 73
14
 74
0
 42
0.0000001
 43
0.0000001
 44
0.0000000001
 40
0.0
 40
0.0
 40
0.0
 40
0.0
 40
0.1240305057
 40
0.2563649396
 40
0.3941993046
 40
0.4638239446
 40
0.532944525
 40
0.6008052222
 40
0.6666900503
 40
0.790347654
 40
0.8475628667
 40
0.9015424958
 40
1.0
 40
1.0
 40
1.0
 40
1.0
 10
4.902681865
 20
4.2907033686
 30
0.0
 10
4.9017639658
 20
4.2925823456
 30
0.0
 10
4.9000829036
 20
4.2965752938
 30
0.0
 10
4.8981778268
 20
4.3029555931
 30
0.0
 10
4.8971556337
 20
4.3086066758
 30
0.0
 10
4.8967262897
 20
4.313252411
 30
0.0
 10
4.8966173515
 20
4.3167363623
 30
0.0
 10
4.8967223132
 20
4.3201576934
 30
0.0
 10
4.8971394675
 20
4.3244795106
 30
0.0
 10
4.8979480582
 20
4.3285775266
 30
0.0
 10
4.8991534733
 20
4.3323532345
 30
0.0
 10
4.900488496
 20
4.3356285005
 30
0.0
 10
4.9017428304
 20
4.3378905806
 30
0.0
 10
4.902681865
 20
4.3392594844
 30
0.0
  0
SPLINE
  5
2C8
100
AcDbEntity
  8
ALL_ASSEMBLY_MEMBERS
100
AcDbSpline
 62
7
  6
CONTINUOUS
 70
0
 71
3
 72
21
 73
17
 74
0
 42
0.0000001
 43
0.0000001
 44
0.0000000001
 40
0.0
 40
0.0
 40
0.0
 40
0.0
 40
0.117017146
 40
0.1765244768
 40
0.2367459748
 40
0.2977495829
 40
0.3596216866
 40
0.4223055124
 40
0.4857390985
 40
0.5497760269
 40
0.6142361105
 40
0.6789334853
 40
0.7436422177
 40
0.8082473253
 40
0.8726086661
 40
1.0
 40
1.0
 40
1.0
 40
1.0
 10
4.9256259241
 20
4.3380751511
 30
0.0
 10
4.9271979081
 20
4.3366492571
 30
0.0
 10
4.9293871197
 20
4.3342799021
 30
0.0
 10
4.9318124406
 20
4.3307299989
 30
0.0
 10
4.9333767967
 20
4.3278421696
 30
0.0
 10
4.9346401852
 20
4.3247640037
 30
0.0
 10
4.9355679587
 20
4.3215217176
 30
0.0
 10
4.9361383651
 20
4.3181529178
 30
0.0
 10
4.9363268086
 20
4.3147020581
 30
0.0
 10
4.9361347615
 20
4.3112193531
 30
0.0
 10
4.9355615563
 20
4.3077559007
 30
0.0
 10
4.9346321864
 20
4.3043585565
 30
0.0
 10
4.9333686373
 20
4.301068632
 30
0.0
 10
4.9318054909
 20
4.2979171943
 30
0.0
 10
4.9293769069
 20
4.2939472307
 30
0.0
 10
4.9271962506
 20
4.2912138644
 30
0.0
 10
4.9256259241
 20
4.2895190353
 30
0.0
  0
SPLINE
  5
2C9
100
AcDbEntity
  8
ALL_ASSEMBLY_MEMBERS
100
AcDbSpline
 62
7
  6
CONTINUOUS
 70
0
 71
3
 72
23
 73
19
 74
0
 42
0.0000001
 43
0.0000001
 44
0.0000000001
 40
0.0
 40
0.0
 40
0.0
 40
0.0
 40
0.0324175164
 40
0.0661063154
 40
0.1021958563
 40
0.1416022774
 40
0.1850185802
 40
0.2329408655
 40
0.2857213346
 40
0.3436079695
 40
0.4067612795
 40
0.4752774757
 40
0.5492131815
 40
0.628593148
 40
0.7134038982
 40
0.8036100978
 40
0.8991638047
 40
1.0
 40
1.0
 40
1.0
 40
1.0
 10
5.1197593168
 20
4.2198547865
 30
0.0
 10
5.1197593168
 20
4.2204734783
 30
0.0
 10
5.1196274413
 20
4.2217386022
 30
0.0
 10
5.1190422849
 20
4.2236106781
 30
0.0
 10
5.1180765515
 20
4.2254677625
 30
0.0
 10
5.1167366684
 20
4.2273080428
 30
0.0
 10
5.1150268504
 20
4.2291325317
 30
0.0
 10
5.1129501746
 20
4.2309418795
 30
0.0
 10
5.1105087381
 20
4.2327356377
 30
0.0
 10
5.1077046905
 20
4.2345123568
 30
0.0
 10
5.1045410372
 20
4.2362705157
 30
0.0
 10
5.1010213959
 20
4.2380083744
 30
0.0
 10
5.0971496767
 20
4.2397238181
 30
0.0
 10
5.0929302897
 20
4.2414145265
 30
0.0
 10
5.0883684415
 20
4.2430786074
 30
0.0
 10
5.083469761
 20
4.2447139977
 30
0.0
 10
5.0782401792
 20
4.2463185029
 30
0.0
 10
5.0746333325
 20
4.2473390184
 30
0.0
 10
5.0727765973
 20
4.2478450989
 30
0.0
  0
SPLINE
  5
2CA
100
AcDbEntity
  8
ALL_ASSEMBLY_MEMBERS
100
AcDbSpline
 62
7
  6
CONTINUOUS
 70
0
 71
3
 72
18
 73
14
 74
0
 42
0.0000001
 43
0.0000001
 44
0.0000000001
 40
0.0
 40
0.0
 40
0.0
 40
0.0
 40
0.0478492127
 40
0.0983959423
 40
0.1515079451
 40
0.207040219
 40
0.2648425281
 40
0.3247521641
 40
0.4502145954
 40
0.582010507
 40
0.7186228514
 40
0.8585015525
 40
1.0
 40
1.0
 40
1.0
 40
1.0
 10
5.0498456405
 20
4.2532838321
 30
0.0
 10
5.0462351716
 20
4.254033136
 30
0.0
 10
5.0387931004
 20
4.2554900595
 30
0.0
 10
5.0272926092
 20
4.2575085038
 30
0.0
 10
5.0151733987
 20
4.2594154843
 30
0.0
 10
5.0024715429
 20
4.2612055355
 30
0.0
 10
4.9892248746
 20
4.2628728032
 30
0.0
 10
4.9706010097
 20
4.2649579452
 30
0.0
 10
4.9462599062
 20
4.2672046505
 30
0.0
 10
4.9159775736
 20
4.2693056809
 30
0.0
 10
4.8845482619
 20
4.2708253301
 30
0.0
 10
4.8523479465
 20
4.2717444444
 30
0.0
 10
4.8306636096
 20
4.2719492398
 30
0.0
 10
4.8197593168
 20
4.2719492398
 30
0.0
  0
SPLINE
  5
2CB
100
AcDbEntity
  8
ALL_ASSEMBLY_MEMBERS
100
AcDbSpline
 62
7
  6
CONTINUOUS
 70
0
 71
3
 72
17
 73
13
 74
0
 42
0.0000001
 43
0.0000001
 44
0.0000000001
 40
0.0
 40
0.0
 40
0.0
 40
0.0
 40
0.1234645716
 40
0.2561568972
 40
0.3950272608
 40
0.5350200134
 40
0.6697555163
 40
0.7936861688
 40
0.8505919896
 40
0.9039140565
 40
0.9536746438
 40
1.0
 40
1.0
 40
1.0
 40
1.0
 10
4.9256259241
 20
4.2895190353
 30
0.0
 10
4.9248191325
 20
4.2914174365
 30
0.0
 10
4.9233451478
 20
4.2954436853
 30
0.0
 10
4.9216819644
 20
4.3018406048
 30
0.0
 10
4.9206082481
 20
4.3086437423
 30
0.0
 10
4.9202267799
 20
4.3155560581
 30
0.0
 10
4.9205804824
 20
4.322220599
 30
0.0
 10
4.921479842
 20
4.3274314101
 30
0.0
 10
4.9225357673
 20
4.3312011646
 30
0.0
 10
4.9234377084
 20
4.3337199645
 30
0.0
 10
4.9244551642
 20
4.3360019249
 30
0.0
 10
4.9252252532
 20
4.3374129762
 30
0.0
 10
4.9256259241
 20
4.3380751511
 30
0.0
  0
SPLINE
  5
2CC
100
AcDbEntity
  8
ALL_ASSEMBLY_MEMBERS
100
AcDbSpline
 62
7
  6
CONTINUOUS
 70
0
 71
3
 72
21
 73
17
 74
0
 42
0.0000001
 43
0.0000001
 44
0.0000000001
 40
0.0
 40
0.0
 40
0.0
 40
0.0
 40
0.118772475
 40
0.1788740025
 40
0.2394795086
 40
0.3006531089
 40
0.3624899944
 40
0.4249583493
 40
0.4880335673
 40
0.5516193904
 40
0.6155897667
 40
0.6798120964
 40
0.7441074536
 40
0.808397199
 40
0.8725673243
 40
1.0
 40
1.0
 40
1.0
 40
1.0
 10
4.9480180254
 20
4.3366064098
 30
0.0
 10
4.949637405
 20
4.3351646996
 30
0.0
 10
4.9518963109
 20
4.332773266
 30
0.0
 10
4.9544066366
 20
4.3291873791
 30
0.0
 10
4.9560234072
 20
4.3262799564
 30
0.0
 10
4.9573294401
 20
4.3231856468
 30
0.0
 10
4.9582887951
 20
4.3199309589
 30
0.0
 10
4.9588788146
 20
4.316553919
 30
0.0
 10
4.9590739572
 20
4.3130992675
 30
0.0
 10
4.9588756448
 20
4.3096175346
 30
0.0
 10
4.9582832064
 20
4.3061599739
 30
0.0
 10
4.9573225467
 20
4.3027733163
 30
0.0
 10
4.9560165064
 20
4.2994986836
 30
0.0
 10
4.9544009173
 20
4.296366686
 30
0.0
 10
4.9518883909
 20
4.292423206
 30
0.0
 10
4.9496365985
 20
4.28972112
 30
0.0
 10
4.9480180254
 20
4.288050294
 30
0.0
  0
SPLINE
  5
2CD
100
AcDbEntity
  8
ALL_ASSEMBLY_MEMBERS
100
AcDbSpline
 62
7
  6
CONTINUOUS
 70
0
 71
3
 72
17
 73
13
 74
0
 42
0.0000001
 43
0.0000001
 44
0.0000000001
 40
0.0
 40
0.0
 40
0.0
 40
0.0
 40
0.1229280883
 40
0.2559451925
 40
0.3957676499
 40
0.5369695707
 40
0.6726919091
 40
0.7968909327
 40
0.8535180312
 40
0.9062336988
 40
0.9550266888
 40
1.0
 40
1.0
 40
1.0
 40
1.0
 10
4.9480180254
 20
4.288050294
 30
0.0
 10
4.9473277416
 20
4.2899663861
 30
0.0
 10
4.9460697322
 20
4.2940222255
 30
0.0
 10
4.9446558046
 20
4.3004323522
 30
0.0
 10
4.9437432103
 20
4.3072395292
 30
0.0
 10
4.9434188422
 20
4.3141457504
 30
0.0
 10
4.9437187907
 20
4.3207944261
 30
0.0
 10
4.9444827014
 20
4.3259946625
 30
0.0
 10
4.9453832974
 20
4.3297598022
 30
0.0
 10
4.9461506199
 20
4.3322668646
 30
0.0
 10
4.9470162001
 20
4.3345360942
 30
0.0
 10
4.9476747345
 20
4.3359450975
 30
0.0
 10
4.9480180254
 20
4.3366064098
 30
0.0
  0
SPLINE
  5
2CE
100
AcDbEntity
  8
ALL_ASSEMBLY_MEMBERS
100
AcDbSpline
 62
7
  6
CONTINUOUS
 70
0
 71
3
 72
22
 73
18
 74
0
 42
0.0000001
 43
0.0000001
 44
0.0000000001
 40
0.0
 40
0.0
 40
0.0
 40
0.0
 40
0.1203489376
 40
0.1810015545
 40
0.2419780398
 40
0.303335469
 40
0.3651727052
 40
0.4274759307
 40
0.4902500987
 40
0.5534410498
 40
0.6169694522
 40
0.6807499233
 40
0.7446458588
 40
0.808611961
 40
0.8725586531
 40
0.9363934998
 40
1.0
 40
1.0
 40
1.0
 40
1.0
 10
4.9697414229
 20
4.3348609182
 30
0.0
 10
4.9714004872
 20
4.333402021
 30
0.0
 10
4.9737175288
 20
4.3309868052
 30
0.0
 10
4.976299133
 20
4.3273649349
 30
0.0
 10
4.977959773
 20
4.3244373777
 30
0.0
 10
4.9793015346
 20
4.3213265672
 30
0.0
 10
4.9802873952
 20
4.3180593075
 30
0.0
 10
4.9808939216
 20
4.3146740171
 30
0.0
 10
4.981094756
 20
4.3112157084
 30
0.0
 10
4.9808912516
 20
4.3077352032
 30
0.0
 10
4.9802827146
 20
4.3042838859
 30
0.0
 10
4.9792958388
 20
4.3009083906
 30
0.0
 10
4.977954113
 20
4.2976495271
 30
0.0
 10
4.9762947335
 20
4.2945378488
 30
0.0
 10
4.9743536337
 20
4.2915956975
 30
0.0
 10
4.9721684067
 20
4.2888395798
 30
0.0
 10
4.9705700188
 20
4.287127485
 30
0.0
 10
4.9697414229
 20
4.2863048024
 30
0.0
  0
SPLINE
  5
2CF
100
AcDbEntity
  8
ALL_ASSEMBLY_MEMBERS
100
AcDbSpline
 62
7
  6
CONTINUOUS
 70
0
 71
3
 72
41
 73
37
 74
0
 42
0.0000001
 43
0.0000001
 44
0.0000000001
 40
0.0
 40
0.0
 40
0.0
 40
0.0
 40
0.0041080371
 40
0.0083131055
 40
0.0126865666
 40
0.0172915933
 40
0.0221820517
 40
0.0274026511
 40
0.0329893235
 40
0.0389701214
 40
0.0453671039
 40
0.0521975794
 40
0.0594750943
 40
0.0672101773
 40
0.0754101577
 40
0.084079689
 40
0.0932218297
 40
0.1028383817
 40
0.1234957007
 40
0.1460452553
 40
0.1704620025
 40
0.1967134852
 40
0.224757087
 40
0.2545399344
 40
0.2860058393
 40
0.319091119
 40
0.3537249221
 40
0.3898345793
 40
0.4273411111
 40
0.4661602711
 40
0.5473886228
 40
0.6327881706
 40
0.7215773887
 40
0.8129358662
 40
0.9060473146
 40
1.0
 40
1.0
 40
1.0
 40
1.0
 10
4.5387580837
 20
4.3759703951
 30
0.0
 10
4.5387725676
 20
4.3763699285
 30
0.0
 10
4.5388595582
 20
4.3771774166
 30
0.0
 10
4.5391598149
 20
4.3783785989
 30
0.0
 10
4.5396293074
 20
4.3795761753
 30
0.0
 10
4.5402667208
 20
4.3807690218
 30
0.0
 10
4.5410709872
 20
4.381956818
 30
0.0
 10
4.542041344
 20
4.3831392082
 30
0.0
 10
4.5431769971
 20
4.3843159227
 30
0.0
 10
4.5444770403
 20
4.3854867351
 30
0.0
 10
4.5459406749
 20
4.3866512301
 30
0.0
 10
4.5475671187
 20
4.387808913
 30
0.0
 10
4.5493555934
 20
4.3889592251
 30
0.0
 10
4.5513052554
 20
4.3901014864
 30
0.0
 10
4.5534149969
 20
4.3912350972
 30
0.0
 10
4.5556835059
 20
4.3923594798
 30
0.0
 10
4.5581094133
 20
4.3934740041
 30
0.0
 10
4.5616368876
 20
4.3949821757
 30
0.0
 10
4.566436837
 20
4.3968281399
 30
0.0
 10
4.5726699629
 20
4.3989442124
 30
0.0
 10
4.5794919154
 20
4.4010061974
 30
0.0
 10
4.5868867848
 20
4.4030086478
 30
0.0
 10
4.5948372667
 20
4.4049466134
 30
0.0
 10
4.6033244939
 20
4.4068157452
 30
0.0
 10
4.6123284211
 20
4.4086110858
 30
0.0
 10
4.6218276478
 20
4.4103282988
 30
0.0
 10
4.6317995297
 20
4.4119635138
 30
0.0
 10
4.6422203461
 20
4.4135123908
 30
0.0
 10
4.653065241
 20
4.4149713083
 30
0.0
 10
4.6682869588
 20
4.4168200496
 30
0.0
 10
4.6881780145
 20
4.4188671457
 30
0.0
 10
4.7129552164
 20
4.420881572
 30
0.0
 10
4.738751145
 20
4.4224691223
 30
0.0
 10
4.7653215976
 20
4.4236144805
 30
0.0
 10
4.7924102631
 20
4.4243058732
 30
0.0
 10
4.8106158028
 20
4.4244599978
 30
0.0
 10
4.8197593168
 20
4.4244599978
 30
0.0
  0
SPLINE
  5
2D0
100
AcDbEntity
  8
ALL_ASSEMBLY_MEMBERS
100
AcDbSpline
 62
7
  6
CONTINUOUS
 70
0
 71
3
 72
18
 73
14
 74
0
 42
0.0000001
 43
0.0000001
 44
0.0000000001
 40
0.0
 40
0.0
 40
0.0
 40
0.0
 40
0.1224432493
 40
0.2557458239
 40
0.3964106307
 40
0.5386844338
 40
0.675287571
 40
0.7393734331
 40
0.7997690558
 40
0.8561542702
 40
0.9083323021
 40
0.9562562202
 40
1.0
 40
1.0
 40
1.0
 40
1.0
 10
4.9697414229
 20
4.2863048024
 30
0.0
 10
4.969172504
 20
4.2882364519
 30
0.0
 10
4.968138144
 20
4.2923176084
 30
0.0
 10
4.9669795903
 20
4.2987381439
 30
0.0
 10
4.966231909
 20
4.3055484248
 30
0.0
 10
4.9659661325
 20
4.3124488936
 30
0.0
 10
4.966174481
 20
4.3180920765
 30
0.0
 10
4.9666070852
 20
4.3223652044
 30
0.0
 10
4.9670401153
 20
4.3253091509
 30
0.0
 10
4.9675768659
 20
4.3280366665
 30
0.0
 10
4.9682058987
 20
4.3305335517
 30
0.0
 10
4.9689154504
 20
4.3327916953
 30
0.0
 10
4.9694579748
 20
4.3341997064
 30
0.0
 10
4.9697414229
 20
4.3348609182
 30
0.0
  0
SPLINE
  5
2D1
100
AcDbEntity
  8
ALL_ASSEMBLY_MEMBERS
100
AcDbSpline
 62
7
  6
CONTINUOUS
 70
0
 71
3
 72
22
 73
18
 74
0
 42
0.0000001
 43
0.0000001
 44
0.0000000001
 40
0.0
 40
0.0
 40
0.0
 40
0.0
 40
0.121769493
 40
0.1829412629
 40
0.2442873069
 40
0.3058549527
 40
0.3677419372
 40
0.4299454819
 40
0.4924919796
 40
0.5553607009
 40
0.6185109154
 40
0.6818978016
 40
0.7454219745
 40
0.8090683452
 40
0.8727701456
 40
0.9364501404
 40
1.0
 40
1.0
 40
1.0
 40
1.0
 10
4.9906828571
 20
4.3328477769
 30
0.0
 10
4.9923737157
 20
4.3313704755
 30
0.0
 10
4.9947371131
 20
4.3289299253
 30
0.0
 10
4.9973758478
 20
4.3252721889
 30
0.0
 10
4.9990715842
 20
4.3223240411
 30
0.0
 10
5.0004419605
 20
4.3191964407
 30
0.0
 10
5.0014490928
 20
4.3159164978
 30
0.0
 10
5.0020689145
 20
4.3125229959
 30
0.0
 10
5.0022743939
 20
4.3090612016
 30
0.0
 10
5.0020667986
 20
4.3055821904
 30
0.0
 10
5.0014454025
 20
4.3021374586
 30
0.0
 10
5.0004375139
 20
4.2987735115
 30
0.0
 10
4.9990672109
 20
4.2955309382
 30
0.0
 10
4.9973725658
 20
4.2924398423
 30
0.0
 10
4.9953903339
 20
4.289522079
 30
0.0
 10
4.9931589536
 20
4.2867936411
 30
0.0
 10
4.9915281581
 20
4.2851031881
 30
0.0
 10
4.9906828571
 20
4.2842916611
 30
0.0
  0
SPLINE
  5
2D2
100
AcDbEntity
  8
ALL_ASSEMBLY_MEMBERS
100
AcDbSpline
 62
7
  6
CONTINUOUS
 70
0
 71
3
 72
18
 73
14
 74
0
 42
0.0000001
 43
0.0000001
 44
0.0000000001
 40
0.0
 40
0.0
 40
0.0
 40
0.0
 40
0.1220380413
 40
0.2555882091
 40
0.396968746
 40
0.5401515643
 40
0.6775068696
 40
0.7417882216
 40
0.8022034233
 40
0.8583928671
 40
0.9101225103
 40
0.9573106718
 40
1.0
 40
1.0
 40
1.0
 40
1.0
 10
4.9906828571
 20
4.2842916611
 30
0.0
 10
4.9902395024
 20
4.2862363158
 30
0.0
 10
4.9894351584
 20
4.2903380883
 30
0.0
 10
4.98853682
 20
4.2967665423
 30
0.0
 10
4.9879571074
 20
4.3035789216
 30
0.0
 10
4.9877510073
 20
4.3104750679
 30
0.0
 10
4.987912318
 20
4.3161124403
 30
0.0
 10
4.9882482718
 20
4.320382878
 30
0.0
 10
4.9885842623
 20
4.3233207558
 30
0.0
 10
4.9890006739
 20
4.3260409857
 30
0.0
 10
4.9894885872
 20
4.3285294714
 30
0.0
 10
4.9900388695
 20
4.3307783553
 30
0.0
 10
4.9904615175
 20
4.3321861148
 30
0.0
 10
4.9906828571
 20
4.3328477769
 30
0.0
  0
SPLINE
  5
2D3
100
AcDbEntity
  8
ALL_ASSEMBLY_MEMBERS
100
AcDbSpline
 62
7
  6
CONTINUOUS
 70
0
 71
3
 72
23
 73
19
 74
0
 42
0.0000001
 43
0.0000001
 44
0.0000000001
 40
0.0
 40
0.0
 40
0.0
 40
0.0
 40
0.061525822
 40
0.1231281405
 40
0.1847731313
 40
0.2464733105
 40
0.3082639548
 40
0.3702371675
 40
0.4323943346
 40
0.4947749707
 40
0.5573826697
 40
0.6202066432
 40
0.6832354926
 40
0.7464016448
 40
0.8097169912
 40
0.8731360571
 40
0.9365967391
 40
1.0
 40
1.0
 40
1.0
 40
1.0
 10
5.0107331454
 20
4.3305774816
 30
0.0
 10
5.011590757
 20
4.3298288242
 30
0.0
 10
5.0132462761
 20
4.3282590133
 30
0.0
 10
5.0155131965
 20
4.3256936064
 30
0.0
 10
5.0175271248
 20
4.3229198661
 30
0.0
 10
5.0192487648
 20
4.3199510269
 30
0.0
 10
5.0206405512
 20
4.3168063491
 30
0.0
 10
5.0216635782
 20
4.313513689
 30
0.0
 10
5.022293403
 20
4.3101120557
 30
0.0
 10
5.0225024446
 20
4.3066469798
 30
0.0
 10
5.0222918836
 20
4.3031697389
 30
0.0
 10
5.021660943
 20
4.2997319078
 30
0.0
 10
5.0206373844
 20
4.2963798556
 30
0.0
 10
5.0192457288
 20
4.2931539357
 30
0.0
 10
5.0175247176
 20
4.2900838132
 30
0.0
 10
5.015511732
 20
4.2871908589
 30
0.0
 10
5.0132458537
 20
4.2844905532
 30
0.0
 10
5.0115908864
 20
4.2828217193
 30
0.0
 10
5.0107331454
 20
4.2820213658
 30
0.0
  0
SPLINE
  5
2D4
100
AcDbEntity
  8
ALL_ASSEMBLY_MEMBERS
100
AcDbSpline
 62
7
  6
CONTINUOUS
 70
0
 71
3
 72
9
 73
5
 74
0
 42
0.0000001
 43
0.0000001
 44
0.0000000001
 40
0.0
 40
0.0
 40
0.0
 40
0.0
 40
0.4909593082
 40
1.0
 40
1.0
 40
1.0
 40
1.0
 10
4.485888939
 20
4.2357085015
 30
0.0
 10
4.4854291948
 20
4.2364473467
 30
0.0
 10
4.4845574364
 20
4.2379933688
 30
0.0
 10
4.4838197553
 20
4.2396076014
 30
0.0
 10
4.4834785179
 20
4.2404428371
 30
0.0
  0
SPLINE
  5
2D5
100
AcDbEntity
  8
ALL_ASSEMBLY_MEMBERS
100
AcDbSpline
 62
7
  6
CONTINUOUS
 70
0
 71
3
 72
21
 73
17
 74
0
 42
0.0000001
 43
0.0000001
 44
0.0000000001
 40
0.0
 40
0.0
 40
0.0
 40
0.0
 40
0.0534928925
 40
0.1085857706
 40
0.1654070472
 40
0.2240605969
 40
0.2845863877
 40
0.3469797033
 40
0.4110184641
 40
0.4764250294
 40
0.5427888291
 40
0.6096570345
 40
0.6765853817
 40
0.7431232137
 40
0.8738127591
 40
1.0
 40
1.0
 40
1.0
 40
1.0
 10
4.8078085134
 20
4.3410521064
 30
0.0
 10
4.8071627859
 20
4.3403716612
 30
0.0
 10
4.8059161096
 20
4.3389280072
 30
0.0
 10
4.8042326063
 20
4.336560786
 30
0.0
 10
4.8027388541
 20
4.3339638963
 30
0.0
 10
4.801463759
 20
4.3311479423
 30
0.0
 10
4.8004347119
 20
4.3281294203
 30
0.0
 10
4.7996798966
 20
4.3249338508
 30
0.0
 10
4.7992163165
 20
4.321596798
 30
0.0
 10
4.7990637741
 20
4.3181616032
 30
0.0
 10
4.7992208492
 20
4.3146771554
 30
0.0
 10
4.7996882325
 20
4.3111939791
 30
0.0
 10
4.800445889
 20
4.3077593044
 30
0.0
 10
4.8018109847
 20
4.3033281858
 30
0.0
 10
4.8041075085
 20
4.2981175957
 30
0.0
 10
4.8065081354
 20
4.2942864515
 30
0.0
 10
4.8078085134
 20
4.2924959906
 30
0.0
  0
SPLINE
  5
2D6
100
AcDbEntity
  8
ALL_ASSEMBLY_MEMBERS
100
AcDbSpline
 62
7
  6
CONTINUOUS
 70
0
 71
3
 72
14
 73
10
 74
0
 42
0.0000001
 43
0.0000001
 44
0.0000000001
 40
0.0
 40
0.0
 40
0.0
 40
0.0
 40
0.2277439427
 40
0.347003502
 40
0.4700868685
 40
0.5970576723
 40
0.7279657041
 40
0.862453593
 40
1.0
 40
1.0
 40
1.0
 40
1.0
 10
4.4883135064
 20
4.2360098385
 30
0.0
 10
4.4870932809
 20
4.2373139129
 30
0.0
 10
4.4854093799
 20
4.2394755186
 30
0.0
 10
4.483550698
 20
4.2426629579
 30
0.0
 10
4.4823236261
 20
4.2452910432
 30
0.0
 10
4.4813083119
 20
4.2481049317
 30
0.0
 10
4.4805299509
 20
4.2510860793
 30
0.0
 10
4.4800035386
 20
4.2542056636
 30
0.0
 10
4.479834014
 20
4.2563353501
 30
0.0
 10
4.4797939688
 20
4.2574132248
 30
0.0
  0
SPLINE
  5
2D7
100
AcDbEntity
  8
ALL_ASSEMBLY_MEMBERS
100
AcDbSpline
 62
7
  6
CONTINUOUS
 70
0
 71
3
 72
19
 73
15
 74
0
 42
0.0000001
 43
0.0000001
 44
0.0000000001
 40
0.0
 40
0.0
 40
0.0
 40
0.0
 40
0.1257225831
 40
0.2568676469
 40
0.3239079196
 40
0.3914660403
 40
0.459029501
 40
0.5260829349
 40
0.5920970752
 40
0.6565851842
 40
0.7192036908
 40
0.7796754602
 40
0.8939492003
 40
1.0
 40
1.0
 40
1.0
 40
1.0
 10
4.8078085134
 20
4.2924959906
 30
0.0
 10
4.8090233389
 20
4.2943096418
 30
0.0
 10
4.811262326
 20
4.2981841892
 30
0.0
 10
4.8133915778
 20
4.303411067
 30
0.0
 10
4.8146591902
 20
4.3078515009
 30
0.0
 10
4.8153635805
 20
4.3112938849
 30
0.0
 10
4.8157981331
 20
4.3147810053
 30
0.0
 10
4.8159442652
 20
4.3182654635
 30
0.0
 10
4.8158026612
 20
4.3216968843
 30
0.0
 10
4.8153720386
 20
4.325026565
 30
0.0
 10
4.8146705705
 20
4.3282117624
 30
0.0
 10
4.8134196271
 20
4.3321436161
 30
0.0
 10
4.8113130158
 20
4.3365730993
 30
0.0
 10
4.8090351055
 20
4.3396787641
 30
0.0
 10
4.8078085134
 20
4.3410521064
 30
0.0
  0
SPLINE
  5
2D8
100
AcDbEntity
  8
ALL_ASSEMBLY_MEMBERS
100
AcDbSpline
 62
7
  6
CONTINUOUS
 70
0
 71
3
 72
20
 73
16
 74
0
 42
0.0000001
 43
0.0000001
 44
0.0000000001
 40
0.0
 40
0.0
 40
0.0
 40
0.0
 40
0.110397087
 40
0.1673089053
 40
0.2254473524
 40
0.3454775427
 40
0.4075315812
 40
0.4708425429
 40
0.5352755224
 40
0.6006806461
 40
0.6668286293
 40
0.7334672072
 40
0.8003554624
 40
0.8672387315
 40
1.0
 40
1.0
 40
1.0
 40
1.0
 10
4.4896100388
 20
4.2401602312
 30
0.0
 10
4.4885354268
 20
4.2412496423
 30
0.0
 10
4.4870259578
 20
4.2430248304
 30
0.0
 10
4.4852802906
 20
4.2456195226
 30
0.0
 10
4.4836744421
 20
4.2484579845
 30
0.0
 10
4.4823815138
 20
4.2515441967
 30
0.0
 10
4.4814435015
 20
4.254816482
 30
0.0
 10
4.4809168789
 20
4.2573969276
 30
0.0
 10
4.4805857558
 20
4.2600563086
 30
0.0
 10
4.4804590022
 20
4.2627725632
 30
0.0
 10
4.480535183
 20
4.2655211793
 30
0.0
 10
4.4808156666
 20
4.2682770902
 30
0.0
 10
4.4812944118
 20
4.2710159065
 30
0.0
 10
4.4821792425
 20
4.2746049495
 30
0.0
 10
4.4831128131
 20
4.2772210286
 30
0.0
 10
4.4838390096
 20
4.2789119056
 30
0.0
  0
SPLINE
  5
2D9
100
AcDbEntity
  8
ALL_ASSEMBLY_MEMBERS
100
AcDbSpline
 62
7
  6
CONTINUOUS
 70
0
 71
3
 72
17
 73
13
 74
0
 42
0.0000001
 43
0.0000001
 44
0.0000000001
 40
0.0
 40
0.0
 40
0.0
 40
0.0
 40
0.1217244991
 40
0.2554692005
 40
0.3974075671
 40
0.5412990836
 40
0.6792437255
 40
0.8041052675
 40
0.8601463498
 40
0.911529498
 40
0.9581430444
 40
1.0
 40
1.0
 40
1.0
 40
1.0
 10
5.0107331454
 20
4.2820213658
 30
0.0
 10
5.0104187688
 20
4.2839760793
 30
0.0
 10
5.0098494243
 20
4.288093423
 30
0.0
 10
5.0092149335
 20
4.2945275014
 30
0.0
 10
5.0088055269
 20
4.3013412441
 30
0.0
 10
5.0086598554
 20
4.3082342204
 30
0.0
 10
5.008793843
 20
4.3148496906
 30
0.0
 10
5.0091359202
 20
4.3200268696
 30
0.0
 10
5.009542918
 20
4.3237834512
 30
0.0
 10
5.0098876149
 20
4.3262654752
 30
0.0
 10
5.0102762687
 20
4.3285071722
 30
0.0
 10
5.0105758883
 20
4.3299150951
 30
0.0
 10
5.0107331454
 20
4.3305774816
 30
0.0
  0
SPLINE
  5
2DA
100
AcDbEntity
  8
ALL_ASSEMBLY_MEMBERS
100
AcDbSpline
 62
7
  6
CONTINUOUS
 70
0
 71
3
 72
20
 73
16
 74
0
 42
0.0000001
 43
0.0000001
 44
0.0000000001
 40
0.0
 40
0.0
 40
0.0
 40
0.0
 40
0.112594552
 40
0.1703642503
 40
0.2291950656
 40
0.2891280921
 40
0.3502163589
 40
0.4124889269
 40
0.475842021
 40
0.605170271
 40
0.6708642931
 40
0.7369039571
 40
0.8030580416
 40
0.8690722339
 40
1.0
 40
1.0
 40
1.0
 40
1.0
 10
4.492627874
 20
4.2442835586
 30
0.0
 10
4.4914248981
 20
4.2454513975
 30
0.0
 10
4.48973731
 20
4.247363823
 30
0.0
 10
4.4878016985
 20
4.2501780297
 30
0.0
 10
4.4864965245
 20
4.2524636745
 30
0.0
 10
4.4853688498
 20
4.2548963288
 30
0.0
 10
4.4844374928
 20
4.2574655166
 30
0.0
 10
4.4837206765
 20
4.2601556017
 30
0.0
 10
4.4830610132
 20
4.2638980768
 30
0.0
 10
4.4828933548
 20
4.267764059
 30
0.0
 10
4.4832052287
 20
4.271642031
 30
0.0
 10
4.4836809029
 20
4.2745534475
 30
0.0
 10
4.4843824707
 20
4.2774234151
 30
0.0
 10
4.4856001842
 20
4.2811498419
 30
0.0
 10
4.4868141862
 20
4.2838332951
 30
0.0
 10
4.4877361083
 20
4.2855511385
 30
0.0
  0
SPLINE
  5
2DB
100
AcDbEntity
  8
ALL_ASSEMBLY_MEMBERS
100
AcDbSpline
 62
7
  6
CONTINUOUS
 70
0
 71
3
 72
9
 73
5
 74
0
 42
0.0000001
 43
0.0000001
 44
0.0000000001
 40
0.0
 40
0.0
 40
0.0
 40
0.0
 40
0.2533132704
 40
1.0
 40
1.0
 40
1.0
 40
1.0
 10
4.4877361083
 20
4.2855511385
 30
0.0
 10
4.4880869168
 20
4.2862048098
 30
0.0
 10
4.4895384021
 20
4.2887491873
 30
0.0
 10
4.4912417882
 20
4.2911483183
 30
0.0
 10
4.492627874
 20
4.2928396744
 30
0.0
  0
SPLINE
  5
2DC
100
AcDbEntity
  8
ALL_ASSEMBLY_MEMBERS
100
AcDbSpline
 62
7
  6
CONTINUOUS
 70
0
 71
3
 72
23
 73
19
 74
0
 42
0.0000001
 43
0.0000001
 44
0.0000000001
 40
0.0
 40
0.0
 40
0.0
 40
0.0
 40
0.0620963066
 40
0.1242135048
 40
0.1863008277
 40
0.2483546083
 40
0.3103961114
 40
0.3725076125
 40
0.4346879215
 40
0.4969812841
 40
0.5594062027
 40
0.6219727368
 40
0.684695354
 40
0.7475325762
 40
0.8105199417
 40
0.8736318032
 40
0.9368212875
 40
1.0
 40
1.0
 40
1.0
 40
1.0
 10
5.0297877514
 20
4.3280618691
 30
0.0
 10
5.0306535297
 20
4.3273026734
 30
0.0
 10
5.0323246363
 20
4.3257128361
 30
0.0
 10
5.0346137893
 20
4.3231193006
 30
0.0
 10
5.0366475433
 20
4.3203206676
 30
0.0
 10
5.0383862527
 20
4.3173306054
 30
0.0
 10
5.0397919993
 20
4.3141687818
 30
0.0
 10
5.0408254869
 20
4.3108633905
 30
0.0
 10
5.0414619482
 20
4.3074537589
 30
0.0
 10
5.0416734442
 20
4.3039856292
 30
0.0
 10
5.0414610574
 20
4.30051044
 30
0.0
 10
5.0408239461
 20
4.2970797991
 30
0.0
 10
5.0397901562
 20
4.2937399299
 30
0.0
 10
5.0383844976
 20
4.2905309347
 30
0.0
 10
5.036646166
 20
4.2874820562
 30
0.0
 10
5.0346129689
 20
4.2846141894
 30
0.0
 10
5.0323244252
 20
4.2819423096
 30
0.0
 10
5.0306536164
 20
4.2802949658
 30
0.0
 10
5.0297877514
 20
4.2795057533
 30
0.0
  0
SPLINE
  5
2DD
100
AcDbEntity
  8
ALL_ASSEMBLY_MEMBERS
100
AcDbSpline
 62
7
  6
CONTINUOUS
 70
0
 71
3
 72
19
 73
15
 74
0
 42
0.0000001
 43
0.0000001
 44
0.0000000001
 40
0.0
 40
0.0
 40
0.0
 40
0.0
 40
0.1154968934
 40
0.2335497092
 40
0.3545140897
 40
0.416229342
 40
0.4787903701
 40
0.5421392024
 40
0.6062181793
 40
0.6709604939
 40
0.7362443302
 40
0.8019326857
 40
0.8678970574
 40
1.0
 40
1.0
 40
1.0
 40
1.0
 10
4.4973512779
 20
4.2483583227
 30
0.0
 10
4.4962776696
 20
4.2493648322
 30
0.0
 10
4.4942354813
 20
4.2515434091
 30
0.0
 10
4.4916178852
 20
4.2552421826
 30
0.0
 10
4.4898760783
 20
4.2586728939
 30
0.0
 10
4.4887835415
 20
4.2616031446
 30
0.0
 10
4.4881226474
 20
4.263903216
 30
0.0
 10
4.4876333691
 20
4.2662764308
 30
0.0
 10
4.4873249792
 20
4.268707999
 30
0.0
 10
4.4872039683
 20
4.2711806753
 30
0.0
 10
4.48726901
 20
4.2736758383
 30
0.0
 10
4.4875212326
 20
4.2761749213
 30
0.0
 10
4.4881021064
 20
4.2794871143
 30
0.0
 10
4.4887992404
 20
4.2819234764
 30
0.0
 10
4.4893692178
 20
4.2835072555
 30
0.0
  0
SPLINE
  5
2DE
100
AcDbEntity
  8
ALL_ASSEMBLY_MEMBERS
100
AcDbSpline
 62
7
  6
CONTINUOUS
 70
0
 71
3
 72
10
 73
6
 74
0
 42
0.0000001
 43
0.0000001
 44
0.0000000001
 40
0.0
 40
0.0
 40
0.0
 40
0.0
 40
0.5043908074
 40
0.7537208168
 40
1.0
 40
1.0
 40
1.0
 40
1.0
 10
4.4893692178
 20
4.2835072555
 30
0.0
 10
4.4902617799
 20
4.2859873909
 30
0.0
 10
4.4919857667
 20
4.2895662191
 30
0.0
 10
4.4948874574
 20
4.2939167329
 30
0.0
 10
4.4965070789
 20
4.2959429831
 30
0.0
 10
4.4973512779
 20
4.2969144385
 30
0.0
  0
SPLINE
  5
2DF
100
AcDbEntity
  8
ALL_ASSEMBLY_MEMBERS
100
AcDbSpline
 62
7
  6
CONTINUOUS
 70
0
 71
3
 72
18
 73
14
 74
0
 42
0.0000001
 43
0.0000001
 44
0.0000000001
 40
0.0
 40
0.0
 40
0.0
 40
0.0
 40
0.1215113083
 40
0.2553861317
 40
0.3976986882
 40
0.4701164385
 40
0.5420682207
 40
0.6804092001
 40
0.8053965839
 40
0.8613386515
 40
0.9124882736
 40
0.9587119199
 40
1.0
 40
1.0
 40
1.0
 40
1.0
 10
5.0297877514
 20
4.2795057533
 30
0.0
 10
5.0296048602
 20
4.2814672262
 30
0.0
 10
5.0292740484
 20
4.28559486
 30
0.0
 10
5.0289059122
 20
4.2920324585
 30
0.0
 10
5.028709049
 20
4.2976812573
 30
0.0
 10
5.0286256406
 20
4.3023283821
 30
0.0
 10
5.0285976778
 20
4.3069117845
 30
0.0
 10
5.0286615354
 20
4.3123476567
 30
0.0
 10
5.0288599352
 20
4.3175207961
 30
0.0
 10
5.02909636
 20
4.3212760641
 30
0.0
 10
5.0292963701
 20
4.3237537547
 30
0.0
 10
5.0295218491
 20
4.3259905938
 30
0.0
 10
5.029696125
 20
4.327398794
 30
0.0
 10
5.0297877514
 20
4.3280618691
 30
0.0
  0
SPLINE
  5
2E0
100
AcDbEntity
  8
ALL_ASSEMBLY_MEMBERS
100
AcDbSpline
 62
7
  6
CONTINUOUS
 70
0
 71
3
 72
21
 73
17
 74
0
 42
0.0000001
 43
0.0000001
 44
0.0000000001
 40
0.0
 40
0.0
 40
0.0
 40
0.0
 40
0.1165520748
 40
0.1759051179
 40
0.2360295864
 40
0.2969938145
 40
0.3588811473
 40
0.4216274815
 40
0.4851603322
 40
0.5493195465
 40
0.6139103134
 40
0.6787325658
 40
0.7435479168
 40
0.8082318306
 40
0.8726373428
 40
1.0
 40
1.0
 40
1.0
 40
1.0
 10
4.503755624
 20
4.2523632789
 30
0.0
 10
4.5021966899
 20
4.2537854466
 30
0.0
 10
4.5000267068
 20
4.256149557
 30
0.0
 10
4.4976247575
 20
4.2596904638
 30
0.0
 10
4.4960748301
 20
4.2625734816
 30
0.0
 10
4.4948231734
 20
4.2656476696
 30
0.0
 10
4.4939040798
 20
4.2688868845
 30
0.0
 10
4.4933390557
 20
4.2722536289
 30
0.0
 10
4.4931524418
 20
4.2757035229
 30
0.0
 10
4.4933427568
 20
4.2791864333
 30
0.0
 10
4.4939106687
 20
4.2826513031
 30
0.0
 10
4.4948314338
 20
4.2860512449
 30
0.0
 10
4.496083299
 20
4.2893449025
 30
0.0
 10
4.4976320237
 20
4.292501095
 30
0.0
 10
4.5000375477
 20
4.2964774021
 30
0.0
 10
4.502198614
 20
4.2992185436
 30
0.0
 10
4.503755624
 20
4.3009193947
 30
0.0
  0
SPLINE
  5
2E1
100
AcDbEntity
  8
ALL_ASSEMBLY_MEMBERS
100
AcDbSpline
 62
7
  6
CONTINUOUS
 70
0
 71
3
 72
23
 73
19
 74
0
 42
0.0000001
 43
0.0000001
 44
0.0000000001
 40
0.0
 40
0.0
 40
0.0
 40
0.0
 40
0.0625712421
 40
0.1251358029
 40
0.1876277175
 40
0.250027343
 40
0.3123402126
 40
0.374634822
 40
0.4369008385
 40
0.499178861
 40
0.5614927163
 40
0.623863918
 40
0.6863249176
 40
0.748854366
 40
0.8115079963
 40
0.874278548
 40
0.937134614
 40
1.0
 40
1.0
 40
1.0
 40
1.0
 10
5.0477473299
 20
4.3253140551
 30
0.0
 10
5.0486169463
 20
4.3245440828
 30
0.0
 10
5.0502952875
 20
4.3229336729
 30
0.0
 10
5.0525947137
 20
4.320311717
 30
0.0
 10
5.0546376244
 20
4.3174879533
 30
0.0
 10
5.0563842364
 20
4.3144765081
 30
0.0
 10
5.0577964895
 20
4.311297479
 30
0.0
 10
5.0588349262
 20
4.3079794208
 30
0.0
 10
5.0594746192
 20
4.3045619586
 30
0.0
 10
5.0596874399
 20
4.3010910254
 30
0.0
 10
5.0594743753
 20
4.2976181678
 30
0.0
 10
5.0588345048
 20
4.2941949784
 30
0.0
 10
5.0577959866
 20
4.2908675206
 30
0.0
 10
5.056383759
 20
4.28767563
 30
0.0
 10
5.0546372516
 20
4.2846481474
 30
0.0
 10
5.0525944938
 20
4.2818055051
 30
0.0
 10
5.0502952343
 20
4.2791621862
 30
0.0
 10
5.0486169713
 20
4.2775360957
 30
0.0
 10
5.0477473299
 20
4.2767579393
 30
0.0
  0
SPLINE
  5
2E2
100
AcDbEntity
  8
ALL_ASSEMBLY_MEMBERS
100
AcDbSpline
 62
7
  6
CONTINUOUS
 70
0
 71
3
 72
21
 73
17
 74
0
 42
0.0000001
 43
0.0000001
 44
0.0000000001
 40
0.0
 40
0.0
 40
0.0
 40
0.0
 40
0.1183484995
 40
0.1783046474
 40
0.238814594
 40
0.2999437332
 40
0.3617855457
 40
0.4243026177
 40
0.4874617049
 40
0.5511547235
 40
0.6152427344
 40
0.6795803471
 40
0.7439772921
 40
0.8083461064
 40
0.8725664033
 40
1.0
 40
1.0
 40
1.0
 40
1.0
 10
4.511807522
 20
4.2562775467
 30
0.0
 10
4.5101992924
 20
4.2577151622
 30
0.0
 10
4.5079567602
 20
4.2601009028
 30
0.0
 10
4.5054664469
 20
4.2636777765
 30
0.0
 10
4.5038620071
 20
4.26658024
 30
0.0
 10
4.5025660104
 20
4.2696704717
 30
0.0
 10
4.5016140928
 20
4.2729220365
 30
0.0
 10
4.5010286968
 20
4.2762970104
 30
0.0
 10
4.5008351386
 20
4.2797507238
 30
0.0
 10
4.5010319818
 20
4.2832327232
 30
0.0
 10
4.5016198952
 20
4.286691793
 30
0.0
 10
4.5025731893
 20
4.2900811711
 30
0.0
 10
4.5038692259
 20
4.2933596867
 30
0.0
 10
4.5054724693
 20
4.2964966151
 30
0.0
 10
4.5079652223
 20
4.3004468928
 30
0.0
 10
4.5102002815
 20
4.3031568373
 30
0.0
 10
4.511807522
 20
4.3048336625
 30
0.0
  0
SPLINE
  5
2E3
100
AcDbEntity
  8
ALL_ASSEMBLY_MEMBERS
100
AcDbSpline
 62
7
  6
CONTINUOUS
 70
0
 71
3
 72
13
 73
9
 74
0
 42
0.0000001
 43
0.0000001
 44
0.0000000001
 40
0.0
 40
0.0
 40
0.0
 40
0.0
 40
0.2553475447
 40
0.5424320349
 40
0.6809629021
 40
0.8060119637
 40
0.9129466654
 40
1.0
 40
1.0
 40
1.0
 40
1.0
 10
5.0477473299
 20
4.2767579393
 30
0.0
 10
5.0476423568
 20
4.2808899988
 30
0.0
 10
5.0474835933
 20
4.289669346
 30
0.0
 10
5.0474118599
 20
4.3006923641
 30
0.0
 10
5.0474401986
 20
4.3096061622
 30
0.0
 10
5.0475030051
 20
4.31560354
 30
0.0
 10
5.0476012281
 20
4.3207670242
 30
0.0
 10
5.0476942154
 20
4.3239058962
 30
0.0
 10
5.0477473299
 20
4.3253140551
 30
0.0
  0
SPLINE
  5
2E4
100
AcDbEntity
  8
ALL_ASSEMBLY_MEMBERS
100
AcDbSpline
 62
7
  6
CONTINUOUS
 70
0
 71
3
 72
22
 73
18
 74
0
 42
0.0000001
 43
0.0000001
 44
0.0000000001
 40
0.0
 40
0.0
 40
0.0
 40
0.0
 40
0.1199669787
 40
0.1804836373
 40
0.2413663939
 40
0.3026743564
 40
0.364505931
 40
0.4268434485
 40
0.4896852119
 40
0.5529673182
 40
0.616599477
 40
0.6804850911
 40
0.744477429
 40
0.8085231346
 40
0.8725266725
 40
0.9363917628
 40
1.0
 40
1.0
 40
1.0
 40
1.0
 10
4.5214649915
 20
4.260080718
 30
0.0
 10
4.519815129
 20
4.2615351922
 30
0.0
 10
4.5175115449
 20
4.2639443021
 30
0.0
 10
4.5149464733
 20
4.2675571698
 30
0.0
 10
4.5132960013
 20
4.2704796399
 30
0.0
 10
4.5119625243
 20
4.2735862894
 30
0.0
 10
4.5109828143
 20
4.276850389
 30
0.0
 10
4.510380123
 20
4.2802336156
 30
0.0
 10
4.5101806169
 20
4.2836910235
 30
0.0
 10
4.5103829237
 20
4.2871718603
 30
0.0
 10
4.5109877311
 20
4.2906247743
 30
0.0
 10
4.5119685242
 20
4.2940030997
 30
0.0
 10
4.5133019829
 20
4.2972659741
 30
0.0
 10
4.5149511622
 20
4.3003827301
 30
0.0
 10
4.5168803639
 20
4.3033309045
 30
0.0
 10
4.5190522382
 20
4.3060938627
 30
0.0
 10
4.5206412377
 20
4.3078113669
 30
0.0
 10
4.5214649915
 20
4.3086368338
 30
0.0
  0
SPLINE
  5
2E5
100
AcDbEntity
  8
ALL_ASSEMBLY_MEMBERS
100
AcDbSpline
 62
7
  6
CONTINUOUS
 70
0
 71
3
 72
23
 73
19
 74
0
 42
0.0000001
 43
0.0000001
 44
0.0000000001
 40
0.0
 40
0.0
 40
0.0
 40
0.0
 40
0.0629528037
 40
0.1258988167
 40
0.1887586185
 40
0.2514968803
 40
0.314101849
 40
0.376624504
 40
0.4390390033
 40
0.5013740289
 40
0.5636491059
 40
0.6258876289
 40
0.6881318984
 40
0.7503744916
 40
0.812687735
 40
0.8750812742
 40
0.9375394641
 40
1.0
 40
1.0
 40
1.0
 40
1.0
 10
5.0645182449
 20
4.3223483658
 30
0.0
 10
5.0653873459
 20
4.3215674363
 30
0.0
 10
5.0670645236
 20
4.3199360223
 30
0.0
 10
5.0693622145
 20
4.3172855074
 30
0.0
 10
5.071403572
 20
4.3144365081
 30
0.0
 10
5.0731488856
 20
4.3114036299
 30
0.0
 10
5.0745601624
 20
4.3082074203
 30
0.0
 10
5.0755980108
 20
4.3048768189
 30
0.0
 10
5.0762375091
 20
4.3014517303
 30
0.0
 10
5.0764505114
 20
4.2979782595
 30
0.0
 10
5.0762379171
 20
4.2945080077
 30
0.0
 10
5.0755987155
 20
4.2910924994
 30
0.0
 10
5.074561004
 20
4.2877776215
 30
0.0
 10
5.0731496848
 20
4.284602926
 30
0.0
 10
5.0714041965
 20
4.2815968743
 30
0.0
 10
5.0693625833
 20
4.278779454
 30
0.0
 10
5.0670646137
 20
4.2761646737
 30
0.0
 10
5.0653873043
 20
4.2745594893
 30
0.0
 10
5.0645182449
 20
4.27379225
 30
0.0
  0
SPLINE
  5
2E6
100
AcDbEntity
  8
ALL_ASSEMBLY_MEMBERS
100
AcDbSpline
 62
7
  6
CONTINUOUS
 70
0
 71
3
 72
22
 73
18
 74
0
 42
0.0000001
 43
0.0000001
 44
0.0000000001
 40
0.0
 40
0.0
 40
0.0
 40
0.0
 40
0.1214296512
 40
0.18247508
 40
0.2437293747
 40
0.3052424937
 40
0.3671129067
 40
0.4293357311
 40
0.4919327442
 40
0.5548757172
 40
0.6181150738
 40
0.6815964717
 40
0.7452117175
 40
0.8089384715
 40
0.8727043611
 40
0.936428365
 40
1.0
 40
1.0
 40
1.0
 40
1.0
 10
4.5326776814
 20
4.2637529643
 30
0.0
 10
4.5309940329
 20
4.2652255523
 30
0.0
 10
4.5286411245
 20
4.2676596241
 30
0.0
 10
4.5260153447
 20
4.2713084005
 30
0.0
 10
4.5243275619
 20
4.274251357
 30
0.0
 10
4.522963672
 20
4.2773747306
 30
0.0
 10
4.5219613685
 20
4.2806514906
 30
0.0
 10
4.5213445699
 20
4.2840429411
 30
0.0
 10
4.5211401521
 20
4.287503878
 30
0.0
 10
4.5213468292
 20
4.2909832862
 30
0.0
 10
4.5219653132
 20
4.2944296952
 30
0.0
 10
4.5229684365
 20
4.2977965678
 30
0.0
 10
4.5243322578
 20
4.3010432572
 30
0.0
 10
4.5260189013
 20
4.3041395491
 30
0.0
 10
4.5279918026
 20
4.3070634647
 30
0.0
 10
4.530212714
 20
4.3097988824
 30
0.0
 10
4.5318361647
 20
4.3114947563
 30
0.0
 10
4.5326776814
 20
4.3123090801
 30
0.0
  0
SPLINE
  5
2E7
100
AcDbEntity
  8
ALL_ASSEMBLY_MEMBERS
100
AcDbSpline
 62
7
  6
CONTINUOUS
 70
0
 71
3
 72
71
 73
67
 74
0
 42
0.0000001
 43
0.0000001
 44
0.0000000001
 40
0.0
 40
0.0
 40
0.0
 40
0.0
 40
0.0471152644
 40
0.0938049523
 40
0.1396087701
 40
0.184114024
 40
0.2269060342
 40
0.2675902128
 40
0.287025376
 40
0.305797404
 40
0.3238637571
 40
0.3411847658
 40
0.3577237714
 40
0.3734450637
 40
0.3883168231
 40
0.4023107728
 40
0.4154004078
 40
0.4275647447
 40
0.438787657
 40
0.4490570068
 40
0.458369707
 40
0.4667319223
 40
0.4705621822
 40
0.474163065
 40
0.4775402045
 40
0.480700828
 40
0.4836541741
 40
0.4864120203
 40
0.488989375
 40
0.4914054412
 40
0.4936838994
 40
0.4958531368
 40
0.4979461933
 40
0.4999999997
 40
0.502053806
 40
0.5041468625
 40
0.5063160998
 40
0.508594558
 40
0.5110106241
 40
0.5135879788
 40
0.516345825
 40
0.519299171
 40
0.5224597944
 40
0.5258369338
 40
0.5294378165
 40
0.5332680764
 40
0.5416302915
 40
0.5509429915
 40
0.5612123412
 40
0.5724352534
 40
0.58459959
 40
0.597689225
 40
0.6116831746
 40
0.6265549338
 40
0.642276226
 40
0.6588152313
 40
0.6761362398
 40
0.6942025929
 40
0.7129746208
 40
0.7324097839
 40
0.7730939618
 40
0.8158859724
 40
0.8603912281
 40
0.9061950469
 40
0.9528847354
 40
1.0
 40
1.0
 40
1.0
 40
1.0
 10
4.8197593168
 20
3.9508757759
 30
0.0
 10
4.8289065654
 20
3.9508757759
 30
0.0
 10
4.8471188233
 20
3.950720991
 30
0.0
 10
4.8742157324
 20
3.9500265888
 30
0.0
 10
4.9007900826
 20
3.9488763036
 30
0.0
 10
4.9265835117
 20
3.9472820936
 30
0.0
 10
4.951349834
 20
3.9452594109
 30
0.0
 10
4.9712256293
 20
3.943203958
 30
0.0
 10
4.9864295533
 20
3.9413477545
 30
0.0
 10
4.9972565909
 20
3.9398832928
 30
0.0
 10
5.0076562369
 20
3.9383286534
 30
0.0
 10
5.0176034945
 20
3.9366875556
 30
0.0
 10
5.0270745084
 20
3.9349643681
 30
0.0
 10
5.0360465193
 20
3.9331629689
 30
0.0
 10
5.0444980474
 20
3.9312878182
 30
0.0
 10
5.0524089654
 20
3.9293438931
 30
0.0
 10
5.0597603616
 20
3.9273355512
 30
0.0
 10
5.0665348872
 20
3.9252678832
 30
0.0
 10
5.072716774
 20
3.9231463803
 30
0.0
 10
5.0782917776
 20
3.9209756679
 30
0.0
 10
5.083247151
 20
3.9187612133
 30
0.0
 10
5.0869536334
 20
3.9168313918
 30
0.0
 10
5.089586955
 20
3.9152590997
 30
0.0
 10
5.0913414239
 20
3.914106648
 30
0.0
 10
5.0929329863
 20
3.9129469584
 30
0.0
 10
5.0943608483
 20
3.9117805311
 30
0.0
 10
5.0956242205
 20
3.9106078573
 30
0.0
 10
5.0967222864
 20
3.9094293217
 30
0.0
 10
5.0976541129
 20
3.9082451147
 30
0.0
 10
5.0984189562
 20
3.9070555573
 30
0.0
 10
5.0990159741
 20
3.9058609663
 30
0.0
 10
5.0994440113
 20
3.9046618292
 30
0.0
 10
5.0997017139
 20
3.9034590899
 30
0.0
 10
5.0997878456
 20
3.9022542864
 30
0.0
 10
5.0997017139
 20
3.9010494829
 30
0.0
 10
5.0994440113
 20
3.8998467436
 30
0.0
 10
5.0990159743
 20
3.8986476065
 30
0.0
 10
5.0984189565
 20
3.8974530155
 30
0.0
 10
5.0976541132
 20
3.8962634581
 30
0.0
 10
5.0967222867
 20
3.8950792511
 30
0.0
 10
5.0956242208
 20
3.8939007155
 30
0.0
 10
5.0943608488
 20
3.8927280417
 30
0.0
 10
5.0929329868
 20
3.8915616144
 30
0.0
 10
5.0913414244
 20
3.8904019247
 30
0.0
 10
5.0895869557
 20
3.8892494731
 30
0.0
 10
5.0869536341
 20
3.8876771809
 30
0.0
 10
5.0832471518
 20
3.8857473595
 30
0.0
 10
5.0782917785
 20
3.8835329048
 30
0.0
 10
5.072716775
 20
3.8813621924
 30
0.0
 10
5.0665348883
 20
3.8792406895
 30
0.0
 10
5.0597603628
 20
3.8771730215
 30
0.0
 10
5.0524089667
 20
3.8751646796
 30
0.0
 10
5.0444980487
 20
3.8732207545
 30
0.0
 10
5.0360465207
 20
3.8713456038
 30
0.0
 10
5.0270745099
 20
3.8695442046
 30
0.0
 10
5.0176034961
 20
3.867821017
 30
0.0
 10
5.0076562387
 20
3.8661799192
 30
0.0
 10
4.9972565927
 20
3.8646252799
 30
0.0
 10
4.9864295551
 20
3.8631608182
 30
0.0
 10
4.9712256313
 20
3.8613046147
 30
0.0
 10
4.9513498361
 20
3.8592491615
 30
0.0
 10
4.9265835135
 20
3.8572264788
 30
0.0
 10
4.9007900837
 20
3.8556322694
 30
0.0
 10
4.8742157329
 20
3.8544819833
 30
0.0
 10
4.8471188235
 20
3.8537875807
 30
0.0
 10
4.8289065655
 20
3.8536327964
 30
0.0
 10
4.8197593168
 20
3.8536327964
 30
0.0
  0
SPLINE
  5
2E8
100
AcDbEntity
  8
ALL_ASSEMBLY_MEMBERS
100
AcDbSpline
 62
7
  6
CONTINUOUS
 70
0
 71
3
 72
23
 73
19
 74
0
 42
0.0000001
 43
0.0000001
 44
0.0000000001
 40
0.0
 40
0.0
 40
0.0
 40
0.0
 40
0.0613678212
 40
0.1228305198
 40
0.1843587783
 40
0.2459691781
 40
0.3077002063
 40
0.3696457805
 40
0.4318068819
 40
0.4942205237
 40
0.5568850863
 40
0.6197831237
 40
0.6828955662
 40
0.7461474042
 40
0.8095440817
 40
0.8730349334
 40
0.9365540652
 40
1.0
 40
1.0
 40
1.0
 40
1.0
 10
4.5453871318
 20
4.2672751395
 30
0.0
 10
4.5445322375
 20
4.2680212027
 30
0.0
 10
4.5428819194
 20
4.2695860992
 30
0.0
 10
4.5406224257
 20
4.2721445269
 30
0.0
 10
4.5386151209
 20
4.2749120876
 30
0.0
 10
4.5368991806
 20
4.2778756509
 30
0.0
 10
4.5355120485
 20
4.281016055
 30
0.0
 10
4.534492497
 20
4.2843055246
 30
0.0
 10
4.5338648621
 20
4.2877051339
 30
0.0
 10
4.5336566096
 20
4.2911694084
 30
0.0
 10
4.5338665346
 20
4.2946471188
 30
0.0
 10
4.5344954002
 20
4.2980867057
 30
0.0
 10
4.5355155429
 20
4.3014417652
 30
0.0
 10
4.5369025381
 20
4.3046718836
 30
0.0
 10
4.5386177922
 20
4.3077472871
 30
0.0
 10
4.540624062
 20
4.3106464843
 30
0.0
 10
4.5428824077
 20
4.3133538669
 30
0.0
 10
4.5445321019
 20
4.3150281055
 30
0.0
 10
4.5453871318
 20
4.3158312553
 30
0.0
  0
SPLINE
  5
2E9
100
AcDbEntity
  8
ALL_ASSEMBLY_MEMBERS
100
AcDbSpline
 62
7
  6
CONTINUOUS
 70
0
 71
3
 72
23
 73
19
 74
0
 42
0.0000001
 43
0.0000001
 44
0.0000000001
 40
0.0
 40
0.0
 40
0.0
 40
0.0
 40
0.063243504
 40
0.1265070439
 40
0.1896994062
 40
0.2527698638
 40
0.3156879128
 40
0.3784834557
 40
0.441108996
 40
0.5035732201
 40
0.5658818116
 40
0.6280504185
 40
0.690122885
 40
0.7520992952
 40
0.8140647822
 40
0.8760443089
 40
0.9380382697
 40
1.0
 40
1.0
 40
1.0
 40
1.0
 10
5.0800130576
 20
4.3191802635
 30
0.0
 10
5.0808772855
 20
4.3183882515
 30
0.0
 10
5.0825448937
 20
4.3167355143
 30
0.0
 10
5.0848288521
 20
4.3140564576
 30
0.0
 10
5.0868579596
 20
4.3111822551
 30
0.0
 10
5.0885927882
 20
4.3081280083
 30
0.0
 10
5.0899956182
 20
4.3049147307
 30
0.0
 10
5.0910273483
 20
4.3015717698
 30
0.0
 10
5.091663226
 20
4.2981392927
 30
0.0
 10
5.091875261
 20
4.2946635603
 30
0.0
 10
5.0916642774
 20
4.2911961768
 30
0.0
 10
5.0910291678
 20
4.2877885449
 30
0.0
 10
5.089997797
 20
4.2844863557
 30
0.0
 10
5.0885948657
 20
4.2813288584
 30
0.0
 10
5.0868595934
 20
4.2783441596
 30
0.0
 10
5.0848298295
 20
4.2755518225
 30
0.0
 10
5.0825451516
 20
4.2729654034
 30
0.0
 10
5.0808771858
 20
4.271380665
 30
0.0
 10
5.0800130576
 20
4.2706241477
 30
0.0
  0
SPLINE
  5
2EA
100
AcDbEntity
  8
ALL_ASSEMBLY_MEMBERS
100
AcDbSpline
 62
7
  6
CONTINUOUS
 70
0
 71
3
 72
23
 73
19
 74
0
 42
0.0000001
 43
0.0000001
 44
0.0000000001
 40
0.0
 40
0.0
 40
0.0
 40
0.0
 40
0.0619625224
 40
0.1239572048
 40
0.1859373596
 40
0.2479033574
 40
0.3098801392
 40
0.3719528226
 40
0.4341214853
 40
0.4964299752
 40
0.5588939592
 40
0.621519148
 40
0.6843142628
 40
0.7472318431
 40
0.810301824
 40
0.8734937293
 40
0.9367568534
 40
1.0
 40
1.0
 40
1.0
 40
1.0
 10
4.5595270794
 20
4.2706288801
 30
0.0
 10
4.558662941
 20
4.2713854128
 30
0.0
 10
4.5569949556
 20
4.2729701804
 30
0.0
 10
4.5547102497
 20
4.2755566404
 30
0.0
 10
4.5526804609
 20
4.2783490137
 30
0.0
 10
4.5509451672
 20
4.2813337434
 30
0.0
 10
4.5495422183
 20
4.2844912656
 30
0.0
 10
4.5485108343
 20
4.2877934733
 30
0.0
 10
4.5478757163
 20
4.2912011167
 30
0.0
 10
4.5476647295
 20
4.2946685046
 30
0.0
 10
4.5478767668
 20
4.2981442338
 30
0.0
 10
4.5485126522
 20
4.3015767004
 30
0.0
 10
4.5495443951
 20
4.3049196435
 30
0.0
 10
4.5509472428
 20
4.3081328965
 30
0.0
 10
4.5526820932
 20
4.3111871124
 30
0.0
 10
4.5547112262
 20
4.3140612786
 30
0.0
 10
4.5569952131
 20
4.3167402939
 30
0.0
 10
4.5586628413
 20
4.318393
 30
0.0
 10
4.5595270794
 20
4.3191849959
 30
0.0
  0
SPLINE
  5
2EB
100
AcDbEntity
  8
ALL_ASSEMBLY_MEMBERS
100
AcDbSpline
 62
7
  6
CONTINUOUS
 70
0
 71
3
 72
23
 73
19
 74
0
 42
0.0000001
 43
0.0000001
 44
0.0000000001
 40
0.0
 40
0.0
 40
0.0
 40
0.0
 40
0.0624611901
 40
0.1249200043
 40
0.1873141171
 40
0.2496278602
 40
0.3118708548
 40
0.3741154063
 40
0.4363540761
 40
0.498629156
 40
0.5609640457
 40
0.6233782838
 40
0.6859005756
 40
0.7485051061
 40
0.8112428827
 40
0.8741021773
 40
0.9370476835
 40
1.0
 40
1.0
 40
1.0
 40
1.0
 10
4.5750238026
 20
4.2737967006
 30
0.0
 10
4.5741547392
 20
4.2745639556
 30
0.0
 10
4.5724774223
 20
4.27616917
 30
0.0
 10
4.5701794421
 20
4.2787839916
 30
0.0
 10
4.5681378195
 20
4.2816014484
 30
0.0
 10
4.5663923231
 20
4.2846075311
 30
0.0
 10
4.5649809971
 20
4.2877822517
 30
0.0
 10
4.5639432805
 20
4.2910971479
 30
0.0
 10
4.5633040754
 20
4.2945126675
 30
0.0
 10
4.5630914796
 20
4.2979829232
 30
0.0
 10
4.5633044825
 20
4.3014563905
 30
0.0
 10
4.5639439836
 20
4.3048814682
 30
0.0
 10
4.5649818368
 20
4.3082120515
 30
0.0
 10
4.5663931204
 20
4.3114082363
 30
0.0
 10
4.5681384427
 20
4.3144410834
 30
0.0
 10
4.5701798101
 20
4.3172900461
 30
0.0
 10
4.5724775122
 20
4.3199405196
 30
0.0
 10
4.5741546977
 20
4.3215719028
 30
0.0
 10
4.5750238026
 20
4.3223528164
 30
0.0
  0
SPLINE
  5
2EC
100
AcDbEntity
  8
ALL_ASSEMBLY_MEMBERS
100
AcDbSpline
 62
7
  6
CONTINUOUS
 70
0
 71
3
 72
40
 73
36
 74
0
 42
0.0000001
 43
0.0000001
 44
0.0000000001
 40
0.0
 40
0.0
 40
0.0
 40
0.0
 40
0.0942303301
 40
0.1876095392
 40
0.27921696
 40
0.368227224
 40
0.4538110296
 40
0.5351791921
 40
0.5740494197
 40
0.6115933782
 40
0.6477259928
 40
0.6823679229
 40
0.7154458514
 40
0.746888358
 40
0.7766318011
 40
0.8046196292
 40
0.8307988334
 40
0.8551274453
 40
0.8775732133
 40
0.8981118613
 40
0.9167372145
 40
0.9253366239
 40
0.9334640118
 40
0.9411245125
 40
0.9483262598
 40
0.9550805218
 40
0.9614017529
 40
0.9673084301
 40
0.9728241088
 40
0.9779788053
 40
0.9828109257
 40
0.9873678308
 40
0.9917062947
 40
0.9958923975
 40
1.0
 40
1.0
 40
1.0
 40
1.0
 10
4.8197593168
 20
3.9740448945
 30
0.0
 10
4.8295599433
 20
3.9740448945
 30
0.0
 10
4.8490730857
 20
3.9738790462
 30
0.0
 10
4.8781054979
 20
3.9731350465
 30
0.0
 10
4.9065780201
 20
3.9719026088
 30
0.0
 10
4.9342138333
 20
3.970194519
 30
0.0
 10
4.9607491746
 20
3.9680273575
 30
0.0
 10
4.9820446686
 20
3.9658250892
 30
0.0
 10
4.998334586
 20
3.9638362992
 30
0.0
 10
5.0099349815
 20
3.9622672325
 30
0.0
 10
5.0210774578
 20
3.9606015474
 30
0.0
 10
5.0317352325
 20
3.9588432282
 30
0.0
 10
5.0418827465
 20
3.9569969559
 30
0.0
 10
5.0514956142
 20
3.9550668856
 30
0.0
 10
5.0605508224
 20
3.9530577955
 30
0.0
 10
5.0690268028
 20
3.9509750184
 30
0.0
 10
5.0769033047
 20
3.9488232243
 30
0.0
 10
5.0841617006
 20
3.9466078633
 30
0.0
 10
5.0907852276
 20
3.9443348327
 30
0.0
 10
5.096758191
 20
3.9420090428
 30
0.0
 10
5.101296356
 20
3.9399814165
 30
0.0
 10
5.1045808728
 20
3.93832744
 30
0.0
 10
5.106806884
 20
3.9371103729
 30
0.0
 10
5.1088603523
 20
3.9358841431
 30
0.0
 10
5.1107401491
 20
3.9346494058
 30
0.0
 10
5.1124453921
 20
3.9334068733
 30
0.0
 10
5.1139752446
 20
3.9321571317
 30
0.0
 10
5.1153288572
 20
3.9309006953
 30
0.0
 10
5.1165053563
 20
3.9296379783
 30
0.0
 10
5.1175037416
 20
3.9283691866
 30
0.0
 10
5.1183232166
 20
3.9270946559
 30
0.0
 10
5.1189628785
 20
3.9258147539
 30
0.0
 10
5.1194214896
 20
3.9245299056
 30
0.0
 10
5.1196975995
 20
3.9232414643
 30
0.0
 10
5.1197593168
 20
3.9223776611
 30
0.0
 10
5.1197593168
 20
3.9219504412
 30
0.0
  0
SPLINE
  5
2ED
100
AcDbEntity
  8
ALL_ASSEMBLY_MEMBERS
100
AcDbSpline
 62
7
  6
CONTINUOUS
 70
0
 71
3
 72
13
 73
9
 74
0
 42
0.0000001
 43
0.0000001
 44
0.0000000001
 40
0.0
 40
0.0
 40
0.0
 40
0.0
 40
0.2553475648
 40
0.5424317988
 40
0.6809625528
 40
0.8060115791
 40
0.9129463783
 40
1.0
 40
1.0
 40
1.0
 40
1.0
 10
4.591796506
 20
4.2767620849
 30
0.0
 10
4.5919018858
 20
4.2808941382
 30
0.0
 10
4.5920612645
 20
4.2896734807
 30
0.0
 10
4.5921332759
 20
4.3006965039
 30
0.0
 10
4.5921048274
 20
4.3096103039
 30
0.0
 10
4.5920417775
 20
4.3156076844
 30
0.0
 10
4.5919431738
 20
4.3207711723
 30
0.0
 10
4.5918498262
 20
4.3239100436
 30
0.0
 10
4.591796506
 20
4.3253182007
 30
0.0
  0
SPLINE
  5
2EE
100
AcDbEntity
  8
ALL_ASSEMBLY_MEMBERS
100
AcDbSpline
 62
7
  6
CONTINUOUS
 70
0
 71
3
 72
23
 73
19
 74
0
 42
0.0000001
 43
0.0000001
 44
0.0000000001
 40
0.0
 40
0.0
 40
0.0
 40
0.0
 40
0.0625706213
 40
0.125134581
 40
0.1876259362
 40
0.2500250665
 40
0.3123375281
 40
0.3746318394
 40
0.4368976858
 40
0.4991756773
 40
0.5614896404
 40
0.62386108
 40
0.6863224267
 40
0.7488523066
 40
0.8115064264
 40
0.8742774989
 40
0.9371340943
 40
1.0
 40
1.0
 40
1.0
 40
1.0
 10
4.591796506
 20
4.3253182007
 30
0.0
 10
4.590926892
 20
4.3245482442
 30
0.0
 10
4.5892485552
 20
4.3229378645
 30
0.0
 10
4.5869491353
 20
4.3203159499
 30
0.0
 10
4.5849062301
 20
4.3174922227
 30
0.0
 10
4.5831596228
 20
4.3144808086
 30
0.0
 10
4.5817473737
 20
4.3113018044
 30
0.0
 10
4.5807089403
 20
4.3079837645
 30
0.0
 10
4.5800692494
 20
4.3045663135
 30
0.0
 10
4.5798564298
 20
4.3010953842
 30
0.0
 10
4.5800694943
 20
4.2976225231
 30
0.0
 10
4.5807093633
 20
4.2941993228
 30
0.0
 10
4.5817478786
 20
4.2908718468
 30
0.0
 10
4.5831601021
 20
4.2876799313
 30
0.0
 10
4.5849066043
 20
4.2846524176
 30
0.0
 10
4.5869493559
 20
4.2818097387
 30
0.0
 10
4.5892486087
 20
4.2791663783
 30
0.0
 10
4.5909268669
 20
4.2775402572
 30
0.0
 10
4.591796506
 20
4.2767620849
 30
0.0
  0
SPLINE
  5
2EF
100
AcDbEntity
  8
ALL_ASSEMBLY_MEMBERS
100
AcDbSpline
 62
7
  6
CONTINUOUS
 70
0
 71
3
 72
18
 73
14
 74
0
 42
0.0000001
 43
0.0000001
 44
0.0000000001
 40
0.0
 40
0.0
 40
0.0
 40
0.0
 40
0.1215115375
 40
0.2553862176
 40
0.3976983686
 40
0.470115867
 40
0.5420673937
 40
0.6804079458
 40
0.8053951911
 40
0.8613373634
 40
0.9124872361
 40
0.9587113035
 40
1.0
 40
1.0
 40
1.0
 40
1.0
 10
4.6097577415
 20
4.2795095723
 30
0.0
 10
4.6099408246
 20
4.281471038
 30
0.0
 10
4.6102719842
 20
4.2855986607
 30
0.0
 10
4.6106405079
 20
4.2920362554
 30
0.0
 10
4.6108375784
 20
4.2976850548
 30
0.0
 10
4.6109210746
 20
4.3023321797
 30
0.0
 10
4.6109490667
 20
4.306915583
 30
0.0
 10
4.6108851418
 20
4.3123514613
 30
0.0
 10
4.6106865332
 20
4.317524605
 30
0.0
 10
4.6104498597
 20
4.3212798744
 30
0.0
 10
4.6102496392
 20
4.3237575696
 30
0.0
 10
4.6100239228
 20
4.325994414
 30
0.0
 10
4.6098494639
 20
4.3274026138
 30
0.0
 10
4.6097577415
 20
4.3280656881
 30
0.0
  0
SPLINE
  5
2F0
100
AcDbEntity
  8
ALL_ASSEMBLY_MEMBERS
100
AcDbSpline
 62
7
  6
CONTINUOUS
 70
0
 71
3
 72
23
 73
19
 74
0
 42
0.0000001
 43
0.0000001
 44
0.0000000001
 40
0.0
 40
0.0
 40
0.0
 40
0.0
 40
0.0620955487
 40
0.1242120491
 40
0.1862987585
 40
0.2483520328
 40
0.3103931579
 40
0.372504426
 40
0.4346846559
 40
0.4969780922
 40
0.5594032232
 40
0.6219700856
 40
0.6846931149
 40
0.7475307992
 40
0.8105186452
 40
0.8736309769
 40
0.9368208986
 40
1.0
 40
1.0
 40
1.0
 40
1.0
 10
4.6097577415
 20
4.3280656881
 30
0.0
 10
4.6088919719
 20
4.3273065079
 30
0.0
 10
4.6072208819
 20
4.3257167001
 30
0.0
 10
4.6049317525
 20
4.3231232055
 30
0.0
 10
4.6028980195
 20
4.3203246089
 30
0.0
 10
4.6011593282
 20
4.3173345776
 30
0.0
 10
4.5997535965
 20
4.3141727788
 30
0.0
 10
4.5987201201
 20
4.310867406
 30
0.0
 10
4.5980836659
 20
4.3074577859
 30
0.0
 10
4.5978721726
 20
4.3039896605
 30
0.0
 10
4.5980845576
 20
4.3005144681
 30
0.0
 10
4.5987216624
 20
4.2970838167
 30
0.0
 10
4.5997554415
 20
4.2937439296
 30
0.0
 10
4.6011610852
 20
4.2905349096
 30
0.0
 10
4.6028993982
 20
4.2874860002
 30
0.0
 10
4.6049325738
 20
4.2846180969
 30
0.0
 10
4.6072210932
 20
4.2819461757
 30
0.0
 10
4.6088918852
 20
4.2802988009
 30
0.0
 10
4.6097577415
 20
4.2795095723
 30
0.0
  0
SPLINE
  5
2F1
100
AcDbEntity
  8
ALL_ASSEMBLY_MEMBERS
100
AcDbSpline
 62
7
  6
CONTINUOUS
 70
0
 71
3
 72
17
 73
13
 74
0
 42
0.0000001
 43
0.0000001
 44
0.0000000001
 40
0.0
 40
0.0
 40
0.0
 40
0.0
 40
0.1217248858
 40
0.2554693498
 40
0.3974070366
 40
0.5412976916
 40
0.6792416168
 40
0.8041029322
 40
0.8601441942
 40
0.9115277658
 40
0.958142018
 40
1.0
 40
1.0
 40
1.0
 40
1.0
 10
4.6288138644
 20
4.2820248383
 30
0.0
 10
4.6291284301
 20
4.2839795395
 30
0.0
 10
4.6296981183
 20
4.2880968644
 30
0.0
 10
4.6303329937
 20
4.2945309361
 30
0.0
 10
4.6307426486
 20
4.3013446773
 30
0.0
 10
4.6308884083
 20
4.3082376578
 30
0.0
 10
4.6307543394
 20
4.3148531382
 30
0.0
 10
4.6304120545
 20
4.3200303245
 30
0.0
 10
4.6300048108
 20
4.3237869085
 30
0.0
 10
4.629659905
 20
4.3262689403
 30
0.0
 10
4.6292710155
 20
4.3285106461
 30
0.0
 10
4.6289712157
 20
4.3299185687
 30
0.0
 10
4.6288138644
 20
4.3305809541
 30
0.0
  0
SPLINE
  5
2F2
100
AcDbEntity
  8
ALL_ASSEMBLY_MEMBERS
100
AcDbSpline
 62
7
  6
CONTINUOUS
 70
0
 71
3
 72
23
 73
19
 74
0
 42
0.0000001
 43
0.0000001
 44
0.0000000001
 40
0.0
 40
0.0
 40
0.0
 40
0.0
 40
0.0615249242
 40
0.1231264459
 40
0.184770768
 40
0.2464704294
 40
0.3082607252
 40
0.3702337699
 40
0.4323909481
 40
0.4947717617
 40
0.5573797764
 40
0.6202041677
 40
0.6832334935
 40
0.7464001387
 40
0.8097159578
 40
0.8731354458
 40
0.9365964767
 40
1.0
 40
1.0
 40
1.0
 40
1.0
 10
4.6288138644
 20
4.3305809541
 30
0.0
 10
4.6279562678
 20
4.3298323118
 30
0.0
 10
4.6263007773
 20
4.3282625294
 30
0.0
 10
4.6240338978
 20
4.3256971631
 30
0.0
 10
4.622020006
 20
4.3229234586
 30
0.0
 10
4.6202983973
 20
4.31995465
 30
0.0
 10
4.6189066365
 20
4.316809997
 30
0.0
 10
4.6178836287
 20
4.3135173554
 30
0.0
 10
4.617253816
 20
4.3101157337
 30
0.0
 10
4.6170447787
 20
4.3066506625
 30
0.0
 10
4.6172553363
 20
4.3031734189
 30
0.0
 10
4.6178862654
 20
4.2997355776
 30
0.0
 10
4.6189098052
 20
4.2963835079
 30
0.0
 10
4.6203014351
 20
4.2931575636
 30
0.0
 10
4.6220224147
 20
4.2900874104
 30
0.0
 10
4.6240353633
 20
4.2871944199
 30
0.0
 10
4.6263012001
 20
4.2844940732
 30
0.0
 10
4.6279561383
 20
4.2828252079
 30
0.0
 10
4.6288138644
 20
4.2820248383
 30
0.0
  0
SPLINE
  5
2F3
100
AcDbEntity
  8
ALL_ASSEMBLY_MEMBERS
100
AcDbSpline
 62
7
  6
CONTINUOUS
 70
0
 71
3
 72
18
 73
14
 74
0
 42
0.0000001
 43
0.0000001
 44
0.0000000001
 40
0.0
 40
0.0
 40
0.0
 40
0.0
 40
0.1220385668
 40
0.2555884211
 40
0.3969680209
 40
0.5401496597
 40
0.6775039883
 40
0.7417850769
 40
0.8022002479
 40
0.8583899471
 40
0.9101201734
 40
0.9573092924
 40
1.0
 40
1.0
 40
1.0
 40
1.0
 10
4.6488655217
 20
4.2842947689
 30
0.0
 10
4.6493090611
 20
4.2862394069
 30
0.0
 10
4.6501137427
 20
4.2903411532
 30
0.0
 10
4.6510124612
 20
4.2967695974
 30
0.0
 10
4.6515924194
 20
4.3035819742
 30
0.0
 10
4.6517986065
 20
4.3104781259
 30
0.0
 10
4.6516372274
 20
4.3161155057
 30
0.0
 10
4.651301132
 20
4.3203859467
 30
0.0
 10
4.6509649996
 20
4.3233238322
 30
0.0
 10
4.650548412
 20
4.3260440715
 30
0.0
 10
4.6500602923
 20
4.3285325682
 30
0.0
 10
4.6495097772
 20
4.3307814641
 30
0.0
 10
4.6490869529
 20
4.3321892236
 30
0.0
 10
4.6488655217
 20
4.3328508847
 30
0.0
  0
SPLINE
  5
2F4
100
AcDbEntity
  8
ALL_ASSEMBLY_MEMBERS
100
AcDbSpline
 62
7
  6
CONTINUOUS
 70
0
 71
3
 72
22
 73
18
 74
0
 42
0.0000001
 43
0.0000001
 44
0.0000000001
 40
0.0
 40
0.0
 40
0.0
 40
0.0
 40
0.121767554
 40
0.1829385993
 40
0.244284114
 40
0.3058514408
 40
0.3677383214
 40
0.4299419666
 40
0.4924887438
 40
0.5553578822
 40
0.6185086022
 40
0.6818960283
 40
0.7454207254
 40
0.8090675631
 40
0.8727697403
 40
0.9364499998
 40
1.0
 40
1.0
 40
1.0
 40
1.0
 10
4.6488655217
 20
4.3328508847
 30
0.0
 10
4.6471747034
 20
4.3313736108
 30
0.0
 10
4.6448113647
 20
4.3289330985
 30
0.0
 10
4.6421727024
 20
4.325275414
 30
0.0
 10
4.6404770104
 20
4.3223272963
 30
0.0
 10
4.6391066703
 20
4.3191997203
 30
0.0
 10
4.638099565
 20
4.3159197959
 30
0.0
 10
4.6374797602
 20
4.3125263058
 30
0.0
 10
4.6372742868
 20
4.3090645165
 30
0.0
 10
4.637481877
 20
4.305585503
 30
0.0
 10
4.6381032568
 20
4.3021407614
 30
0.0
 10
4.6391111188
 20
4.2987767973
 30
0.0
 10
4.6404813856
 20
4.2955342
 30
0.0
 10
4.6421759859
 20
4.292443074
 30
0.0
 10
4.6441581657
 20
4.289525275
 30
0.0
 10
4.6463894874
 20
4.2867967966
 30
0.0
 10
4.6480202419
 20
4.2851063121
 30
0.0
 10
4.6488655217
 20
4.2842947689
 30
0.0
  0
SPLINE
  5
2F5
100
AcDbEntity
  8
ALL_ASSEMBLY_MEMBERS
100
AcDbSpline
 62
7
  6
CONTINUOUS
 70
0
 71
3
 72
18
 73
14
 74
0
 42
0.0000001
 43
0.0000001
 44
0.0000000001
 40
0.0
 40
0.0
 40
0.0
 40
0.0
 40
0.1224438952
 40
0.2557460753
 40
0.3964097403
 40
0.5386820948
 40
0.675284037
 40
0.7393695909
 40
0.7997651865
 40
0.8561507167
 40
0.9083294654
 40
0.9562545533
 40
1.0
 40
1.0
 40
1.0
 40
1.0
 10
4.6698081698
 20
4.2863075295
 30
0.0
 10
4.6703772679
 20
4.2882391582
 30
0.0
 10
4.6714119571
 20
4.2923202812
 30
0.0
 10
4.6725708849
 20
4.2987408035
 30
0.0
 10
4.6733188078
 20
4.3055510807
 30
0.0
 10
4.67358467
 20
4.3124515565
 30
0.0
 10
4.6733762538
 20
4.3180947488
 30
0.0
 10
4.6729435109
 20
4.3223678811
 30
0.0
 10
4.6725103414
 20
4.3253118374
 30
0.0
 10
4.671973418
 20
4.3280393647
 30
0.0
 10
4.6713441825
 20
4.3305362634
 30
0.0
 10
4.6706344019
 20
4.3327944218
 30
0.0
 10
4.6700917064
 20
4.3342024338
 30
0.0
 10
4.6698081698
 20
4.3348636453
 30
0.0
  0
SPLINE
  5
2F6
100
AcDbEntity
  8
ALL_ASSEMBLY_MEMBERS
100
AcDbSpline
 62
7
  6
CONTINUOUS
 70
0
 71
3
 72
22
 73
18
 74
0
 42
0.0000001
 43
0.0000001
 44
0.0000000001
 40
0.0
 40
0.0
 40
0.0
 40
0.0
 40
0.1203467549
 40
0.1809985916
 40
0.2419745362
 40
0.3033316757
 40
0.3651688713
 40
0.4274722843
 40
0.4902468308
 40
0.5534382971
 40
0.6169672899
 40
0.6807483626
 40
0.7446448533
 40
0.8086114179
 40
0.8725584446
 40
0.9363934758
 40
1.0
 40
1.0
 40
1.0
 40
1.0
 10
4.6698081698
 20
4.3348636453
 30
0.0
 10
4.6681491575
 20
4.3334047739
 30
0.0
 10
4.6658321917
 20
4.3309895937
 30
0.0
 10
4.6632506807
 20
4.3273677756
 30
0.0
 10
4.6615900979
 20
4.3244402479
 30
0.0
 10
4.6602483831
 20
4.3213294616
 30
0.0
 10
4.6592625571
 20
4.3180622202
 30
0.0
 10
4.6586560524
 20
4.3146769417
 30
0.0
 10
4.6584552254
 20
4.3112186382
 30
0.0
 10
4.6586587231
 20
4.3077381311
 30
0.0
 10
4.6592672391
 20
4.3042868045
 30
0.0
 10
4.6602540806
 20
4.3009112927
 30
0.0
 10
4.6615957598
 20
4.2976524059
 30
0.0
 10
4.6632550818
 20
4.294540698
 30
0.0
 10
4.6651961145
 20
4.2915985118
 30
0.0
 10
4.6673812663
 20
4.2888423543
 30
0.0
 10
4.6689796012
 20
4.2871302282
 30
0.0
 10
4.6698081698
 20
4.2863075295
 30
0.0
  0
SPLINE
  5
2F7
100
AcDbEntity
  8
ALL_ASSEMBLY_MEMBERS
100
AcDbSpline
 62
7
  6
CONTINUOUS
 70
0
 71
3
 72
17
 73
13
 74
0
 42
0.0000001
 43
0.0000001
 44
0.0000000001
 40
0.0
 40
0.0
 40
0.0
 40
0.0
 40
0.1229288314
 40
0.2559454864
 40
0.3957666318
 40
0.5369668877
 40
0.6726878624
 40
0.7968865027
 40
0.8535139778
 40
0.9062304775
 40
0.955024806
 40
1.0
 40
1.0
 40
1.0
 40
1.0
 10
4.6915326199
 20
4.288052626
 30
0.0
 10
4.6922230762
 20
4.289968694
 30
0.0
 10
4.6934814047
 20
4.2940244934
 30
0.0
 10
4.6948956984
 20
4.300434603
 30
0.0
 10
4.6958085293
 20
4.3072417749
 30
0.0
 10
4.6961329813
 20
4.3141480045
 30
0.0
 10
4.6958329541
 20
4.3207967017
 30
0.0
 10
4.6950688447
 20
4.3259969526
 30
0.0
 10
4.6941680195
 20
4.3297620982
 30
0.0
 10
4.6934004989
 20
4.3322691765
 30
0.0
 10
4.6925346953
 20
4.3345384234
 30
0.0
 10
4.6918759957
 20
4.3359474289
 30
0.0
 10
4.6915326199
 20
4.3366087418
 30
0.0
  0
SPLINE
  5
2F8
100
AcDbEntity
  8
ALL_ASSEMBLY_MEMBERS
100
AcDbSpline
 62
7
  6
CONTINUOUS
 70
0
 71
3
 72
21
 73
17
 74
0
 42
0.0000001
 43
0.0000001
 44
0.0000000001
 40
0.0
 40
0.0
 40
0.0
 40
0.0
 40
0.1187700487
 40
0.1788707412
 40
0.2394756959
 40
0.3006490354
 40
0.3624859419
 40
0.4249545682
 40
0.4880302595
 40
0.5516166913
 40
0.615587739
 40
0.6798107293
 40
0.7441066718
 40
0.8083968763
 40
0.8725672973
 40
1.0
 40
1.0
 40
1.0
 40
1.0
 10
4.6915326199
 20
4.3366087418
 30
0.0
 10
4.6899133034
 20
4.3351670556
 30
0.0
 10
4.6876544904
 20
4.3327756553
 30
0.0
 10
4.6851442781
 20
4.3291898206
 30
0.0
 10
4.6835275773
 20
4.3262824266
 30
0.0
 10
4.6822216013
 20
4.3231881407
 30
0.0
 10
4.6812622884
 20
4.319933471
 30
0.0
 10
4.6806722952
 20
4.316556443
 30
0.0
 10
4.6804771616
 20
4.313101797
 30
0.0
 10
4.6806754656
 20
4.3096200625
 30
0.0
 10
4.6812678784
 20
4.3061624931
 30
0.0
 10
4.6822284963
 20
4.3027758196
 30
0.0
 10
4.68353448
 20
4.2995011643
 30
0.0
 10
4.6851499991
 20
4.2963691379
 30
0.0
 10
4.6876624134
 20
4.2924256183
 30
0.0
 10
4.6899141109
 20
4.2897234868
 30
0.0
 10
4.6915326199
 20
4.288052626
 30
0.0
  0
SPLINE
  5
2F9
100
AcDbEntity
  8
ALL_ASSEMBLY_MEMBERS
100
AcDbSpline
 62
7
  6
CONTINUOUS
 70
0
 71
3
 72
17
 73
13
 74
0
 42
0.0000001
 43
0.0000001
 44
0.0000000001
 40
0.0
 40
0.0
 40
0.0
 40
0.0
 40
0.1234653806
 40
0.2561572122
 40
0.3950261314
 40
0.5350170534
 40
0.6697510691
 40
0.7936813293
 40
0.8505875789
 40
0.9039105678
 40
0.9536726161
 40
1.0
 40
1.0
 40
1.0
 40
1.0
 10
4.7139256068
 20
4.2895209601
 30
0.0
 10
4.7147325635
 20
4.2914193343
 30
0.0
 10
4.7162068552
 20
4.2954455374
 30
0.0
 10
4.7178703949
 20
4.3018424355
 30
0.0
 10
4.7189443417
 20
4.3086455663
 30
0.0
 10
4.7193258915
 20
4.3155578914
 30
0.0
 10
4.7189721119
 20
4.3222224568
 30
0.0
 10
4.7180725584
 20
4.3274332841
 30
0.0
 10
4.7170164121
 20
4.331203046
 30
0.0
 10
4.7161142789
 20
4.333721864
 30
0.0
 10
4.7150966063
 20
4.3360038439
 30
0.0
 10
4.7143263591
 20
4.3374148992
 30
0.0
 10
4.7139256068
 20
4.3380770759
 30
0.0
  0
SPLINE
  5
2FA
100
AcDbEntity
  8
ALL_ASSEMBLY_MEMBERS
100
AcDbSpline
 62
7
  6
CONTINUOUS
 70
0
 71
3
 72
21
 73
17
 74
0
 42
0.0000001
 43
0.0000001
 44
0.0000000001
 40
0.0
 40
0.0
 40
0.0
 40
0.0
 40
0.1170144809
 40
0.1765209247
 40
0.2367418624
 40
0.2977452393
 40
0.3596174238
 40
0.4223016015
 40
0.4857357509
 40
0.5497733761
 40
0.6142342073
 40
0.6789322989
 40
0.7436416458
 40
0.808247211
 40
0.8726088121
 40
1.0
 40
1.0
 40
1.0
 40
1.0
 10
4.7139256068
 20
4.3380770759
 30
0.0
 10
4.712353697
 20
4.3366512038
 30
0.0
 10
4.7101645947
 20
4.3342818795
 30
0.0
 10
4.7077394068
 20
4.3307320284
 30
0.0
 10
4.7061751328
 20
4.3278442271
 30
0.0
 10
4.7049118111
 20
4.3247660842
 30
0.0
 10
4.703984087
 20
4.321523816
 30
0.0
 10
4.7034137111
 20
4.3181550282
 30
0.0
 10
4.703225278
 20
4.3147041741
 30
0.0
 10
4.7034173153
 20
4.3112214679
 30
0.0
 10
4.7039904905
 20
4.3077580072
 30
0.0
 10
4.7049198113
 20
4.3043606479
 30
0.0
 10
4.7061832939
 20
4.3010707016
 30
0.0
 10
4.7077463584
 20
4.2979192362
 30
0.0
 10
4.7101748111
 20
4.2939492355
 30
0.0
 10
4.712355356
 20
4.2912158241
 30
0.0
 10
4.7139256068
 20
4.2895209601
 30
0.0
  0
SPLINE
  5
2FB
100
AcDbEntity
  8
ALL_ASSEMBLY_MEMBERS
100
AcDbSpline
 62
7
  6
CONTINUOUS
 70
0
 71
3
 72
18
 73
14
 74
0
 42
0.0000001
 43
0.0000001
 44
0.0000000001
 40
0.0
 40
0.0
 40
0.0
 40
0.0
 40
0.1240313464
 40
0.2563652482
 40
0.3941980717
 40
0.4638217526
 40
0.5329413662
 40
0.6008011918
 40
0.6666853488
 40
0.7903425679
 40
0.8475582518
 40
0.9015388668
 40
1.0
 40
1.0
 40
1.0
 40
1.0
 10
4.73687038
 20
4.2907048762
 30
0.0
 10
4.7377884361
 20
4.2925838239
 30
0.0
 10
4.7394697916
 20
4.2965767212
 30
0.0
 10
4.741375213
 20
4.3029569947
 30
0.0
 10
4.7423975925
 20
4.3086080758
 30
0.0
 10
4.7428270134
 20
4.3132538098
 30
0.0
 10
4.742935971
 20
4.3167377616
 30
0.0
 10
4.7428309903
 20
4.3201590972
 30
0.0
 10
4.7424137604
 20
4.3244809345
 30
0.0
 10
4.7416050206
 20
4.3285789743
 30
0.0
 10
4.7403993938
 20
4.3323546911
 30
0.0
 10
4.7390641241
 20
4.335630002
 30
0.0
 10
4.7378095675
 20
4.3378920915
 30
0.0
 10
4.73687038
 20
4.339260992
 30
0.0
  0
SPLINE
  5
2FC
100
AcDbEntity
  8
ALL_ASSEMBLY_MEMBERS
100
AcDbSpline
 62
7
  6
CONTINUOUS
 70
0
 71
3
 72
21
 73
17
 74
0
 42
0.0000001
 43
0.0000001
 44
0.0000000001
 40
0.0
 40
0.0
 40
0.0
 40
0.0
 40
0.1150968092
 40
0.1739743986
 40
0.2338060623
 40
0.2946598101
 40
0.3566077825
 40
0.4195613358
 40
0.4834137515
 40
0.5479610417
 40
0.6129621811
 40
0.6781725821
 40
0.7433149767
 40
0.8082351312
 40
0.8727649248
 40
1.0
 40
1.0
 40
1.0
 40
1.0
 10
4.73687038
 20
4.339260992
 30
0.0
 10
4.7353533877
 20
4.3378493998
 30
0.0
 10
4.7332452969
 20
4.3355003131
 30
0.0
 10
4.7309183391
 20
4.3319863407
 30
0.0
 10
4.7294147596
 20
4.3291175136
 30
0.0
 10
4.7282007678
 20
4.3260550912
 30
0.0
 10
4.7273095186
 20
4.3228249944
 30
0.0
 10
4.7267617422
 20
4.3194643834
 30
0.0
 10
4.7265809708
 20
4.3160174156
 30
0.0
 10
4.7267657058
 20
4.3125339748
 30
0.0
 10
4.7273166209
 20
4.3090649947
 30
0.0
 10
4.7282097689
 20
4.3056574586
 30
0.0
 10
4.7294241361
 20
4.3023528517
 30
0.0
 10
4.7309265691
 20
4.2991826928
 30
0.0
 10
4.7332581516
 20
4.2951880806
 30
0.0
 10
4.7353562515
 20
4.2924238009
 30
0.0
 10
4.73687038
 20
4.2907048762
 30
0.0
  0
SPLINE
  5
2FD
100
AcDbEntity
  8
ALL_ASSEMBLY_MEMBERS
100
AcDbSpline
 62
7
  6
CONTINUOUS
 70
0
 71
3
 72
17
 73
13
 74
0
 42
0.0000001
 43
0.0000001
 44
0.0000000001
 40
0.0
 40
0.0
 40
0.0
 40
0.0
 40
0.2562323211
 40
0.3930439412
 40
0.4620252813
 40
0.5304974371
 40
0.597777749
 40
0.6632247843
 40
0.7263573624
 40
0.7867783756
 40
0.8989610997
 40
1.0
 40
1.0
 40
1.0
 40
1.0
 10
4.7602473122
 20
4.2915982018
 30
0.0
 10
4.7623504728
 20
4.2954171835
 30
0.0
 10
4.7648675087
 20
4.301702864
 30
0.0
 10
4.7664359224
 20
4.3094223728
 30
0.0
 10
4.7669175726
 20
4.3140677463
 30
0.0
 10
4.7670395508
 20
4.3175518798
 30
0.0
 10
4.7669218385
 20
4.3209762134
 30
0.0
 10
4.7665633557
 20
4.3242924511
 30
0.0
 10
4.7659793466
 20
4.3274582493
 30
0.0
 10
4.7649430352
 20
4.3313365753
 30
0.0
 10
4.7632097528
 20
4.3356819372
 30
0.0
 10
4.7612887168
 20
4.3387864496
 30
0.0
 10
4.7602473122
 20
4.3401543176
 30
0.0
  0
SPLINE
  5
2FE
100
AcDbEntity
  8
ALL_ASSEMBLY_MEMBERS
100
AcDbSpline
 62
7
  6
CONTINUOUS
 70
0
 71
3
 72
21
 73
17
 74
0
 42
0.0000001
 43
0.0000001
 44
0.0000000001
 40
0.0
 40
0.0
 40
0.0
 40
0.0
 40
0.0560568702
 40
0.113147785
 40
0.1713643851
 40
0.2308026746
 40
0.2915263873
 40
0.3535877924
 40
0.41685979
 40
0.4811842618
 40
0.5462933111
 40
0.6118794962
 40
0.6776350113
 40
0.7432276175
 40
0.8730269765
 40
1.0
 40
1.0
 40
1.0
 40
1.0
 10
4.7602473122
 20
4.3401543176
 30
0.0
 10
4.7595257751
 20
4.3394604355
 30
0.0
 10
4.7581323416
 20
4.3379926116
 30
0.0
 10
4.7562399649
 20
4.3355819895
 30
0.0
 10
4.7545600884
 20
4.3329459676
 30
0.0
 10
4.7531254432
 20
4.3300957311
 30
0.0
 10
4.7519670929
 20
4.327048459
 30
0.0
 10
4.7511170082
 20
4.3238302655
 30
0.0
 10
4.7505946661
 20
4.3204777042
 30
0.0
 10
4.7504224674
 20
4.3170346767
 30
0.0
 10
4.7505989125
 20
4.3135507096
 30
0.0
 10
4.751124657
 20
4.310076624
 30
0.0
 10
4.7519770444
 20
4.3066593549
 30
0.0
 10
4.7535162123
 20
4.3022513978
 30
0.0
 10
4.7561125249
 20
4.2970820138
 30
0.0
 10
4.7587969998
 20
4.2933411513
 30
0.0
 10
4.7602473122
 20
4.2915982018
 30
0.0
  0
SPLINE
  5
2FF
100
AcDbEntity
  8
ALL_ASSEMBLY_MEMBERS
100
AcDbSpline
 62
7
  6
CONTINUOUS
 70
0
 71
3
 72
19
 73
15
 74
0
 42
0.0000001
 43
0.0000001
 44
0.0000000001
 40
0.0
 40
0.0
 40
0.0
 40
0.0
 40
0.1251782099
 40
0.2567327081
 40
0.3242614323
 40
0.392440447
 40
0.4606949848
 40
0.5284383194
 40
0.595064174
 40
0.660008414
 40
0.722859174
 40
0.7832805786
 40
0.8964662837
 40
1.0
 40
1.0
 40
1.0
 40
1.0
 10
4.7839345227
 20
4.2921962793
 30
0.0
 10
4.7850568586
 20
4.2940325771
 30
0.0
 10
4.7871214712
 20
4.2979488639
 30
0.0
 10
4.7890729926
 20
4.3031892072
 30
0.0
 10
4.7902367174
 20
4.3076375494
 30
0.0
 10
4.7908841686
 20
4.3110869659
 30
0.0
 10
4.7912836208
 20
4.314577638
 30
0.0
 10
4.7914180213
 20
4.3180619975
 30
0.0
 10
4.7912880592
 20
4.3214897703
 30
0.0
 10
4.7908925353
 20
4.3248125059
 30
0.0
 10
4.7902481912
 20
4.3279876775
 30
0.0
 10
4.7891019512
 20
4.3318922128
 30
0.0
 10
4.7871776974
 20
4.3362795033
 30
0.0
 10
4.7850717403
 20
4.3393830397
 30
0.0
 10
4.7839345227
 20
4.3407523951
 30
0.0
  0
SPLINE
  5
300
100
AcDbEntity
  8
ALL_ASSEMBLY_MEMBERS
100
AcDbSpline
 62
7
  6
CONTINUOUS
 70
0
 71
3
 72
21
 73
17
 74
0
 42
0.0000001
 43
0.0000001
 44
0.0000000001
 40
0.0
 40
0.0
 40
0.0
 40
0.0
 40
0.054814234
 40
0.1109302619
 40
0.1684595129
 40
0.2275041368
 40
0.2881186851
 40
0.3503297929
 40
0.4139656791
 40
0.4788109213
 40
0.5445283542
 40
0.6107395314
 40
0.6770697484
 40
0.7431287191
 40
0.8733805037
 40
1.0
 40
1.0
 40
1.0
 40
1.0
 10
4.7839345227
 20
4.3407523951
 30
0.0
 10
4.78324915
 20
4.3400656127
 30
0.0
 10
4.7819256696
 20
4.3386106192
 30
0.0
 10
4.7801329867
 20
4.3362223172
 30
0.0
 10
4.7785419702
 20
4.3336063718
 30
0.0
 10
4.7771835315
 20
4.3307736819
 30
0.0
 10
4.776086976
 20
4.3277410917
 30
0.0
 10
4.775282453
 20
4.3245344227
 30
0.0
 10
4.7747882349
 20
4.3211897375
 30
0.0
 10
4.7746254652
 20
4.3177506495
 30
0.0
 10
4.7747926705
 20
4.314266358
 30
0.0
 10
4.7752905251
 20
4.3107875286
 30
0.0
 10
4.7760976335
 20
4.3073612393
 30
0.0
 10
4.7775534887
 20
4.3029409363
 30
0.0
 10
4.7800061497
 20
4.2977495332
 30
0.0
 10
4.7825555301
 20
4.2939631141
 30
0.0
 10
4.7839345227
 20
4.2921962793
 30
0.0
  0
SPLINE
  5
301
100
AcDbEntity
  8
ALL_FEATURES
100
AcDbSpline
 62
7
  6
CONTINUOUS
 70
0
 71
3
 72
29
 73
25
 74
0
 42
0.0000001
 43
0.0000001
 44
0.0000000001
 40
0.0
 40
0.0
 40
0.0
 40
0.0
 40
0.008274664
 40
0.0171558912
 40
0.0271320321
 40
0.0385443046
 40
0.0516153037
 40
0.0664787661
 40
0.0832050025
 40
0.1018297771
 40
0.1223673553
 40
0.1448157634
 40
0.1691495705
 40
0.1953309472
 40
0.2530574293
 40
0.3175825554
 40
0.3883575958
 40
0.4647826613
 40
0.5461555573
 40
0.631729966
 40
0.720738189
 40
0.8123944598
 40
0.9058242908
 40
1.0
 40
1.0
 40
1.0
 40
1.0
 10
5.0697593168
 20
4.5061923576
 30
0.0
 10
5.0697593168
 20
4.5069094879
 30
0.0
 10
5.069539064
 20
4.5084032951
 30
0.0
 10
5.068582665
 20
4.5105752567
 30
0.0
 10
5.0670280972
 20
4.5127077617
 30
0.0
 10
5.0648897437
 20
4.5148067995
 30
0.0
 10
5.0621716862
 20
4.5168771296
 30
0.0
 10
5.0588781073
 20
4.518918844
 30
0.0
 10
5.0550154597
 20
4.5209304372
 30
0.0
 10
5.0505912676
 20
4.5229077566
 30
0.0
 10
5.0456141148
 20
4.5248461728
 30
0.0
 10
5.0400943498
 20
4.5267401823
 30
0.0
 10
5.0340451903
 20
4.528586036
 30
0.0
 10
5.0249947759
 20
4.5310580984
 30
0.0
 10
5.0124565489
 20
4.5339576129
 30
0.0
 10
4.9960176027
 20
4.5370756263
 30
0.0
 10
4.9778851695
 20
4.5399069532
 30
0.0
 10
4.9582334526
 20
4.5424189502
 30
0.0
 10
4.9372515735
 20
4.5445896744
 30
0.0
 10
4.915141045
 20
4.5463955835
 30
0.0
 10
4.8921098088
 20
4.54781922
 30
0.0
 10
4.8683761164
 20
4.5488462902
 30
0.0
 10
4.844180444
 20
4.5494654236
 30
0.0
 10
4.8279211284
 20
4.549604402
 30
0.0
 10
4.8197593168
 20
4.549604402
 30
0.0
  0
SPLINE
  5
302
100
AcDbEntity
  8
ALL_FEATURES
100
AcDbSpline
 62
7
  6
CONTINUOUS
 70
0
 71
3
 72
29
 73
25
 74
0
 42
0.0000001
 43
0.0000001
 44
0.0000000001
 40
0.0
 40
0.0
 40
0.0
 40
0.0
 40
0.0941757092
 40
0.1876055402
 40
0.279261811
 40
0.368270034
 40
0.4538444427
 40
0.5352173387
 40
0.6116424042
 40
0.6824174446
 40
0.7469425707
 40
0.8046690528
 40
0.8308504295
 40
0.8551842366
 40
0.8776326447
 40
0.8981702229
 40
0.9167949975
 40
0.9335212339
 40
0.9483846963
 40
0.9614556954
 40
0.9728679679
 40
0.9828441088
 40
0.991725336
 40
1.0
 40
1.0
 40
1.0
 40
1.0
 10
4.8197593168
 20
4.549604402
 30
0.0
 10
4.8115975052
 20
4.549604402
 30
0.0
 10
4.7953381896
 20
4.5494654236
 30
0.0
 10
4.7711425172
 20
4.5488462902
 30
0.0
 10
4.7474088247
 20
4.54781922
 30
0.0
 10
4.7243775885
 20
4.5463955835
 30
0.0
 10
4.7022670601
 20
4.5445896744
 30
0.0
 10
4.6812851809
 20
4.5424189502
 30
0.0
 10
4.661633464
 20
4.5399069532
 30
0.0
 10
4.6435010308
 20
4.5370756263
 30
0.0
 10
4.6270620846
 20
4.5339576129
 30
0.0
 10
4.6145238576
 20
4.5310580984
 30
0.0
 10
4.6054734432
 20
4.528586036
 30
0.0
 10
4.5994242837
 20
4.5267401823
 30
0.0
 10
4.5939045187
 20
4.5248461728
 30
0.0
 10
4.588927366
 20
4.5229077566
 30
0.0
 10
4.5845031738
 20
4.5209304372
 30
0.0
 10
4.5806405262
 20
4.518918844
 30
0.0
 10
4.5773469474
 20
4.5168771296
 30
0.0
 10
4.5746288898
 20
4.5148067995
 30
0.0
 10
4.5724905363
 20
4.5127077617
 30
0.0
 10
4.5709359685
 20
4.5105752567
 30
0.0
 10
4.5699795696
 20
4.5084032951
 30
0.0
 10
4.5697593168
 20
4.5069094879
 30
0.0
 10
4.5697593168
 20
4.5061923576
 30
0.0
  0
ENDSEC
  0
SECTION
  2
OBJECTS
  0
DICTIONARY
  5
C
100
AcDbDictionary
280
0
281
1
  3
ACAD_GROUP
350
D
  3
ACAD_MLINESTYLE
350
17
  3
ACAD_LAYOUT
350
1A
  3
ACAD_PLOTSETTINGS
350
19
  3
ACAD_PLOTSTYLENAME
350
E
  0
DICTIONARY
  5
D
102
{ACAD_REACTORS
330
C
102
}
100
AcDbDictionary
280
0
281
1
  0
ACDBDICTIONARYWDFLT
  5
E
102
{ACAD_REACTORS
330
C
102
}
100
AcDbDictionary
281
1
  3
Normal
350
F
100
AcDbDictionaryWithDefault
340
F
  0
DICTIONARY
  5
17
102
{ACAD_REACTORS
330
C
102
}
100
AcDbDictionary
280
0
281
1
  3
Standard
350
18
  0
DICTIONARY
  5
19
102
{ACAD_REACTORS
330
C
102
}
100
AcDbDictionary
281
1
  0
DICTIONARY
  5
1A
102
{ACAD_REACTORS
330
C
102
}
100
AcDbDictionary
281
1
  3
Model
350
303
  3
Layout1
350
304
  0
ACDBPLACEHOLDER
  5
F
102
{ACAD_REACTORS
330
E
102
}
  0
MLINESTYLE
  5
18
102
{ACAD_REACTORS
330
17
102
}
100
AcDbMlineStyle
  2
STANDARD
 70
0
  3

 62
256
 51
90.0
 52
90.0
 71
2
 49
0.5
 62
256
  6
BYLAYER
 49
-0.5
 62
256
  6
BYLAYER
  0
LAYOUT
  5
303
102
{ACAD_REACTORS
330
1A
102
}
100
AcDbPlotSettings
  1

  2
none_device
  4
ANSI_A_(11.00_x_8.50_Inches)
  6

 40
0.0
 41
0.0
 42
0.0
 43
0.0
 44
279.4
 45
215.9
 46
0.0
 47
0.0
 48
0.0
 49
0.0
140
0.0
141
0.0
142
1.0
143
1.0
 70
1024
 72
0
 73
0
 74
0
  7

 75
0
147
1.0
148
0.0
149
0.0
100
AcDbLayout
  1
Model
 70
0
 71
0
 10
0.0
 20
0.0
 11
11.0
 21
8.5
 12
0.0
 22
0.0
 32
0.0
 14
0.0
 24
0.0
 34
0.0
 15
0.0
 25
0.0
 35
0.0
146
0.0
 13
0.0
 23
0.0
 33
0.0
 16
1.0
 26
0.0
 36
0.0
 17
0.0
 27
1.0
 37
0.0
 76
0
330
211
345
0
346
0
  0
LAYOUT
  5
304
102
{ACAD_REACTORS
330
1A
102
}
100
AcDbPlotSettings
  1

  2
none_device
  4
ANSI_A_(11.00_x_8.50_Inches)
  6

 40
0.0
 41
0.0
 42
0.0
 43
0.0
 44
279.4
 45
215.9
 46
0.0
 47
0.0
 48
0.0
 49
0.0
140
0.0
141
0.0
142
1.0
143
1.0
 70
0
 72
0
 73
0
 74
0
  7

 75
0
147
1.0
148
0.0
149
0.0
100
AcDbLayout
  1
Layout1
 70
0
 71
1
 10
0.0
 20
0.0
 11
11.0
 21
8.5
 12
0.0
 22
0.0
 32
0.0
 14
0.0
 24
0.0
 34
0.0
 15
0.0
 25
0.0
 35
0.0
146
0.0
 13
0.0
 23
0.0
 33
0.0
 16
1.0
 26
0.0
 36
0.0
 17
0.0
 27
1.0
 37
0.0
 76
0
330
212
345
0
346
0
  0
ENDSEC
  0
EOF
