999
DXF file: 3-667_right.dxf
999
Pro/ENGINEER 2018400 by Parametric Technology Corporation
  0
SECTION
  2
HEADER
  9
$ACADVER
  1
AC1027
  9
$DWGCODEPAGE
  3
ANSI_1252
  9
$EXTMAX
 10
11.0
 20
8.5
 30
0.0
  9
$EXTMIN
 10
0.0
 20
0.0
 30
0.0
  9
$LIMMIN
 10
0.0
 20
0.0
  9
$LIMMAX
 10
11.0
 20
8.5
  9
$VIEWCTR
 10
5.5
 20
4.25
  9
$VIEWSIZE
 40
8.5
  9
$CLAYER
  8
0
  9
$LTSCALE
 40
0.605
  9
$CELTYPE
  6
BYLAYER
  9
$DIMSCALE
 40
1.0
  9
$DIMASZ
 40
0.1
  9
$DIMEXO
 40
0.0625
  9
$DIMDLI
 40
0.418
  9
$DIMEXE
 40
0.125
  9
$DIMCEN
 40
0.099
  9
$DIMLFAC
 40
1.0
  9
$DIMBLK
  1
_FILLED
  9
$DIMALT
 70
1
  9
$DIMALTD
 70
2
  9
$DIMALTTD
 70
2
  9
$DIMALTF
 40
25.4
  9
$DIMTXT
 40
0.08
  9
$DIMTOL
 70
1
  9
$DIMLIM
 70
0
  9
$DIMTFAC
 40
1.0
  9
$DIMTP
 40
0.001
  9
$DIMTM
 40
0.001
  9
$DIMGAP
 40
0.09
  9
$DIMDSEP
 70
46
  9
$AUNITS
 70
0
  9
$PDMODE
 70
3
  9
$PDSIZE
 40
0.3125
  9
$HANDSEED
  5
2D3
  9
$TILEMODE
 70
1
  9
$MEASUREMENT
 70
0
  9
$INSUNITS
 70
1
  0
ENDSEC
  0
SECTION
  2
CLASSES
  0
CLASS
  1
ACDBDICTIONARYWDFLT
  2
AcDbDictionaryWithDefault
  3
AutoCAD 2000
 90
0
 91
1
280
0
281
0
  0
CLASS
  1
ACDBPLACEHOLDER
  2
AcDbPlaceHolder
  3
AutoCAD 2000
 90
0
 91
1
280
0
281
0
  0
CLASS
  1
LAYOUT
  2
AcDbLayout
  3
AutoCAD 2000
 90
0
 91
0
280
0
281
0
  0
ENDSEC
  0
SECTION
  2
TABLES
  0
TABLE
  2
VPORT
  5
8
100
AcDbSymbolTable
 70
2
  0
VPORT
  5
1F4
100
AcDbSymbolTableRecord
100
AcDbViewportTableRecord
  2
*ACTIVE
 70
0
 10
0.0
 20
0.0
 11
1.0
 21
1.0
 12
5.5
 22
4.25
 13
0.0
 23
0.0
 14
1.0
 24
1.0
 15
0.0
 25
0.0
 16
0.0
 26
0.0
 36
1.0
 17
0.0
 27
0.0
 37
0.0
 40
8.5
 41
1.2941176471
 42
50.0
 43
0.0
 44
0.0
 50
0.0
 51
0.0
 71
0
 72
100
 73
1
 74
1
 75
0
 76
0
 77
0
 78
0
  0
ENDTAB
  0
TABLE
  2
LTYPE
  5
5
100
AcDbSymbolTable
 70
6
  0
LTYPE
  5
14
100
AcDbSymbolTableRecord
100
AcDbLinetypeTableRecord
  2
BYBLOCK
 70
0
  3

 72
65
 73
0
 40
0.0
  0
LTYPE
  5
15
100
AcDbSymbolTableRecord
100
AcDbLinetypeTableRecord
  2
BYLAYER
 70
0
  3

 72
65
 73
0
 40
0.0
  0
LTYPE
  5
16
100
AcDbSymbolTableRecord
100
AcDbLinetypeTableRecord
  2
CONTINUOUS
 70
64
  3
Solid line
 72
65
 73
0
 40
0.0
  0
LTYPE
  5
1F5
100
AcDbSymbolTableRecord
100
AcDbLinetypeTableRecord
  2
CENTER
 70
64
  3
____ _ ____ _ ____ _ ____ _ ____ _ ____ _ ____
 72
65
 73
4
 40
0.6
 49
0.375
 74
0
 49
-0.075
 74
0
 49
0.075
 74
0
 49
-0.075
 74
0
  0
LTYPE
  5
1F6
100
AcDbSymbolTableRecord
100
AcDbLinetypeTableRecord
  2
HIDDEN
 70
64
  3
- - - - - - - - - - - - - - - - - - - -
 72
65
 73
2
 40
0.2
 49
0.1
 74
0
 49
-0.1
 74
0
  0
LTYPE
  5
1F7
100
AcDbSymbolTableRecord
100
AcDbLinetypeTableRecord
  2
PHANTOM
 70
64
  3
_____ _ _ _____ _ _ _____ _ _ _____
 72
65
 73
6
 40
0.8
 49
0.45
 74
0
 49
-0.05
 74
0
 49
0.1
 74
0
 49
-0.05
 74
0
 49
0.1
 74
0
 49
-0.05
 74
0
  0
LTYPE
  5
1F8
100
AcDbSymbolTableRecord
100
AcDbLinetypeTableRecord
  2
DOT
 70
64
  3
. . . . . . . . . . . . . . . . . . . .
 72
65
 73
2
 40
0.2
 49
0.1
 74
0
 49
-0.1
 74
0
  0
LTYPE
  5
1F9
100
AcDbSymbolTableRecord
100
AcDbLinetypeTableRecord
  2
DASHED
 70
64
  3
- - - - - - - - - - - - - - - - - - - -
 72
65
 73
2
 40
0.2
 49
0.1
 74
0
 49
-0.1
 74
0
  0
ENDTAB
  0
TABLE
  2
LAYER
  5
2
100
AcDbSymbolTable
 70
36
  0
LAYER
  5
10
100
AcDbSymbolTableRecord
100
AcDbLayerTableRecord
  2
0
 70
0
 62
7
  6
CONTINUOUS
370
-3
390
F
  0
LAYER
  5
1FA
100
AcDbSymbolTableRecord
100
AcDbLayerTableRecord
  2
DEFAULT_1
 70
0
 62
7
  6
CENTER
370
-3
390
F
  0
LAYER
  5
1FB
100
AcDbSymbolTableRecord
100
AcDbLayerTableRecord
  2
DEFAULT_2
 70
0
 62
8
  6
HIDDEN
370
-3
390
F
  0
LAYER
  5
1FC
100
AcDbSymbolTableRecord
100
AcDbLayerTableRecord
  2
DEFAULT_3
 70
0
 62
7
  6
PHANTOM
370
-3
390
F
  0
LAYER
  5
1FD
100
AcDbSymbolTableRecord
100
AcDbLayerTableRecord
  2
ALL_ASSEMBLY_MEMBERS
 70
0
 62
7
  6
CONTINUOUS
370
-3
390
F
  0
LAYER
  5
1FE
100
AcDbSymbolTableRecord
100
AcDbLayerTableRecord
  2
ALL_FEATURES
 70
0
 62
7
  6
CONTINUOUS
370
-3
390
F
  0
LAYER
  5
1FF
100
AcDbSymbolTableRecord
100
AcDbLayerTableRecord
  2
AXES_FEATURES
 70
0
 62
7
  6
CONTINUOUS
370
-3
390
F
  0
LAYER
  5
200
100
AcDbSymbolTableRecord
100
AcDbLayerTableRecord
  2
CHAMFER_FEATURES
 70
0
 62
7
  6
CONTINUOUS
370
-3
390
F
  0
LAYER
  5
201
100
AcDbSymbolTableRecord
100
AcDbLayerTableRecord
  2
CUT_FEATURES
 70
0
 62
7
  6
CONTINUOUS
370
-3
390
F
  0
LAYER
  5
202
100
AcDbSymbolTableRecord
100
AcDbLayerTableRecord
  2
DATUM_CURVES
 70
0
 62
7
  6
CONTINUOUS
370
-3
390
F
  0
LAYER
  5
203
100
AcDbSymbolTableRecord
100
AcDbLayerTableRecord
  2
DATUM_PLANES
 70
0
 62
7
  6
CONTINUOUS
370
-3
390
F
  0
LAYER
  5
204
100
AcDbSymbolTableRecord
100
AcDbLayerTableRecord
  2
DATUM_POINTS
 70
0
 62
7
  6
CONTINUOUS
370
-3
390
F
  0
LAYER
  5
205
100
AcDbSymbolTableRecord
100
AcDbLayerTableRecord
  2
DEFAULT_COORDINATE_SYSTEM
 70
0
 62
7
  6
CONTINUOUS
370
-3
390
F
  0
LAYER
  5
206
100
AcDbSymbolTableRecord
100
AcDbLayerTableRecord
  2
DEFAULT_DATUM_AXES
 70
0
 62
7
  6
CONTINUOUS
370
-3
390
F
  0
LAYER
  5
207
100
AcDbSymbolTableRecord
100
AcDbLayerTableRecord
  2
DEFAULT_DATUM_PLANES
 70
0
 62
7
  6
CONTINUOUS
370
-3
390
F
  0
LAYER
  5
208
100
AcDbSymbolTableRecord
100
AcDbLayerTableRecord
  2
DIMENSIONS
 70
0
 62
7
  6
CONTINUOUS
370
-3
390
F
  0
LAYER
  5
209
100
AcDbSymbolTableRecord
100
AcDbLayerTableRecord
  2
HOLE_FEATURES
 70
0
 62
7
  6
CONTINUOUS
370
-3
390
F
  0
LAYER
  5
20A
100
AcDbSymbolTableRecord
100
AcDbLayerTableRecord
  2
PART_REFERENCE_DIMENSIONS
 70
0
 62
7
  6
CONTINUOUS
370
-3
390
F
  0
LAYER
  5
20B
100
AcDbSymbolTableRecord
100
AcDbLayerTableRecord
  2
POINTS
 70
0
 62
7
  6
CONTINUOUS
370
-3
390
F
  0
LAYER
  5
20C
100
AcDbSymbolTableRecord
100
AcDbLayerTableRecord
  2
PROTRUSION_FEATURES
 70
0
 62
7
  6
CONTINUOUS
370
-3
390
F
  0
LAYER
  5
20D
100
AcDbSymbolTableRecord
100
AcDbLayerTableRecord
  2
REFERENCE_DIMENSIONS
 70
0
 62
7
  6
CONTINUOUS
370
-3
390
F
  0
LAYER
  5
20E
100
AcDbSymbolTableRecord
100
AcDbLayerTableRecord
  2
ROUND_FEATURES
 70
0
 62
7
  6
CONTINUOUS
370
-3
390
F
  0
ENDTAB
  0
TABLE
  2
STYLE
  5
3
100
AcDbSymbolTable
 70
1
  0
STYLE
  5
11
100
AcDbSymbolTableRecord
100
AcDbTextStyleTableRecord
  2
STANDARD
 70
0
 40
0.0
 41
0.8
 50
0.0
 71
0
 42
0.2
  3
txt
  4

  0
STYLE
  5
20F
100
AcDbSymbolTableRecord
100
AcDbTextStyleTableRecord
  2
TEXTSTYLE_1
 70
0
 40
0.0
 41
0.8
 50
0.0
 71
0
 42
0.2
  3
gdt
  4

  0
ENDTAB
  0
TABLE
  2
VIEW
  5
6
100
AcDbSymbolTable
 70
0
  0
ENDTAB
  0
TABLE
  2
UCS
  5
7
100
AcDbSymbolTable
 70
0
  0
ENDTAB
  0
TABLE
  2
APPID
  5
9
100
AcDbSymbolTable
 70
1
  0
APPID
  5
210
100
AcDbSymbolTableRecord
100
AcDbRegAppTableRecord
  2
ACAD
 70
0
  0
ENDTAB
  0
TABLE
  2
BLOCK_RECORD
  5
1
100
AcDbSymbolTable
 70
0
  0
BLOCK_RECORD
  5
211
100
AcDbSymbolTableRecord
100
AcDbBlockTableRecord
  2
*Model_Space
  0
BLOCK_RECORD
  5
212
100
AcDbSymbolTableRecord
100
AcDbBlockTableRecord
  2
*Paper_Space
  0
BLOCK_RECORD
  5
213
100
AcDbSymbolTableRecord
100
AcDbBlockTableRecord
  2
_FILLED
  0
ENDTAB
  0
TABLE
  2
DIMSTYLE
  5
A
100
AcDbSymbolTable
 70
1
100
AcDbDimStyleTable
 71
0
  0
DIMSTYLE
105
214
100
AcDbSymbolTableRecord
100
AcDbDimStyleTableRecord
  2
STANDARD
 70
0
  3

  4

 40
1.0
 41
0.1
 42
0.0625
 43
0.38
 44
0.125
 45
0.0
 46
0.0
 47
0.001
 48
0.001
140
0.08
141
0.09
142
0.0
143
25.4
144
1.0
145
0.0
146
1.0
147
0.09
 71
1.0
 72
0.0
 73
1
 74
1
 75
0
 76
0
 77
0
 78
4
 79
1
170
1
171
2
172
0
173
0
174
0
175
0
176
0
177
0
178
0
270
2
179
3
271
3
272
3
273
2
274
2
275
0
280
0
281
0
282
0
283
1
284
4
285
0
286
0
287
3
288
0
340
11
278
46
341
213
342
213
343
213
344
213
  0
ENDTAB
  0
ENDSEC
  0
SECTION
  2
BLOCKS
  0
BLOCK
  5
20
100
AcDbEntity
  8
0
100
AcDbBlockBegin
  2
*Model_Space
 70
0
 10
0.0
 20
0.0
 30
0.0
  3
*Model_Space
  1

  0
ENDBLK
  5
21
100
AcDbEntity
  8
0
100
AcDbBlockEnd
  0
BLOCK
  5
1C
100
AcDbEntity
  8
0
100
AcDbBlockBegin
  2
*Paper_Space
 70
0
 10
0.0
 20
0.0
 30
0.0
  3
*Paper_Space
  1

  0
ENDBLK
  5
1D
100
AcDbEntity
  8
0
100
AcDbBlockEnd
  0
BLOCK
  5
215
100
AcDbEntity
  8
0
100
AcDbBlockBegin
  2
_FILLED
 70
64
 10
0.0
 20
0.0
  3
_FILLED
  1

  0
SOLID
  5
216
100
AcDbEntity
  8
0
  6
BYBLOCK
 62
0
100
AcDbTrace
 10
0.0
 20
0.0
 11
-1.0
 21
0.2
 12
-1.0
 22
-0.2
 13
-1.0
 23
-0.2
  0
ENDBLK
  5
217
100
AcDbEntity
  8
0
  6
BYBLOCK
 62
0
100
AcDbBlockEnd
  0
ENDSEC
  0
SECTION
  2
ENTITIES
  0
MTEXT
  5
218
100
AcDbEntity
  8
0
100
AcDbMText
 62
2
  6
CONTINUOUS
  7
STANDARD
 71
3
 72
1
 10
6.2121456257
 20
2.4556897384
 30
0.0
 11
1.0
 21
0.0
 31
0.0
 73
2
 44
0.9
  1
SCALE  .500
 40
0.08
 41
0.704
  0
LINE
  5
219
100
AcDbEntity
  8
0
100
AcDbLine
 62
7
  6
CONTINUOUS
 10
0.0
 20
0.0
 11
0.0
 21
8.5
  0
LINE
  5
21A
100
AcDbEntity
  8
0
100
AcDbLine
 62
7
  6
CONTINUOUS
 10
0.0
 20
0.0
 11
11.0
 21
0.0
  0
LINE
  5
21B
100
AcDbEntity
  8
0
100
AcDbLine
 62
7
  6
CONTINUOUS
 10
0.0
 20
8.5
 11
11.0
 21
8.5
  0
LINE
  5
21C
100
AcDbEntity
  8
0
100
AcDbLine
 62
7
  6
CONTINUOUS
 10
11.0
 20
0.0
 11
11.0
 21
8.5
  0
LINE
  5
21D
100
AcDbEntity
  8
ALL_ASSEMBLY_MEMBERS
100
AcDbLine
 62
7
  6
CONTINUOUS
 10
2.4562810428
 20
3.9740448945
 11
2.5088096165
 21
4.2719492398
  0
LINE
  5
21E
100
AcDbEntity
  8
0
100
AcDbLine
 62
7
  6
CONTINUOUS
 10
2.6085390435
 20
4.549604402
 11
2.5888725557
 21
4.438070207
  0
LINE
  5
21F
100
AcDbEntity
  8
ALL_ASSEMBLY_MEMBERS
100
AcDbLine
 62
7
  6
CONTINUOUS
 10
2.5953013736
 20
4.3223483658
 11
2.5867396204
 21
4.27379225
  0
LINE
  5
220
100
AcDbEntity
  8
ALL_ASSEMBLY_MEMBERS
100
AcDbLine
 62
7
  6
CONTINUOUS
 10
2.6132685744
 20
4.3191802635
 11
2.6047068211
 21
4.2706241477
  0
LINE
  5
221
100
AcDbEntity
  8
ALL_ASSEMBLY_MEMBERS
100
AcDbLine
 62
7
  6
CONTINUOUS
 10
2.6322900405
 20
4.3158262659
 11
2.6237282872
 21
4.2672701501
  0
LINE
  5
222
100
AcDbEntity
  8
ALL_ASSEMBLY_MEMBERS
100
AcDbLine
 62
7
  6
CONTINUOUS
 10
2.6522665995
 20
4.3123038595
 11
2.6437048462
 21
4.2637477437
  0
LINE
  5
223
100
AcDbEntity
  8
ALL_ASSEMBLY_MEMBERS
100
AcDbLine
 62
7
  6
CONTINUOUS
 10
2.6730940994
 20
4.3086314093
 11
2.6645323461
 21
4.2600752936
  0
LINE
  5
224
100
AcDbEntity
  8
ALL_ASSEMBLY_MEMBERS
100
AcDbLine
 62
7
  6
CONTINUOUS
 10
2.6946639517
 20
4.3048280624
 11
2.6861021984
 21
4.2562719466
  0
LINE
  5
225
100
AcDbEntity
  8
ALL_ASSEMBLY_MEMBERS
100
AcDbLine
 62
7
  6
CONTINUOUS
 10
2.7168636973
 20
4.3009136483
 11
2.708301944
 21
4.2523575325
  0
LINE
  5
226
100
AcDbEntity
  8
ALL_ASSEMBLY_MEMBERS
100
AcDbLine
 62
7
  6
CONTINUOUS
 10
2.7395775933
 20
4.2969085756
 11
2.73101584
 21
4.2483524598
  0
LINE
  5
227
100
AcDbEntity
  8
ALL_ASSEMBLY_MEMBERS
100
AcDbLine
 62
7
  6
CONTINUOUS
 10
2.7626872159
 20
4.2928337256
 11
2.7541254626
 21
4.2442776098
  0
LINE
  5
228
100
AcDbEntity
  8
ALL_ASSEMBLY_MEMBERS
100
AcDbLine
 62
7
  6
CONTINUOUS
 10
2.7860720783
 20
4.2887103434
 11
2.777510325
 21
4.2401542276
  0
LINE
  5
229
100
AcDbEntity
  8
ALL_ASSEMBLY_MEMBERS
100
AcDbLine
 62
7
  6
CONTINUOUS
 10
2.8096102585
 20
4.2845599272
 11
2.8010485053
 21
4.2360038114
  0
LINE
  5
22A
100
AcDbEntity
  8
ALL_ASSEMBLY_MEMBERS
100
AcDbLine
 62
7
  6
CONTINUOUS
 10
2.8331790354
 20
4.2804041159
 11
2.8246172821
 21
4.2318480001
  0
LINE
  5
22B
100
AcDbEntity
  8
ALL_ASSEMBLY_MEMBERS
100
AcDbLine
 62
7
  6
CONTINUOUS
 10
2.8566555281
 20
4.2762645769
 11
2.8480937748
 21
4.2277084611
  0
LINE
  5
22C
100
AcDbEntity
  8
ALL_ASSEMBLY_MEMBERS
100
AcDbLine
 62
7
  6
CONTINUOUS
 10
2.8799173369
 20
4.2721628923
 11
2.8713555836
 21
4.2236067765
  0
LINE
  5
22D
100
AcDbEntity
  8
ALL_ASSEMBLY_MEMBERS
100
AcDbLine
 62
7
  6
CONTINUOUS
 10
2.9028431816
 20
4.2681204474
 11
2.8942814283
 21
4.2195643316
  0
LINE
  5
22E
100
AcDbEntity
  8
ALL_ASSEMBLY_MEMBERS
100
AcDbLine
 62
7
  6
CONTINUOUS
 10
2.9253135333
 20
4.2641583181
 11
2.91675178
 21
4.2156022023
  0
LINE
  5
22F
100
AcDbEntity
  8
ALL_ASSEMBLY_MEMBERS
100
AcDbLine
 62
7
  6
CONTINUOUS
 10
2.9472112383
 20
4.2602971619
 11
2.938649485
 21
4.2117410461
  0
LINE
  5
230
100
AcDbEntity
  8
ALL_ASSEMBLY_MEMBERS
100
AcDbLine
 62
7
  6
CONTINUOUS
 10
2.9684221282
 20
4.2565571097
 11
2.9598603749
 21
4.2080009939
  0
LINE
  5
231
100
AcDbEntity
  8
ALL_ASSEMBLY_MEMBERS
100
AcDbLine
 62
7
  6
CONTINUOUS
 10
2.9888356155
 20
4.2529576611
 11
2.9802738622
 21
4.2044015453
  0
LINE
  5
232
100
AcDbEntity
  8
ALL_ASSEMBLY_MEMBERS
100
AcDbLine
 62
7
  6
CONTINUOUS
 10
3.0083452703
 20
4.2495175826
 11
2.999783517
 21
4.2009614668
  0
LINE
  5
233
100
AcDbEntity
  8
ALL_ASSEMBLY_MEMBERS
100
AcDbLine
 62
7
  6
CONTINUOUS
 10
3.0268493748
 20
4.2462548097
 11
3.0182876215
 21
4.1976986939
  0
LINE
  5
234
100
AcDbEntity
  8
ALL_ASSEMBLY_MEMBERS
100
AcDbLine
 62
7
  6
CONTINUOUS
 10
3.044251454
 20
4.2431863536
 11
3.0356897007
 21
4.1946302378
  0
LINE
  5
235
100
AcDbEntity
  8
0
100
AcDbLine
 62
7
  6
CONTINUOUS
 10
3.10094292
 20
4.4627803132
 11
3.0812764322
 21
4.3512461182
  0
LINE
  5
236
100
AcDbEntity
  8
ALL_ASSEMBLY_MEMBERS
100
AcDbLine
 62
7
  6
CONTINUOUS
 10
3.0471656946
 20
3.8698559879
 11
3.0996942683
 21
4.1677603332
  0
LINE
  5
237
100
AcDbEntity
  8
ALL_FEATURES
100
AcDbLine
 62
7
  6
CONTINUOUS
 10
3.5933467965
 20
4.8759562244
 11
3.5933467965
 21
5.3759562244
  0
LINE
  5
238
100
AcDbEntity
  8
ALL_ASSEMBLY_MEMBERS
100
AcDbLine
 62
7
  6
CONTINUOUS
 10
2.4725042343
 20
3.9508757759
 11
3.0239965759
 21
3.8536327964
  0
LINE
  5
239
100
AcDbEntity
  8
ALL_ASSEMBLY_MEMBERS
100
AcDbLine
 62
7
  6
CONTINUOUS
 10
2.4562810428
 20
3.9740448945
 11
3.0471656946
 21
3.8698559879
  0
LINE
  5
23A
100
AcDbEntity
  8
ALL_ASSEMBLY_MEMBERS
100
AcDbLine
 62
7
  6
CONTINUOUS
 10
3.0996942683
 20
4.1677603332
 11
2.5088096165
 21
4.2719492398
  0
LINE
  5
23B
100
AcDbEntity
  8
ALL_ASSEMBLY_MEMBERS
100
AcDbLine
 62
7
  6
CONTINUOUS
 10
3.1135861225
 20
4.2465449534
 11
2.5227014707
 21
4.35073386
  0
LINE
  5
23C
100
AcDbEntity
  8
ALL_ASSEMBLY_MEMBERS
100
AcDbLine
 62
7
  6
CONTINUOUS
 10
2.5549875859
 20
4.4244599978
 11
3.1084629225
 21
4.3268673628
  0
LINE
  5
23D
100
AcDbEntity
  8
ALL_ASSEMBLY_MEMBERS
100
AcDbLine
 62
7
  6
CONTINUOUS
 10
2.5780204782
 20
4.4399837211
 11
3.0921285097
 21
4.3493326042
  0
LINE
  5
23E
100
AcDbEntity
  8
ALL_FEATURES
100
AcDbLine
 62
7
  6
CONTINUOUS
 10
3.10094292
 20
4.4627803132
 11
2.6085390435
 21
4.549604402
  0
LINE
  5
23F
100
AcDbEntity
  8
0
100
AcDbLine
 62
7
  6
CONTINUOUS
 10
6.0133467965
 20
4.8759562244
 11
3.5933467965
 21
4.8759562244
  0
LINE
  5
240
100
AcDbEntity
  8
ALL_FEATURES
100
AcDbLine
 62
7
  6
CONTINUOUS
 10
7.1833467965
 20
4.4409562244
 11
7.115416208
 21
4.45458561
  0
LINE
  5
241
100
AcDbEntity
  8
ALL_FEATURES
100
AcDbLine
 62
7
  6
CONTINUOUS
 10
7.1833467965
 20
5.8109562244
 11
7.115416208
 21
5.7973268388
  0
LINE
  5
242
100
AcDbEntity
  8
0
100
AcDbLine
 62
7
  6
CONTINUOUS
 10
6.0133467965
 20
5.3759562244
 11
3.5933467965
 21
5.3759562244
  0
LINE
  5
243
100
AcDbEntity
  8
ALL_FEATURES
100
AcDbLine
 62
7
  6
CONTINUOUS
 10
6.0133467965
 20
4.8641112061
 11
6.0133467965
 21
5.3878012426
  0
LINE
  5
244
100
AcDbEntity
  8
ALL_FEATURES
100
AcDbLine
 62
7
  6
CONTINUOUS
 10
6.0390145367
 20
4.8391201253
 11
6.0390145367
 21
5.4127923235
  0
LINE
  5
245
100
AcDbEntity
  8
ALL_FEATURES
100
AcDbLine
 62
7
  6
CONTINUOUS
 10
6.1283467965
 20
4.8084562244
 11
6.1283467965
 21
5.4434562244
  0
LINE
  5
246
100
AcDbEntity
  8
ALL_FEATURES
100
AcDbLine
 62
7
  6
CONTINUOUS
 10
6.2083467965
 20
4.8084562244
 11
6.2083467965
 21
5.4434562244
  0
LINE
  5
247
100
AcDbEntity
  8
ALL_FEATURES
100
AcDbLine
 62
7
  6
CONTINUOUS
 10
6.5499400267
 20
4.7267612728
 11
6.5499400267
 21
5.5251511759
  0
LINE
  5
248
100
AcDbEntity
  8
ALL_FEATURES
100
AcDbLine
 62
7
  6
CONTINUOUS
 10
6.7633467965
 20
5.6084562244
 11
6.7633467965
 21
4.6434562244
  0
LINE
  5
249
100
AcDbEntity
  8
ALL_FEATURES
100
AcDbLine
 62
7
  6
CONTINUOUS
 10
6.8906674598
 20
5.648635094
 11
6.8906674598
 21
4.6032773547
  0
LINE
  5
24A
100
AcDbEntity
  8
ALL_FEATURES
100
AcDbLine
 62
7
  6
CONTINUOUS
 10
6.9080950353
 20
5.6505483735
 11
6.9080950353
 21
4.6013640752
  0
LINE
  5
24B
100
AcDbEntity
  8
ALL_FEATURES
100
AcDbLine
 62
7
  6
CONTINUOUS
 10
6.982576604
 20
5.7150539312
 11
6.982576604
 21
4.5368585175
  0
LINE
  5
24C
100
AcDbEntity
  8
ALL_FEATURES
100
AcDbLine
 62
7
  6
CONTINUOUS
 10
7.0984626584
 20
4.4645662844
 11
7.0984626584
 21
5.7873461643
  0
LINE
  5
24D
100
AcDbEntity
  8
ALL_FEATURES
100
AcDbLine
 62
7
  6
CONTINUOUS
 10
7.115416208
 20
4.45458561
 11
7.115416208
 21
5.7973268388
  0
LINE
  5
24E
100
AcDbEntity
  8
ALL_FEATURES
100
AcDbLine
 62
7
  6
CONTINUOUS
 10
7.1833467965
 20
5.8109562244
 11
7.1833467965
 21
4.4409562244
  0
ARC
  5
24F
100
AcDbEntity
  8
ALL_FEATURES
100
AcDbCircle
 62
7
  6
CONTINUOUS
 10
3.5933467965
 20
4.3759562244
 40
1.0
100
AcDbArc
 50
90.0
 51
170.0
  0
ARC
  5
250
100
AcDbEntity
  8
ALL_FEATURES
100
AcDbCircle
 62
7
  6
CONTINUOUS
 10
3.5933467965
 20
4.3759562244
 40
0.5
100
AcDbArc
 50
90.0
 51
170.0
  0
ARC
  5
251
100
AcDbEntity
  8
ALL_ASSEMBLY_MEMBERS
100
AcDbCircle
 62
7
  6
CONTINUOUS
 10
3.3065366869
 20
4.2991765001
 40
0.2
100
AcDbArc
 50
172.0415861051
 51
195.2575137211
  0
ARC
  5
252
100
AcDbEntity
  8
ALL_ASSEMBLY_MEMBERS
100
AcDbCircle
 62
7
  6
CONTINUOUS
 10
2.3593882984
 20
4.4661843158
 40
0.2
100
AcDbArc
 50
324.7424862789
 51
347.9584138949
  0
ARC
  5
253
100
AcDbEntity
  8
ALL_ASSEMBLY_MEMBERS
100
AcDbCircle
 62
7
  6
CONTINUOUS
 10
3.1066401954
 20
4.2071526433
 40
0.04
100
AcDbArc
 50
28.0475074536
 51
80.0
  0
ARC
  5
254
100
AcDbEntity
  8
ALL_ASSEMBLY_MEMBERS
100
AcDbCircle
 62
7
  6
CONTINUOUS
 10
2.5157555436
 20
4.3113415499
 40
0.04
100
AcDbArc
 50
204.2857142857
 51
260.0
  0
ARC
  5
255
100
AcDbEntity
  8
ALL_ASSEMBLY_MEMBERS
100
AcDbCircle
 62
7
  6
CONTINUOUS
 10
2.5157555436
 20
4.3113415499
 40
0.04
100
AcDbArc
 50
80.0
 51
135.7142857143
  0
ARC
  5
256
100
AcDbEntity
  8
ALL_ASSEMBLY_MEMBERS
100
AcDbCircle
 62
7
  6
CONTINUOUS
 10
3.1066401954
 20
4.2071526433
 40
0.04
100
AcDbArc
 50
260.0
 51
311.9524925464
  0
ARC
  5
257
100
AcDbEntity
  8
ALL_ASSEMBLY_MEMBERS
100
AcDbCircle
 62
7
  6
CONTINUOUS
 10
3.1072979335
 20
4.2063950459
 40
0.0389968719
100
AcDbArc
 50
311.9779180025
 51
323.7641638692
  0
ARC
  5
258
100
AcDbEntity
  8
ALL_ASSEMBLY_MEMBERS
100
AcDbCircle
 62
7
  6
CONTINUOUS
 10
3.1075173841
 20
4.2076395938
 40
0.0389968681
100
AcDbArc
 50
16.235898176
 51
28.0220824828
  0
ARC
  5
259
100
AcDbEntity
  8
ALL_ASSEMBLY_MEMBERS
100
AcDbCircle
 62
7
  6
CONTINUOUS
 10
2.7993950198
 20
4.2613282574
 40
0.0387995122
100
AcDbArc
 50
310.5491226321
 51
29.4508773679
  0
ARC
  5
25A
100
AcDbEntity
  8
ALL_ASSEMBLY_MEMBERS
100
AcDbCircle
 62
7
  6
CONTINUOUS
 10
2.4759771978
 20
3.9705719309
 40
0.02
100
AcDbArc
 50
170.0
 51
260.0
  0
ARC
  5
25B
100
AcDbEntity
  8
ALL_ASSEMBLY_MEMBERS
100
AcDbCircle
 62
7
  6
CONTINUOUS
 10
3.0274695395
 20
3.8733289514
 40
0.02
100
AcDbArc
 50
260.0
 51
350.0
  0
ARC
  5
25C
100
AcDbEntity
  8
ALL_ASSEMBLY_MEMBERS
100
AcDbCircle
 62
7
  6
CONTINUOUS
 10
2.5745475147
 20
4.420287566
 40
0.02
100
AcDbArc
 50
80.0
 51
167.9584138949
  0
ARC
  5
25D
100
AcDbEntity
  8
ALL_ASSEMBLY_MEMBERS
100
AcDbCircle
 62
7
  6
CONTINUOUS
 10
3.0886555461
 20
4.3296364491
 40
0.02
100
AcDbArc
 50
352.0415861051
 51
80.0
  0
ARC
  5
25E
100
AcDbEntity
  8
ALL_ASSEMBLY_MEMBERS
100
AcDbCircle
 62
7
  6
CONTINUOUS
 10
5.8604242552
 20
3.7215862145
 40
2.8640709415
100
AcDbArc
 50
169.5068183859
 51
170.4931816141
  0
ARC
  5
25F
100
AcDbEntity
  8
ALL_FEATURES
100
AcDbCircle
 62
7
  6
CONTINUOUS
 10
6.3060465755
 20
4.4619670424
 40
0.36
100
AcDbArc
 50
47.3528252621
 51
105.7468939936
  0
ARC
  5
260
100
AcDbEntity
  8
ALL_FEATURES
100
AcDbCircle
 62
7
  6
CONTINUOUS
 10
6.9270498067
 20
4.3188177535
 40
0.225
100
AcDbArc
 50
40.3737735736
 51
75.7126084717
  0
ARC
  5
261
100
AcDbEntity
  8
ALL_FEATURES
100
AcDbCircle
 62
7
  6
CONTINUOUS
 10
6.0426203336
 20
4.7041682886
 40
0.135
100
AcDbArc
 50
50.5792118137
 51
91.5305297596
  0
ARC
  5
262
100
AcDbEntity
  8
ALL_FEATURES
100
AcDbCircle
 62
7
  6
CONTINUOUS
 10
7.0097230383
 20
4.6434562244
 40
0.11
100
AcDbArc
 50
202.4982926351
 51
255.7126084717
  0
ARC
  5
263
100
AcDbEntity
  8
ALL_FEATURES
100
AcDbCircle
 62
7
  6
CONTINUOUS
 10
6.8333467965
 20
4.6434562244
 40
0.07
100
AcDbArc
 50
180.0
 51
324.9714982481
  0
ARC
  5
264
100
AcDbEntity
  8
ALL_FEATURES
100
AcDbCircle
 62
7
  6
CONTINUOUS
 10
6.1683467965
 20
4.8084562244
 40
0.04
100
AcDbArc
 50
180.0
 51
360.0
  0
ARC
  5
265
100
AcDbEntity
  8
ALL_FEATURES
100
AcDbCircle
 62
7
  6
CONTINUOUS
 10
7.1213177053
 20
4.4839994219
 40
0.03
100
AcDbArc
 50
220.3737735735
 51
258.6549813212
  0
ARC
  5
266
100
AcDbEntity
  8
ALL_FEATURES
100
AcDbCircle
 62
7
  6
CONTINUOUS
 10
6.898856126
 20
4.5975375162
 40
0.01
100
AcDbArc
 50
22.4982926351
 51
144.9714982481
  0
ARC
  5
267
100
AcDbEntity
  8
ALL_FEATURES
100
AcDbCircle
 62
7
  6
CONTINUOUS
 10
6.3060465755
 20
5.7899454063
 40
0.36
100
AcDbArc
 50
254.2531060064
 51
312.6471747379
  0
ARC
  5
268
100
AcDbEntity
  8
ALL_FEATURES
100
AcDbCircle
 62
7
  6
CONTINUOUS
 10
6.7633467965
 20
4.9584562244
 40
0.315
100
AcDbArc
 50
227.3528252621
 51
270.0
  0
ARC
  5
269
100
AcDbEntity
  8
ALL_FEATURES
100
AcDbCircle
 62
7
  6
CONTINUOUS
 10
6.7633467965
 20
5.2934562244
 40
0.315
100
AcDbArc
 50
90.0
 51
132.6471747379
  0
ARC
  5
26A
100
AcDbEntity
  8
ALL_FEATURES
100
AcDbCircle
 62
7
  6
CONTINUOUS
 10
6.9270498067
 20
5.9330946953
 40
0.225
100
AcDbArc
 50
284.2873915283
 51
319.6262264264
  0
ARC
  5
26B
100
AcDbEntity
  8
ALL_FEATURES
100
AcDbCircle
 62
7
  6
CONTINUOUS
 10
6.0426203336
 20
5.5477441602
 40
0.135
100
AcDbArc
 50
268.4694702404
 51
309.4207881863
  0
ARC
  5
26C
100
AcDbEntity
  8
ALL_FEATURES
100
AcDbCircle
 62
7
  6
CONTINUOUS
 10
7.0097230383
 20
5.6084562244
 40
0.11
100
AcDbArc
 50
104.2873915283
 51
157.5017073649
  0
ARC
  5
26D
100
AcDbEntity
  8
ALL_FEATURES
100
AcDbCircle
 62
7
  6
CONTINUOUS
 10
6.8333467965
 20
5.6084562244
 40
0.07
100
AcDbArc
 50
35.0285017519
 51
180.0
  0
ARC
  5
26E
100
AcDbEntity
  8
ALL_FEATURES
100
AcDbCircle
 62
7
  6
CONTINUOUS
 10
6.1683467965
 20
5.4434562244
 40
0.04
100
AcDbArc
 50
0.0
 51
180.0
  0
ARC
  5
26F
100
AcDbEntity
  8
ALL_FEATURES
100
AcDbCircle
 62
7
  6
CONTINUOUS
 10
7.1213177053
 20
5.7679130269
 40
0.03
100
AcDbArc
 50
101.3450186788
 51
139.6262264265
  0
ARC
  5
270
100
AcDbEntity
  8
ALL_FEATURES
100
AcDbCircle
 62
7
  6
CONTINUOUS
 10
6.0383467965
 20
5.3878012426
 40
0.025
100
AcDbArc
 50
88.4694702404
 51
180.0
  0
ARC
  5
271
100
AcDbEntity
  8
ALL_FEATURES
100
AcDbCircle
 62
7
  6
CONTINUOUS
 10
6.0383467965
 20
4.8641112061
 40
0.025
100
AcDbArc
 50
180.0
 51
271.5305297596
  0
ARC
  5
272
100
AcDbEntity
  8
ALL_FEATURES
100
AcDbCircle
 62
7
  6
CONTINUOUS
 10
6.898856126
 20
5.6543749325
 40
0.01
100
AcDbArc
 50
215.0285017519
 51
337.5017073649
  0
SPLINE
  5
273
100
AcDbEntity
  8
ALL_ASSEMBLY_MEMBERS
100
AcDbSpline
 62
7
  6
CONTINUOUS
 70
0
 71
3
 72
19
 73
15
 74
0
 42
0.0000001
 43
0.0000001
 44
0.0000000001
 40
0.0
 40
0.0
 40
0.0
 40
0.0
 40
0.120123171
 40
0.181686768
 40
0.2441614462
 40
0.307419302
 40
0.3712753134
 40
0.5000000579
 40
0.6287247932
 40
0.6925807926
 40
0.755838633
 40
0.8183132938
 40
0.8798768716
 40
1.0
 40
1.0
 40
1.0
 40
1.0
 10
3.1387524498
 20
4.1833435944
 30
0.0
 10
3.1396284094
 20
4.1845382677
 30
0.0
 10
3.1408524391
 20
4.1864223559
 30
0.0
 10
3.1422762237
 20
4.1890767924
 30
0.0
 10
3.1432500187
 20
4.1911728052
 30
0.0
 10
3.1441122557
 20
4.1933474783
 30
0.0
 10
3.1451058621
 20
4.1963436117
 30
0.0
 10
3.1460204544
 20
4.2002088649
 30
0.0
 10
3.1464830087
 20
4.2041538242
 30
0.0
 10
3.1465740585
 20
4.2073091017
 30
0.0
 10
3.1465076001
 20
4.2096475277
 30
0.0
 10
3.1463094082
 20
4.2119501921
 30
0.0
 10
3.1458793559
 20
4.2149315081
 30
0.0
 10
3.1453735381
 20
4.2171206134
 30
0.0
 10
3.1449590063
 20
4.218542834
 30
0.0
  0
SPLINE
  5
274
100
AcDbEntity
  8
ALL_ASSEMBLY_MEMBERS
100
AcDbSpline
 62
7
  6
CONTINUOUS
 70
0
 71
3
 72
19
 73
15
 74
0
 42
0.0000001
 43
0.0000001
 44
0.0000000001
 40
0.0
 40
0.0
 40
0.0
 40
0.0
 40
0.1154687013
 40
0.2381150643
 40
0.3019368974
 40
0.3671377211
 40
0.4333070372
 40
0.4999999959
 40
0.5666929546
 40
0.6328622721
 40
0.6980630972
 40
0.761884931
 40
0.8845312964
 40
1.0
 40
1.0
 40
1.0
 40
1.0
 10
2.4892284239
 20
4.3410518888
 30
0.0
 10
2.4877428911
 20
4.3396670675
 30
0.0
 10
2.4849020443
 20
4.3365632154
 30
0.0
 10
2.4819681777
 20
4.3321080993
 30
0.0
 10
2.4799908856
 20
4.3281432327
 30
0.0
 10
2.4787145179
 20
4.324951923
 30
0.0
 10
2.4776876201
 20
4.3216190166
 30
0.0
 10
2.4769362867
 20
4.3181864325
 30
0.0
 10
2.4764682961
 20
4.3147038873
 30
0.0
 10
2.4762933433
 20
4.31122076
 30
0.0
 10
2.4764012444
 20
4.3077853663
 30
0.0
 10
2.476903227
 20
4.3033833366
 30
0.0
 10
2.4781364203
 20
4.2981934553
 30
0.0
 10
2.4797443631
 20
4.2943051615
 30
0.0
 10
2.4806666706
 20
4.292495773
 30
0.0
  0
SPLINE
  5
275
100
AcDbEntity
  8
ALL_ASSEMBLY_MEMBERS
100
AcDbSpline
 62
7
  6
CONTINUOUS
 70
0
 71
3
 72
19
 73
15
 74
0
 42
0.0000001
 43
0.0000001
 44
0.0000000001
 40
0.0
 40
0.0
 40
0.0
 40
0.0
 40
0.1139652238
 40
0.2362827892
 40
0.3003203991
 40
0.3659394513
 40
0.4326702947
 40
0.4999999958
 40
0.567329697
 40
0.6340605418
 40
0.6996795956
 40
0.763717206
 40
0.8860347738
 40
1.0
 40
1.0
 40
1.0
 40
1.0
 10
2.490930633
 20
4.3407517434
 30
0.0
 10
2.4895333344
 20
4.339341524
 30
0.0
 10
2.4868602431
 20
4.3361881502
 30
0.0
 10
2.4841055555
 20
4.331716354
 30
0.0
 10
2.4822324528
 20
4.327742901
 30
0.0
 10
2.4810124688
 20
4.3245431599
 30
0.0
 10
2.4800204069
 20
4.3212058096
 30
0.0
 10
2.4792808956
 20
4.3177730147
 30
0.0
 10
2.4788017239
 20
4.3142943148
 30
0.0
 10
2.478592516
 20
4.3108189262
 30
0.0
 10
2.4786445501
 20
4.3073948938
 30
0.0
 10
2.4790456899
 20
4.3030204305
 30
0.0
 10
2.4801048052
 20
4.2978761579
 30
0.0
 10
2.4815381719
 20
4.2939987046
 30
0.0
 10
2.4823688797
 20
4.2921956276
 30
0.0
  0
SPLINE
  5
276
100
AcDbEntity
  8
ALL_ASSEMBLY_MEMBERS
100
AcDbSpline
 62
7
  6
CONTINUOUS
 70
0
 71
3
 72
19
 73
15
 74
0
 42
0.0000001
 43
0.0000001
 44
0.0000000001
 40
0.0
 40
0.0
 40
0.0
 40
0.0
 40
0.1124397159
 40
0.234434097
 40
0.298692685
 40
0.3647346544
 40
0.4320306686
 40
0.4999999958
 40
0.567969323
 40
0.6352653386
 40
0.7013073096
 40
0.7655658982
 40
0.8875602818
 40
1.0
 40
1.0
 40
1.0
 40
1.0
 10
2.494324942
 20
4.3401532351
 30
0.0
 10
2.4930222479
 20
4.3387156934
 30
0.0
 10
2.490528989
 20
4.3355104104
 30
0.0
 10
2.4879622662
 20
4.3310214489
 30
0.0
 10
2.4861987315
 20
4.3270385255
 30
0.0
 10
2.4850383364
 20
4.3238298061
 30
0.0
 10
2.4840830665
 20
4.3204876359
 30
0.0
 10
2.4833560169
 20
4.3170544608
 30
0.0
 10
2.482865005
 20
4.3135796659
 30
0.0
 10
2.4826195755
 20
4.3101123316
 30
0.0
 10
2.4826125435
 20
4.3067002431
 30
0.0
 10
2.482907484
 20
4.3023543549
 30
0.0
 10
2.4837840992
 20
4.2972582399
 30
0.0
 10
2.4850307249
 20
4.2933935143
 30
0.0
 10
2.4857631887
 20
4.2915971193
 30
0.0
  0
SPLINE
  5
277
100
AcDbEntity
  8
ALL_ASSEMBLY_MEMBERS
100
AcDbSpline
 62
7
  6
CONTINUOUS
 70
0
 71
3
 72
19
 73
15
 74
0
 42
0.0000001
 43
0.0000001
 44
0.0000000001
 40
0.0
 40
0.0
 40
0.0
 40
0.0
 40
0.1109272858
 40
0.2326116322
 40
0.29709125
 40
0.3635510331
 40
0.4314028451
 40
0.4999999958
 40
0.5685971465
 40
0.6364489599
 40
0.7029087446
 40
0.767388363
 40
0.8890727119
 40
1.0
 40
1.0
 40
1.0
 40
1.0
 10
2.499393654
 20
4.3392594844
 30
0.0
 10
2.4981917802
 20
4.3377929017
 30
0.0
 10
2.4958897827
 20
4.3345339855
 30
0.0
 10
2.4935183656
 20
4.3300272503
 30
0.0
 10
2.4918690848
 20
4.3260338582
 30
0.0
 10
2.4907711503
 20
4.322815635
 30
0.0
 10
2.4898544241
 20
4.3194682671
 30
0.0
 10
2.4891404036
 20
4.3160345174
 30
0.0
 10
2.4886369517
 20
4.3125636387
 30
0.0
 10
2.4883535254
 20
4.3091046029
 30
0.0
 10
2.4882845491
 20
4.3057049465
 30
0.0
 10
2.4884685456
 20
4.3013882981
 30
0.0
 10
2.4891555545
 20
4.2963422798
 30
0.0
 10
2.4902041096
 20
4.2924925707
 30
0.0
 10
2.4908319007
 20
4.2907033686
 30
0.0
  0
SPLINE
  5
278
100
AcDbEntity
  8
ALL_ASSEMBLY_MEMBERS
100
AcDbSpline
 62
7
  6
CONTINUOUS
 70
0
 71
3
 72
15
 73
11
 74
0
 42
0.0000001
 43
0.0000001
 44
0.0000000001
 40
0.0
 40
0.0
 40
0.0
 40
0.0
 40
0.1094898106
 40
0.2309093225
 40
0.3624417919
 40
0.4999999957
 40
0.637558201
 40
0.7690906727
 40
0.890510187
 40
1.0
 40
1.0
 40
1.0
 40
1.0
 10
2.5061103423
 20
4.3380751511
 30
0.0
 10
2.5050153384
 20
4.3365781162
 30
0.0
 10
2.5029151824
 20
4.333264394
 30
0.0
 10
2.5002546318
 20
4.3277170369
 30
0.0
 10
2.4980712954
 20
4.3214581313
 30
0.0
 10
2.4965121069
 20
4.3147346872
 30
0.0
 10
2.4956777115
 20
4.3078834425
 30
0.0
 10
2.4955887047
 20
4.3012552499
 30
0.0
 10
2.4961914966
 20
4.2951324774
 30
0.0
 10
2.497031638
 20
4.2913003013
 30
0.0
 10
2.497548589
 20
4.2895190353
 30
0.0
  0
SPLINE
  5
279
100
AcDbEntity
  8
ALL_ASSEMBLY_MEMBERS
100
AcDbSpline
 62
7
  6
CONTINUOUS
 70
0
 71
3
 72
19
 73
15
 74
0
 42
0.0000001
 43
0.0000001
 44
0.0000000001
 40
0.0
 40
0.0
 40
0.0
 40
0.0
 40
0.0523866251
 40
0.108143168
 40
0.1671827263
 40
0.2293137053
 40
0.3614082506
 40
0.4999999957
 40
0.6385917423
 40
0.7706862899
 40
0.8328172703
 40
0.8918568297
 40
0.9476133741
 40
1.0
 40
1.0
 40
1.0
 40
1.0
 10
2.5144399879
 20
4.3366064098
 30
0.0
 10
2.5139639715
 20
4.3358657183
 30
0.0
 10
2.5130262421
 20
4.3343074337
 30
0.0
 10
2.5117089081
 20
4.3318241423
 30
0.0
 10
2.5104532831
 20
4.3291271325
 30
0.0
 10
2.5088512355
 20
4.3251818841
 30
0.0
 10
2.507132253
 20
4.3198492249
 30
0.0
 10
2.505629578
 20
4.313127031
 30
0.0
 10
2.5047425049
 20
4.3062962899
 30
0.0
 10
2.5045339431
 20
4.3006973026
 30
0.0
 10
2.504690021
 20
4.2964420492
 30
0.0
 10
2.5049474908
 20
4.2934782399
 30
0.0
 10
2.5053360442
 20
4.2906941544
 30
0.0
 10
2.505684257
 20
4.2889091236
 30
0.0
 10
2.5058782346
 20
4.288050294
 30
0.0
  0
SPLINE
  5
27A
100
AcDbEntity
  8
ALL_ASSEMBLY_MEMBERS
100
AcDbSpline
 62
7
  6
CONTINUOUS
 70
0
 71
3
 72
19
 73
15
 74
0
 42
0.0000001
 43
0.0000001
 44
0.0000000001
 40
0.0
 40
0.0
 40
0.0
 40
0.0
 40
0.0516345872
 40
0.1069096532
 40
0.1657179943
 40
0.2278410932
 40
0.3604638739
 40
0.4999999956
 40
0.639536119
 40
0.7721589019
 40
0.8342820023
 40
0.8930903445
 40
0.948365412
 40
1.0
 40
1.0
 40
1.0
 40
1.0
 10
2.5243391625
 20
4.3348609182
 30
0.0
 10
2.523921743
 20
4.3341071224
 30
0.0
 10
2.5230971803
 20
4.3325241423
 30
0.0
 10
2.5219332859
 20
4.3300146237
 30
0.0
 10
2.5208137961
 20
4.3272945988
 30
0.0
 10
2.5193678655
 20
4.3233170401
 30
0.0
 10
2.5177853892
 20
4.3179613293
 30
0.0
 10
2.5163400967
 20
4.3112384776
 30
0.0
 10
2.5153988766
 20
4.3044267443
 30
0.0
 10
2.5150541569
 20
4.2988527836
 30
0.0
 10
2.5150524821
 20
4.2946205635
 30
0.0
 10
2.5151741551
 20
4.2916816881
 30
0.0
 10
2.5154095521
 20
4.2889254365
 30
0.0
 10
2.5156429765
 20
4.2871559047
 30
0.0
 10
2.5157774092
 20
4.2863048024
 30
0.0
  0
SPLINE
  5
27B
100
AcDbEntity
  8
ALL_ASSEMBLY_MEMBERS
100
AcDbSpline
 62
7
  6
CONTINUOUS
 70
0
 71
3
 72
19
 73
15
 74
0
 42
0.0000001
 43
0.0000001
 44
0.0000000001
 40
0.0
 40
0.0
 40
0.0
 40
0.0
 40
0.0509948815
 40
0.105863468
 40
0.164478708
 40
0.2265975498
 40
0.3596684614
 40
0.4999999956
 40
0.6403315314
 40
0.7734024454
 40
0.8355212886
 40
0.8941365297
 40
0.9490051177
 40
1.0
 40
1.0
 40
1.0
 40
1.0
 10
2.5357562546
 20
4.3328477769
 30
0.0
 10
2.5353994016
 20
4.3320808151
 30
0.0
 10
2.5346915195
 20
4.3304731579
 30
0.0
 10
2.5336844417
 20
4.3279368256
 30
0.0
 10
2.5327040623
 20
4.3251931989
 30
0.0
 10
2.5314184527
 20
4.3211834385
 30
0.0
 10
2.529975097
 20
4.3158041844
 30
0.0
 10
2.5285878359
 20
4.3090788707
 30
0.0
 10
2.5275912422
 20
4.3022846718
 30
0.0
 10
2.5271077396
 20
4.2967361696
 30
0.0
 10
2.5269443986
 20
4.2925285229
 30
0.0
 10
2.5269272783
 20
4.2896150476
 30
0.0
 10
2.5270061451
 20
4.2868872339
 30
0.0
 10
2.5271214856
 20
4.2851344202
 30
0.0
 10
2.5271945013
 20
4.2842916611
 30
0.0
  0
SPLINE
  5
27C
100
AcDbEntity
  8
ALL_ASSEMBLY_MEMBERS
100
AcDbSpline
 62
7
  6
CONTINUOUS
 70
0
 71
3
 72
15
 73
11
 74
0
 42
0.0000001
 43
0.0000001
 44
0.0000000001
 40
0.0
 40
0.0
 40
0.0
 40
0.0
 40
0.1050408456
 40
0.2256201858
 40
0.3590458382
 40
0.4999999956
 40
0.6409541545
 40
0.7743798093
 40
0.8949591521
 40
1.0
 40
1.0
 40
1.0
 40
1.0
 10
2.5486317389
 20
4.3305774816
 30
0.0
 10
2.5480188503
 20
4.3289550063
 30
0.0
 10
2.5468105138
 20
4.3254288403
 30
0.0
 10
2.5451664391
 20
4.3197309819
 30
0.0
 10
2.5436377493
 20
4.3133892255
 30
0.0
 10
2.5423089806
 20
4.3066594627
 30
0.0
 10
2.5412559003
 20
4.2998810886
 30
0.0
 10
2.5405233904
 20
4.2933989441
 30
0.0
 10
2.5401195328
 20
4.2874824018
 30
0.0
 10
2.5400489779
 20
4.2837556141
 30
0.0
 10
2.5400699856
 20
4.2820213658
 30
0.0
  0
SPLINE
  5
27D
100
AcDbEntity
  8
ALL_ASSEMBLY_MEMBERS
100
AcDbSpline
 62
7
  6
CONTINUOUS
 70
0
 71
3
 72
15
 73
11
 74
0
 42
0.0000001
 43
0.0000001
 44
0.0000000001
 40
0.0
 40
0.0
 40
0.0
 40
0.0
 40
0.1044919615
 40
0.2249738506
 40
0.3586331235
 40
0.4999999956
 40
0.6413668692
 40
0.7750261445
 40
0.8955080362
 40
1.0
 40
1.0
 40
1.0
 40
1.0
 10
2.5628984862
 20
4.3280618691
 30
0.0
 10
2.5624169439
 20
4.3264106202
 30
0.0
 10
2.5614458088
 20
4.3228361822
 30
0.0
 10
2.560062943
 20
4.3170963363
 30
0.0
 10
2.5587021573
 20
4.3107290111
 30
0.0
 10
2.557431953
 20
4.3039928746
 30
0.0
 10
2.5563216603
 20
4.2972285414
 30
0.0
 10
2.555422627
 20
4.2907797967
 30
0.0
 10
2.5547589529
 20
4.2849131377
 30
0.0
 10
2.5544489916
 20
4.2812221169
 30
0.0
 10
2.5543367329
 20
4.2795057533
 30
0.0
  0
SPLINE
  5
27E
100
AcDbEntity
  8
ALL_ASSEMBLY_MEMBERS
100
AcDbSpline
 62
7
  6
CONTINUOUS
 70
0
 71
3
 72
15
 73
11
 74
0
 42
0.0000001
 43
0.0000001
 44
0.0000000001
 40
0.0
 40
0.0
 40
0.0
 40
0.0
 40
0.1042304678
 40
0.2246664099
 40
0.3584369795
 40
0.4999999956
 40
0.6415630132
 40
0.7753335853
 40
0.8957695299
 40
1.0
 40
1.0
 40
1.0
 40
1.0
 10
2.578482114
 20
4.3253140551
 30
0.0
 10
2.578134323
 20
4.3236364935
 30
0.0
 10
2.5774030873
 20
4.3200167206
 30
0.0
 10
2.5762821708
 20
4.3142326623
 30
0.0
 10
2.5750896763
 20
4.3078375869
 30
0.0
 10
2.5738779566
 20
4.3010930005
 30
0.0
 10
2.5727098163
 20
4.2943407298
 30
0.0
 10
2.5716431499
 20
4.2879234674
 30
0.0
 10
2.5707182024
 20
4.2821048544
 30
0.0
 10
2.5701673039
 20
4.2784532831
 30
0.0
 10
2.5699203607
 20
4.2767579393
 30
0.0
  0
SPLINE
  5
27F
100
AcDbEntity
  8
ALL_ASSEMBLY_MEMBERS
100
AcDbSpline
 62
7
  6
CONTINUOUS
 70
0
 71
3
 72
15
 73
11
 74
0
 42
0.0000001
 43
0.0000001
 44
0.0000000001
 40
0.0
 40
0.0
 40
0.0
 40
0.0
 40
0.1043247973
 40
0.2247772797
 40
0.3585077012
 40
0.4999999949
 40
0.6414922904
 40
0.7752227148
 40
0.8956752
 40
1.0
 40
1.0
 40
1.0
 40
1.0
 10
3.0604607785
 20
4.2403282124
 30
0.0
 10
3.0602815607
 20
4.2386219153
 30
0.0
 10
3.0598517487
 20
4.2349500849
 30
0.0
 10
3.0590581394
 20
4.2291075978
 30
0.0
 10
3.0580757597
 20
4.2226747794
 30
0.0
 10
3.0569367363
 20
4.2159167044
 30
0.0
 10
3.0556956704
 20
4.2091766222
 30
0.0
 10
3.0544186519
 20
4.2027957564
 30
0.0
 10
3.0531661524
 20
4.1970341839
 30
0.0
 10
3.0523142035
 20
4.1934367875
 30
0.0
 10
3.0518990252
 20
4.1917720966
 30
0.0
  0
SPLINE
  5
280
100
AcDbEntity
  8
ALL_ASSEMBLY_MEMBERS
100
AcDbSpline
 62
7
  6
CONTINUOUS
 70
0
 71
3
 72
15
 73
11
 74
0
 42
0.0000001
 43
0.0000001
 44
0.0000000001
 40
0.0
 40
0.0
 40
0.0
 40
0.0
 40
0.1047329361
 40
0.2252574423
 40
0.3588141503
 40
0.4999999949
 40
0.6411858414
 40
0.7747425522
 40
0.8952670612
 40
1.0
 40
1.0
 40
1.0
 40
1.0
 10
3.0753928376
 20
4.2376952875
 30
0.0
 10
3.0753477647
 20
4.2359695607
 30
0.0
 10
3.0751583169
 20
4.2322601078
 30
0.0
 10
3.074625348
 20
4.2263686019
 30
0.0
 10
3.0738101109
 20
4.219903309
 30
0.0
 10
3.0727286402
 20
4.2131321656
 30
0.0
 10
3.0714290228
 20
4.2063994874
 30
0.0
 10
3.0699838347
 20
4.2000452717
 30
0.0
 10
3.0684696479
 20
4.1943267808
 30
0.0
 10
3.067378963
 20
4.1907762403
 30
0.0
 10
3.0668310843
 20
4.1891391717
 30
0.0
  0
SPLINE
  5
281
100
AcDbEntity
  8
ALL_ASSEMBLY_MEMBERS
100
AcDbSpline
 62
7
  6
CONTINUOUS
 70
0
 71
3
 72
17
 73
13
 74
0
 42
0.0000001
 43
0.0000001
 44
0.0000000001
 40
0.0
 40
0.0
 40
0.0
 40
0.0
 40
0.0507279354
 40
0.1054283024
 40
0.2260720557
 40
0.3593337341
 40
0.4999999949
 40
0.6406662576
 40
0.7739279388
 40
0.8945716949
 40
0.9492720636
 40
1.0
 40
1.0
 40
1.0
 40
1.0
 10
3.0889697798
 20
4.2353013063
 30
0.0
 10
3.0890116357
 20
4.2344629619
 30
0.0
 10
3.0890672082
 20
4.2327189456
 30
0.0
 10
3.089066953
 20
4.2289776601
 30
0.0
 10
3.0888310489
 20
4.2238735646
 30
0.0
 10
3.0881817247
 20
4.2173742323
 30
0.0
 10
3.087157027
 20
4.2105880518
 30
0.0
 10
3.0857989174
 20
4.2038606607
 30
0.0
 10
3.08418618
 20
4.197531204
 30
0.0
 10
3.0826621539
 20
4.1926542391
 30
0.0
 10
3.0813827986
 20
4.1891384934
 30
0.0
 10
3.0807340889
 20
4.1875186609
 30
0.0
 10
3.0804080265
 20
4.1867451905
 30
0.0
  0
SPLINE
  5
282
100
AcDbEntity
  8
ALL_ASSEMBLY_MEMBERS
100
AcDbSpline
 62
7
  6
CONTINUOUS
 70
0
 71
3
 72
19
 73
15
 74
0
 42
0.0000001
 43
0.0000001
 44
0.0000000001
 40
0.0
 40
0.0
 40
0.0
 40
0.0
 40
0.0513003003
 40
0.1063625772
 40
0.1650697016
 40
0.2271904709
 40
0.360047643
 40
0.5000000012
 40
0.6399523589
 40
0.7728095303
 40
0.8349302992
 40
0.8936374233
 40
0.9486996999
 40
1.0
 40
1.0
 40
1.0
 40
1.0
 10
3.1011208188
 20
4.2331587502
 30
0.0
 10
3.1012248887
 20
4.2323117188
 30
0.0
 10
3.1013998967
 20
4.2305503532
 30
0.0
 10
3.1015577407
 20
4.2278081986
 30
0.0
 10
3.1016106489
 20
4.2248819193
 30
0.0
 10
3.1015289252
 20
4.2206617377
 30
0.0
 10
3.1011154041
 20
4.2151004108
 30
0.0
 10
3.100146761
 20
4.2082976109
 30
0.0
 10
3.0987302932
 20
4.2015737746
 30
0.0
 10
3.0972167901
 20
4.1962064042
 30
0.0
 10
3.0958501981
 20
4.1922127796
 30
0.0
 10
3.0947996342
 20
4.1894810722
 30
0.0
 10
3.0937134373
 20
4.1869582756
 30
0.0
 10
3.0929465611
 20
4.1853629896
 30
0.0
 10
3.0925590655
 20
4.1846026345
 30
0.0
  0
SPLINE
  5
283
100
AcDbEntity
  8
ALL_ASSEMBLY_MEMBERS
100
AcDbSpline
 62
7
  6
CONTINUOUS
 70
0
 71
3
 72
19
 73
15
 74
0
 42
0.0000001
 43
0.0000001
 44
0.0000000001
 40
0.0
 40
0.0
 40
0.0
 40
0.0
 40
0.0519999666
 40
0.1075084752
 40
0.1664285875
 40
0.2285551251
 40
0.3609214461
 40
0.499999995
 40
0.6390785457
 40
0.7714448694
 40
0.8335714087
 40
0.8924915221
 40
0.9480000324
 40
1.0
 40
1.0
 40
1.0
 40
1.0
 10
3.1117826028
 20
4.2312787901
 30
0.0
 10
3.1119471922
 20
4.2304237369
 30
0.0
 10
3.1122387149
 20
4.2286462758
 30
0.0
 10
3.1125514958
 20
4.2258759565
 30
0.0
 10
3.1127417811
 20
4.2229244887
 30
0.0
 10
3.1128198709
 20
4.2186805061
 30
0.0
 10
3.1125438945
 20
4.2130939094
 30
0.0
 10
3.1116300313
 20
4.2062728008
 30
0.0
 10
3.1101558252
 20
4.1995504957
 30
0.0
 10
3.1085044297
 20
4.1942064225
 30
0.0
 10
3.1069795217
 20
4.1902450915
 30
0.0
 10
3.1057912506
 20
4.1875367003
 30
0.0
 10
3.1045498276
 20
4.185040429
 30
0.0
 10
3.1036679584
 20
4.1834698685
 30
0.0
 10
3.1032208495
 20
4.1827226743
 30
0.0
  0
SPLINE
  5
284
100
AcDbEntity
  8
ALL_ASSEMBLY_MEMBERS
100
AcDbSpline
 62
7
  6
CONTINUOUS
 70
0
 71
3
 72
15
 73
11
 74
0
 42
0.0000001
 43
0.0000001
 44
0.0000000001
 40
0.0
 40
0.0
 40
0.0
 40
0.0
 40
0.1087930984
 40
0.2300751311
 40
0.3619039606
 40
0.499999995
 40
0.6380960313
 40
0.7699248634
 40
0.8912068989
 40
1.0
 40
1.0
 40
1.0
 40
1.0
 10
3.1208995441
 20
4.2296712273
 30
0.0
 10
3.1213591187
 20
4.2278942884
 30
0.0
 10
3.122092034
 20
4.2240721141
 30
0.0
 10
3.1225737861
 20
4.217974652
 30
0.0
 10
3.1224074901
 20
4.2113651647
 30
0.0
 10
3.1215470177
 20
4.2045241685
 30
0.0
 10
3.1200158388
 20
4.197801436
 30
0.0
 10
3.1179115281
 20
4.1915336728
 30
0.0
 10
3.1153733743
 20
4.1859687015
 30
0.0
 10
3.1133773986
 20
4.1826277042
 30
0.0
 10
3.1123377908
 20
4.1811151115
 30
0.0
  0
SPLINE
  5
285
100
AcDbEntity
  8
ALL_ASSEMBLY_MEMBERS
100
AcDbSpline
 62
7
  6
CONTINUOUS
 70
0
 71
3
 72
17
 73
13
 74
0
 42
0.0000001
 43
0.0000001
 44
0.0000000001
 40
0.0
 40
0.0
 40
0.0
 40
0.0
 40
0.110204058
 40
0.2317552494
 40
0.3629632788
 40
0.4310917148
 40
0.4999999951
 40
0.5689082754
 40
0.6370367132
 40
0.7682447451
 40
0.8897959393
 40
1.0
 40
1.0
 40
1.0
 40
1.0
 10
3.1284241098
 20
4.2283444434
 30
0.0
 10
3.1289974739
 20
4.2265590809
 30
0.0
 10
3.1299434555
 20
4.2227175359
 30
0.0
 10
3.1306667766
 20
4.2165699394
 30
0.0
 10
3.1306563659
 20
4.2110960632
 30
0.0
 10
3.130257304
 20
4.206547232
 30
0.0
 10
3.1297475005
 20
4.2030782022
 30
0.0
 10
3.1290400811
 20
4.1996440174
 30
0.0
 10
3.1278592846
 20
4.195233027
 30
0.0
 10
3.1259968917
 20
4.1900857052
 30
0.0
 10
3.1232145902
 20
4.1845562443
 30
0.0
 10
3.1210117725
 20
4.1812699175
 30
0.0
 10
3.1198623565
 20
4.1797883276
 30
0.0
  0
SPLINE
  5
286
100
AcDbEntity
  8
ALL_ASSEMBLY_MEMBERS
100
AcDbSpline
 62
7
  6
CONTINUOUS
 70
0
 71
3
 72
19
 73
15
 74
0
 42
0.0000001
 43
0.0000001
 44
0.0000000001
 40
0.0
 40
0.0
 40
0.0
 40
0.0
 40
0.1116827756
 40
0.2335207
 40
0.297889672
 40
0.3641409351
 40
0.4317156756
 40
0.4999999951
 40
0.5682843147
 40
0.6358590569
 40
0.7021103219
 40
0.7664792946
 40
0.8883172217
 40
1.0
 40
1.0
 40
1.0
 40
1.0
 10
3.1343170689
 20
4.2273053557
 30
0.0
 10
3.1349982127
 20
4.2255124655
 30
0.0
 10
3.1361475915
 20
4.221654903
 30
0.0
 10
3.1369306231
 20
4.2165835282
 30
0.0
 10
3.137170888
 20
4.2122521356
 30
0.0
 10
3.1371333581
 20
4.2088461813
 30
0.0
 10
3.1368692225
 20
4.2053829522
 30
0.0
 10
3.136372089
 20
4.2019101085
 30
0.0
 10
3.1356514593
 20
4.1984766732
 30
0.0
 10
3.1347151713
 20
4.1951319627
 30
0.0
 10
3.133585533
 20
4.1919185764
 30
0.0
 10
3.1318783343
 20
4.1879305741
 30
0.0
 10
3.1294080129
 20
4.1834328531
 30
0.0
 10
3.127008586
 20
4.1802010407
 30
0.0
 10
3.1257553156
 20
4.1787492399
 30
0.0
  0
SPLINE
  5
287
100
AcDbEntity
  8
ALL_ASSEMBLY_MEMBERS
100
AcDbSpline
 62
7
  6
CONTINUOUS
 70
0
 71
3
 72
19
 73
15
 74
0
 42
0.0000001
 43
0.0000001
 44
0.0000000001
 40
0.0
 40
0.0
 40
0.0
 40
0.0
 40
0.1132064649
 40
0.2353619722
 40
0.2995092411
 40
0.3653388284
 40
0.4323513516
 40
0.4999999951
 40
0.5676486388
 40
0.6346611637
 40
0.7004907528
 40
0.7646380224
 40
0.8867935324
 40
1.0
 40
1.0
 40
1.0
 40
1.0
 10
3.1385476973
 20
4.2265593818
 30
0.0
 10
3.1393303145
 20
4.2247595782
 30
0.0
 10
3.1406721892
 20
4.2208882012
 30
0.0
 10
3.1416414215
 20
4.2157676191
 30
0.0
 10
3.141990324
 20
4.211407276
 30
0.0
 10
3.1420133336
 20
4.2079891227
 30
0.0
 10
3.1417863278
 20
4.2045177087
 30
0.0
 10
3.1413013405
 20
4.2010409485
 30
0.0
 10
3.1405679575
 20
4.1976079871
 30
0.0
 10
3.1395939797
 20
4.1942682844
 30
0.0
 10
3.1384032805
 20
4.1910641405
 30
0.0
 10
3.1365840942
 20
4.1870860899
 30
0.0
 10
3.1339219714
 20
4.1826058136
 30
0.0
 10
3.1313369327
 20
4.1794268573
 30
0.0
 10
3.129985944
 20
4.178003266
 30
0.0
  0
SPLINE
  5
288
100
AcDbEntity
  8
ALL_ASSEMBLY_MEMBERS
100
AcDbSpline
 62
7
  6
CONTINUOUS
 70
0
 71
3
 72
19
 73
15
 74
0
 42
0.0000001
 43
0.0000001
 44
0.0000000001
 40
0.0
 40
0.0
 40
0.0
 40
0.0
 40
0.1147249879
 40
0.2372074335
 40
0.3011357489
 40
0.3665436273
 40
0.4329912714
 40
0.4999999952
 40
0.5670087191
 40
0.6334563649
 40
0.698864245
 40
0.7627925612
 40
0.8852750093
 40
1.0
 40
1.0
 40
1.0
 40
1.0
 10
3.1410939376
 20
4.2261104109
 30
0.0
 10
3.1419714875
 20
4.2243041238
 30
0.0
 10
3.1434940886
 20
4.2204210141
 30
0.0
 10
3.1446417568
 20
4.2152534865
 30
0.0
 10
3.1450942453
 20
4.2108650333
 30
0.0
 10
3.145174754
 20
4.2074352172
 30
0.0
 10
3.1449830057
 20
4.2039558986
 30
0.0
 10
3.144509535
 20
4.2004752572
 30
0.0
 10
3.1437640025
 20
4.1970425877
 30
0.0
 10
3.1427541899
 20
4.1937075159
 30
0.0
 10
3.1415054703
 20
4.1905120784
 30
0.0
 10
3.1395793308
 20
4.1865430415
 30
0.0
 10
3.1367334769
 20
4.1820796794
 30
0.0
 10
3.1339745981
 20
4.1789515101
 30
0.0
 10
3.1325321843
 20
4.1775542951
 30
0.0
  0
SPLINE
  5
289
100
AcDbEntity
  8
ALL_ASSEMBLY_MEMBERS
100
AcDbSpline
 62
7
  6
CONTINUOUS
 70
0
 71
3
 72
23
 73
19
 74
0
 42
0.0000001
 43
0.0000001
 44
0.0000000001
 40
0.0
 40
0.0
 40
0.0
 40
0.0
 40
0.0619977061
 40
0.1242032044
 40
0.1865569941
 40
0.2490338081
 40
0.3116191231
 40
0.3743453311
 40
0.4371476647
 40
0.5000000039
 40
0.5628523431
 40
0.6256546753
 40
0.6883808821
 40
0.7509661967
 40
0.8134430095
 40
0.875796798
 40
0.9380022947
 40
1.0
 40
1.0
 40
1.0
 40
1.0
 10
2.9802738622
 20
4.2044015453
 30
0.0
 10
2.9812469838
 20
4.2050294137
 30
0.0
 10
2.9831470338
 20
4.2063661541
 30
0.0
 10
2.9858189662
 20
4.2086101264
 30
0.0
 10
2.9882796452
 20
4.2110979067
 30
0.0
 10
2.9904883806
 20
4.2138217783
 30
0.0
 10
2.9924051306
 20
4.2167677801
 30
0.0
 10
2.9939870842
 20
4.2199137135
 30
0.0
 10
2.9952035593
 20
4.2232241778
 30
0.0
 10
2.9960196115
 20
4.2266580371
 30
0.0
 10
2.9964272222
 20
4.2301639155
 30
0.0
 10
2.9964163551
 20
4.2336907934
 30
0.0
 10
2.9960057774
 20
4.2371880637
 30
0.0
 10
2.9952122136
 20
4.2406119669
 30
0.0
 10
2.9940683001
 20
4.2439270009
 30
0.0
 10
2.9926068892
 20
4.2471063514
 30
0.0
 10
2.9908635778
 20
4.2501288502
 30
0.0
 10
2.989535307
 20
4.2520348307
 30
0.0
 10
2.9888356155
 20
4.2529576611
 30
0.0
  0
SPLINE
  5
28A
100
AcDbEntity
  8
ALL_ASSEMBLY_MEMBERS
100
AcDbSpline
 62
7
  6
CONTINUOUS
 70
0
 71
3
 72
17
 73
13
 74
0
 42
0.0000001
 43
0.0000001
 44
0.0000000001
 40
0.0
 40
0.0
 40
0.0
 40
0.0
 40
0.0508569536
 40
0.1056389191
 40
0.2263199332
 40
0.3594921208
 40
0.4999999949
 40
0.6405078709
 40
0.7736800613
 40
0.8943610782
 40
0.9491430455
 40
1.0
 40
1.0
 40
1.0
 40
1.0
 10
2.9888356155
 20
4.2529576611
 30
0.0
 10
2.9884941988
 20
4.2521874194
 30
0.0
 10
2.9878159777
 20
4.2505736261
 30
0.0
 10
2.9864829062
 20
4.2470686776
 30
0.0
 10
2.9849042746
 20
4.2422017001
 30
0.0
 10
2.9832502817
 20
4.2358780203
 30
0.0
 10
2.9818777171
 20
4.2291516346
 30
0.0
 10
2.9808669465
 20
4.2223614548
 30
0.0
 10
2.9802583655
 20
4.2158534405
 30
0.0
 10
2.9800771897
 20
4.2107400538
 30
0.0
 10
2.9801311041
 20
4.2069905422
 30
0.0
 10
2.9802164737
 20
4.2052421072
 30
0.0
 10
2.9802738622
 20
4.2044015453
 30
0.0
  0
SPLINE
  5
28B
100
AcDbEntity
  8
ALL_ASSEMBLY_MEMBERS
100
AcDbSpline
 62
7
  6
CONTINUOUS
 70
0
 71
3
 72
23
 73
19
 74
0
 42
0.0000001
 43
0.0000001
 44
0.0000000001
 40
0.0
 40
0.0
 40
0.0
 40
0.0
 40
0.0622404959
 40
0.1246157846
 40
0.1870626274
 40
0.2495558518
 40
0.3120856989
 40
0.3746946731
 40
0.4373344842
 40
0.5000000039
 40
0.5626655235
 40
0.6253053333
 40
0.6879143063
 40
0.750444153
 40
0.8129373762
 40
0.8753842178
 40
0.937759505
 40
1.0
 40
1.0
 40
1.0
 40
1.0
 10
2.999783517
 20
4.2009614668
 30
0.0
 10
3.000767752
 20
4.2015869227
 30
0.0
 10
3.0026892271
 20
4.2029187949
 30
0.0
 10
3.0053920106
 20
4.2051571255
 30
0.0
 10
3.0078802085
 20
4.207639936
 30
0.0
 10
3.0101125908
 20
4.2103596507
 30
0.0
 10
3.0120485844
 20
4.2133024421
 30
0.0
 10
3.0136448093
 20
4.216446262
 30
0.0
 10
3.0148701645
 20
4.2197557304
 30
0.0
 10
3.0156892685
 20
4.2231897458
 30
0.0
 10
3.0160940649
 20
4.2266968149
 30
0.0
 10
3.0160745126
 20
4.230225794
 30
0.0
 10
3.0156498014
 20
4.2337259594
 30
0.0
 10
3.0148370565
 20
4.2371534275
 30
0.0
 10
3.0136695005
 20
4.240472643
 30
0.0
 10
3.0121805305
 20
4.2436567354
 30
0.0
 10
3.010406299
 20
4.2466844846
 30
0.0
 10
3.0090562302
 20
4.2485932182
 30
0.0
 10
3.0083452703
 20
4.2495175826
 30
0.0
  0
SPLINE
  5
28C
100
AcDbEntity
  8
ALL_ASSEMBLY_MEMBERS
100
AcDbSpline
 62
7
  6
CONTINUOUS
 70
0
 71
3
 72
15
 73
11
 74
0
 42
0.0000001
 43
0.0000001
 44
0.0000000001
 40
0.0
 40
0.0
 40
0.0
 40
0.0
 40
0.1048776009
 40
0.225427817
 40
0.3589229514
 40
0.4999999949
 40
0.6410770402
 40
0.7745721775
 40
0.8951223964
 40
1.0
 40
1.0
 40
1.0
 40
1.0
 10
3.0083452703
 20
4.2495175826
 30
0.0
 10
3.0077649736
 20
4.2478877068
 30
0.0
 10
3.0066156864
 20
4.2443492008
 30
0.0
 10
3.0050368899
 20
4.2386410315
 30
0.0
 10
3.0035501683
 20
4.2322930755
 30
0.0
 10
3.0022360576
 20
4.2255619099
 30
0.0
 10
3.0011687235
 20
4.2187872309
 30
0.0
 10
3.000394656
 20
4.2123136146
 30
0.0
 10
2.9999259304
 20
4.2064097097
 30
0.0
 10
2.9997956668
 20
4.2026915222
 30
0.0
 10
2.999783517
 20
4.2009614668
 30
0.0
  0
SPLINE
  5
28D
100
AcDbEntity
  8
ALL_ASSEMBLY_MEMBERS
100
AcDbSpline
 62
7
  6
CONTINUOUS
 70
0
 71
3
 72
23
 73
19
 74
0
 42
0.0000001
 43
0.0000001
 44
0.0000000001
 40
0.0
 40
0.0
 40
0.0
 40
0.0
 40
0.0623912075
 40
0.1248720475
 40
0.1873768746
 40
0.2498804803
 40
0.3123759788
 40
0.3749121007
 40
0.4374507884
 40
0.5000000039
 40
0.5625492193
 40
0.6250879057
 40
0.6876240265
 40
0.7501195244
 40
0.812623129
 40
0.8751279549
 40
0.9376087933
 40
1.0
 40
1.0
 40
1.0
 40
1.0
 10
3.0182876215
 20
4.1976986939
 30
0.0
 10
3.0192787575
 20
4.1983226552
 30
0.0
 10
3.0212135335
 20
4.1996515103
 30
0.0
 10
3.0239354772
 20
4.2018863341
 30
0.0
 10
3.0264407668
 20
4.2043660536
 30
0.0
 10
3.0286878379
 20
4.2070831816
 30
0.0
 10
3.0306357875
 20
4.210023975
 30
0.0
 10
3.0322408819
 20
4.2131664804
 30
0.0
 10
3.0334717577
 20
4.2164753317
 30
0.0
 10
3.0342927599
 20
4.2199094484
 30
0.0
 10
3.0346958072
 20
4.2234172618
 30
0.0
 10
3.0346708561
 20
4.2269475492
 30
0.0
 10
3.0342373608
 20
4.2304495129
 30
0.0
 10
3.0334126975
 20
4.2338791927
 30
0.0
 10
3.0322304539
 20
4.2372010013
 30
0.0
 10
3.0307243658
 20
4.2403880348
 30
0.0
 10
3.0289309301
 20
4.2434190418
 30
0.0
 10
3.0275673307
 20
4.2453294895
 30
0.0
 10
3.0268493748
 20
4.2462548097
 30
0.0
  0
SPLINE
  5
28E
100
AcDbEntity
  8
ALL_ASSEMBLY_MEMBERS
100
AcDbSpline
 62
7
  6
CONTINUOUS
 70
0
 71
3
 72
15
 73
11
 74
0
 42
0.0000001
 43
0.0000001
 44
0.0000000001
 40
0.0
 40
0.0
 40
0.0
 40
0.0
 40
0.1043988266
 40
0.224864317
 40
0.3585632301
 40
0.4999999949
 40
0.6414367615
 40
0.7751356776
 40
0.8956011707
 40
1.0
 40
1.0
 40
1.0
 40
1.0
 10
3.0268493748
 20
4.2462548097
 30
0.0
 10
3.0264011427
 20
4.2445967196
 30
0.0
 10
3.0254898761
 20
4.2410106416
 30
0.0
 10
3.0241725572
 20
4.2352599392
 30
0.0
 10
3.0228538917
 20
4.2288858723
 30
0.0
 10
3.0215983455
 20
4.2221478161
 30
0.0
 10
3.020473622
 20
4.2153866923
 30
0.0
 10
3.019532703
 20
4.2089460184
 30
0.0
 10
3.0188037218
 20
4.203091576
 30
0.0
 10
3.0184335213
 20
4.1994100934
 30
0.0
 10
3.0182876215
 20
4.1976986939
 30
0.0
  0
SPLINE
  5
28F
100
AcDbEntity
  8
ALL_ASSEMBLY_MEMBERS
100
AcDbSpline
 62
7
  6
CONTINUOUS
 70
0
 71
3
 72
23
 73
19
 74
0
 42
0.0000001
 43
0.0000001
 44
0.0000000001
 40
0.0
 40
0.0
 40
0.0
 40
0.0
 40
0.0624491906
 40
0.1249706704
 40
0.1874978509
 40
0.2500054905
 40
0.312487791
 40
0.3749958686
 40
0.4374956027
 40
0.5000000039
 40
0.562504405
 40
0.6250041378
 40
0.6875122142
 40
0.7499945143
 40
0.8125021526
 40
0.875029332
 40
0.9375508102
 40
1.0
 40
1.0
 40
1.0
 40
1.0
 10
3.0356897007
 20
4.1946302378
 30
0.0
 10
3.0366834924
 20
4.1952536246
 30
0.0
 10
3.0386233862
 20
4.19658132
 30
0.0
 10
3.0413527038
 20
4.1988147935
 30
0.0
 10
3.0438645714
 20
4.2012933225
 30
0.0
 10
3.046117296
 20
4.204009454
 30
0.0
 10
3.0480698479
 20
4.2069494775
 30
0.0
 10
3.049678357
 20
4.2100914767
 30
0.0
 10
3.0509113585
 20
4.2134000907
 30
0.0
 10
3.0517330918
 20
4.2168342473
 30
0.0
 10
3.0521354657
 20
4.2203423482
 30
0.0
 10
3.052108436
 20
4.2238731397
 30
0.0
 10
3.0516715587
 20
4.2273757956
 30
0.0
 10
3.0508423074
 20
4.2308063261
 30
0.0
 10
3.0496544104
 20
4.2341291319
 30
0.0
 10
3.0481417339
 20
4.2373172965
 30
0.0
 10
3.0463409072
 20
4.2403495567
 30
0.0
 10
3.0449721018
 20
4.2422606649
 30
0.0
 10
3.044251454
 20
4.2431863536
 30
0.0
  0
SPLINE
  5
290
100
AcDbEntity
  8
ALL_ASSEMBLY_MEMBERS
100
AcDbSpline
 62
7
  6
CONTINUOUS
 70
0
 71
3
 72
23
 73
19
 74
0
 42
0.0000001
 43
0.0000001
 44
0.0000000001
 40
0.0
 40
0.0
 40
0.0
 40
0.0
 40
0.0624142062
 40
0.1249111636
 40
0.1874248541
 40
0.2499300572
 40
0.3124203196
 40
0.374945319
 40
0.4374685592
 40
0.5000000039
 40
0.5625314485
 40
0.6250546874
 40
0.6875796856
 40
0.7500699476
 40
0.8125751495
 40
0.8750888388
 40
0.9375857946
 40
1.0
 40
1.0
 40
1.0
 40
1.0
 10
3.0518990252
 20
4.1917720966
 30
0.0
 10
3.0528912145
 20
4.1923958299
 30
0.0
 10
3.0548280204
 20
4.193724225
 30
0.0
 10
3.0575528888
 20
4.1959585133
 30
0.0
 10
3.0600607874
 20
4.1984377607
 30
0.0
 10
3.0623101007
 20
4.2011544935
 30
0.0
 10
3.0642598756
 20
4.2040949816
 30
0.0
 10
3.0658663243
 20
4.2072372862
 30
0.0
 10
3.0670980431
 20
4.2105460434
 30
0.0
 10
3.0679193352
 20
4.2139801759
 30
0.0
 10
3.0683221154
 20
4.2174881033
 30
0.0
 10
3.06829634
 20
4.2210185905
 30
0.0
 10
3.0678615034
 20
4.2245208288
 30
0.0
 10
3.0670350205
 20
4.227950846
 30
0.0
 10
3.0658505347
 20
4.2312730502
 30
0.0
 10
3.0643418335
 20
4.2344605324
 30
0.0
 10
3.0625454664
 20
4.2374920364
 30
0.0
 10
3.0611798021
 20
4.2394027461
 30
0.0
 10
3.0604607785
 20
4.2403282124
 30
0.0
  0
SPLINE
  5
291
100
AcDbEntity
  8
ALL_ASSEMBLY_MEMBERS
100
AcDbSpline
 62
7
  6
CONTINUOUS
 70
0
 71
3
 72
19
 73
15
 74
0
 42
0.0000001
 43
0.0000001
 44
0.0000000001
 40
0.0
 40
0.0
 40
0.0
 40
0.0
 40
0.1169221082
 40
0.2398960166
 40
0.3035112352
 40
0.3683064673
 40
0.4339286662
 40
0.5000000047
 40
0.5660713432
 40
0.6316935404
 40
0.6964887708
 40
0.7601039888
 40
0.8830778946
 40
1.0
 40
1.0
 40
1.0
 40
1.0
 10
2.4806666706
 20
4.292495773
 30
0.0
 10
2.4796594845
 20
4.2943111767
 30
0.0
 10
2.4778895903
 20
4.2982087839
 30
0.0
 10
2.4764918191
 20
4.303441305
 30
0.0
 10
2.475894828
 20
4.3078696107
 30
0.0
 10
2.4757344949
 20
4.311315711
 30
0.0
 10
2.4758772995
 20
4.3148062022
 30
0.0
 10
2.4763348105
 20
4.318292489
 30
0.0
 10
2.4770972711
 20
4.3217250049
 30
0.0
 10
2.478156897
 20
4.3250538357
 30
0.0
 10
2.4794861966
 20
4.3282372735
 30
0.0
 10
2.4815617544
 20
4.3321943366
 30
0.0
 10
2.4846648573
 20
4.3366332321
 30
0.0
 10
2.4876610739
 20
4.3396904453
 30
0.0
 10
2.4892284239
 20
4.3410518888
 30
0.0
  0
SPLINE
  5
292
100
AcDbEntity
  8
ALL_ASSEMBLY_MEMBERS
100
AcDbSpline
 62
7
  6
CONTINUOUS
 70
0
 71
3
 72
23
 73
19
 74
0
 42
0.0000001
 43
0.0000001
 44
0.0000000001
 40
0.0
 40
0.0
 40
0.0
 40
0.0
 40
0.0622863977
 40
0.1246938215
 40
0.1871583063
 40
0.2496546767
 40
0.3121740556
 40
0.3747608478
 40
0.4373698793
 40
0.5000000039
 40
0.5626301284
 40
0.6252391586
 40
0.6878259496
 40
0.750345328
 40
0.8128416972
 40
0.875306181
 40
0.9377136031
 40
1.0
 40
1.0
 40
1.0
 40
1.0
 10
3.0668310843
 20
4.1891391717
 30
0.0
 10
3.0678174209
 20
4.1897641721
 30
0.0
 10
3.0697429468
 20
4.191095125
 30
0.0
 10
3.072451565
 20
4.193332388
 30
0.0
 10
3.0749449676
 20
4.1958142576
 30
0.0
 10
3.0771818228
 20
4.198533185
 30
0.0
 10
3.0791214568
 20
4.2014753683
 30
0.0
 10
3.0807203822
 20
4.2046187881
 30
0.0
 10
3.081947418
 20
4.2079280684
 30
0.0
 10
3.0827670999
 20
4.2113621144
 30
0.0
 10
3.0831713637
 20
4.2148694097
 30
0.0
 10
3.0831501677
 20
4.2183987869
 30
0.0
 10
3.0827227821
 20
4.2218994999
 30
0.0
 10
3.0819064083
 20
4.2253276417
 30
0.0
 10
3.0807343799
 20
4.2286476472
 30
0.0
 10
3.0792401973
 20
4.2318326356
 30
0.0
 10
3.0774601178
 20
4.234861377
 30
0.0
 10
3.0761059281
 20
4.2367706322
 30
0.0
 10
3.0753928376
 20
4.2376952875
 30
0.0
  0
SPLINE
  5
293
100
AcDbEntity
  8
ALL_ASSEMBLY_MEMBERS
100
AcDbSpline
 62
7
  6
CONTINUOUS
 70
0
 71
3
 72
21
 73
17
 74
0
 42
0.0000001
 43
0.0000001
 44
0.0000000001
 40
0.0
 40
0.0
 40
0.0
 40
0.0
 40
0.1226328026
 40
0.1846682607
 40
0.2471029473
 40
0.3099037543
 40
0.3730657701
 40
0.4364648257
 40
0.5000000046
 40
0.5635351834
 40
0.6269342374
 40
0.6900962516
 40
0.752897058
 40
0.8153317433
 40
0.8773672001
 40
1.0
 40
1.0
 40
1.0
 40
1.0
 10
2.5058782346
 20
4.288050294
 30
0.0
 10
2.5045563271
 20
4.2898904293
 30
0.0
 10
2.5027838828
 20
4.2928314942
 30
0.0
 10
2.5009760308
 20
4.2970292046
 30
0.0
 10
2.4999171556
 20
4.3003293963
 30
0.0
 10
2.4991927329
 20
4.3037403201
 30
0.0
 10
2.4988330221
 20
4.3072271787
 30
0.0
 10
2.4988534127
 20
4.3107465257
 30
0.0
 10
2.4992711548
 20
4.3142481926
 30
0.0
 10
2.5000762463
 20
4.3176815595
 30
0.0
 10
2.5012607729
 20
4.3209956378
 30
0.0
 10
2.5027913665
 20
4.3241491846
 30
0.0
 10
2.5046387058
 20
4.3271066374
 30
0.0
 10
2.506762455
 20
4.3298456463
 30
0.0
 10
2.5098969816
 20
4.3331718821
 30
0.0
 10
2.5125684379
 20
4.3353293673
 30
0.0
 10
2.5144399879
 20
4.3366064098
 30
0.0
  0
SPLINE
  5
294
100
AcDbEntity
  8
ALL_ASSEMBLY_MEMBERS
100
AcDbSpline
 62
7
  6
CONTINUOUS
 70
0
 71
3
 72
23
 73
19
 74
0
 42
0.0000001
 43
0.0000001
 44
0.0000000001
 40
0.0
 40
0.0
 40
0.0
 40
0.0
 40
0.0620663084
 40
0.1243197514
 40
0.1866997893
 40
0.249181201
 40
0.3117508266
 40
0.3744439252
 40
0.4372003845
 40
0.5000000039
 40
0.5627996232
 40
0.6255560812
 40
0.6882491787
 40
0.7508188037
 40
0.8133002143
 40
0.875680251
 40
0.9379336924
 40
1.0
 40
1.0
 40
1.0
 40
1.0
 10
3.0804080265
 20
4.1867451905
 30
0.0
 10
3.0813842879
 20
4.1873723765
 30
0.0
 10
3.0832903917
 20
4.1887077404
 30
0.0
 10
3.0859710398
 20
4.1909501195
 30
0.0
 10
3.0884394929
 20
4.1934364967
 30
0.0
 10
3.0906549082
 20
4.196159195
 30
0.0
 10
3.0925770937
 20
4.1991042906
 30
0.0
 10
3.0941630778
 20
4.2022496273
 30
0.0
 10
3.0953820605
 20
4.20555981
 30
0.0
 10
3.0961989743
 20
4.2089937125
 30
0.0
 10
3.0966057902
 20
4.2124999263
 30
0.0
 10
3.0965924703
 20
4.2160273972
 30
0.0
 10
3.0961779011
 20
4.2195254853
 30
0.0
 10
3.0953789197
 20
4.222950396
 30
0.0
 10
3.0942283279
 20
4.2262666121
 30
0.0
 10
3.0927591319
 20
4.229447303
 30
0.0
 10
3.0910070855
 20
4.2324712857
 30
0.0
 10
3.0896726552
 20
4.2343780431
 30
0.0
 10
3.0889697798
 20
4.2353013063
 30
0.0
  0
SPLINE
  5
295
100
AcDbEntity
  8
ALL_ASSEMBLY_MEMBERS
100
AcDbSpline
 62
7
  6
CONTINUOUS
 70
0
 71
3
 72
21
 73
17
 74
0
 42
0.0000001
 43
0.0000001
 44
0.0000000001
 40
0.0
 40
0.0
 40
0.0
 40
0.0
 40
0.1195420859
 40
0.1809004099
 40
0.243232843
 40
0.3064605852
 40
0.3704969434
 40
0.4350942313
 40
0.5000000047
 40
0.5649057779
 40
0.6295030642
 40
0.6935394209
 40
0.7567671624
 40
0.8190995941
 40
0.8804579169
 40
1.0
 40
1.0
 40
1.0
 40
1.0
 10
2.4857631887
 20
4.2915971193
 30
0.0
 10
2.4846077644
 20
4.2934236211
 30
0.0
 10
2.4830797203
 20
4.2963379386
 30
0.0
 10
2.4815561426
 20
4.3004676022
 30
0.0
 10
2.4806760286
 20
4.3037356592
 30
0.0
 10
2.4800963517
 20
4.3071193125
 30
0.0
 10
2.4798430902
 20
4.3105843181
 30
0.0
 10
2.4799288244
 20
4.3140881393
 30
0.0
 10
2.4803677812
 20
4.3175813674
 30
0.0
 10
2.4811500512
 20
4.3210140601
 30
0.0
 10
2.4822678647
 20
4.3243358979
 30
0.0
 10
2.4836909545
 20
4.3275053174
 30
0.0
 10
2.4853929502
 20
4.3304866503
 30
0.0
 10
2.4873377281
 20
4.3332566025
 30
0.0
 10
2.490181851
 20
4.3366161226
 30
0.0
 10
2.4926144979
 20
4.3388320633
 30
0.0
 10
2.494324942
 20
4.3401532351
 30
0.0
  0
SPLINE
  5
296
100
AcDbEntity
  8
ALL_ASSEMBLY_MEMBERS
100
AcDbSpline
 62
7
  6
CONTINUOUS
 70
0
 71
3
 72
21
 73
17
 74
0
 42
0.0000001
 43
0.0000001
 44
0.0000000001
 40
0.0
 40
0.0
 40
0.0
 40
0.0
 40
0.1237056896
 40
0.185980995
 40
0.2484559472
 40
0.3111110876
 40
0.3739686031
 40
0.4369472422
 40
0.5000000039
 40
0.5630527656
 40
0.6260314034
 40
0.6888889176
 40
0.7515440575
 40
0.8140190085
 40
0.8762943128
 40
1.0
 40
1.0
 40
1.0
 40
1.0
 10
3.0925590655
 20
4.1846026345
 30
0.0
 10
3.0944857017
 20
4.1858649207
 30
0.0
 10
3.0972388156
 20
4.1880023112
 30
0.0
 10
3.1004737652
 20
4.1913167082
 30
0.0
 10
3.1026591399
 20
4.1940449468
 30
0.0
 10
3.1045565937
 20
4.1969940889
 30
0.0
 10
3.1061243152
 20
4.2001421474
 30
0.0
 10
3.1073319206
 20
4.2034536059
 30
0.0
 10
3.1081449299
 20
4.2068873182
 30
0.0
 10
3.1085553497
 20
4.2103920179
 30
0.0
 10
3.1085531574
 20
4.2139167964
 30
0.0
 10
3.1081566804
 20
4.2174111959
 30
0.0
 10
3.1073823231
 20
4.2208314503
 30
0.0
 10
3.1062618551
 20
4.2241425981
 30
0.0
 10
3.1043555875
 20
4.2283635304
 30
0.0
 10
3.1024995373
 20
4.2313136409
 30
0.0
 10
3.1011208188
 20
4.2331587502
 30
0.0
  0
SPLINE
  5
297
100
AcDbEntity
  8
ALL_ASSEMBLY_MEMBERS
100
AcDbSpline
 62
7
  6
CONTINUOUS
 70
0
 71
3
 72
21
 73
17
 74
0
 42
0.0000001
 43
0.0000001
 44
0.0000000001
 40
0.0
 40
0.0
 40
0.0
 40
0.0
 40
0.1233860607
 40
0.1855896564
 40
0.2480523547
 40
0.3107507508
 40
0.3736990318
 40
0.4368031614
 40
0.5000000045
 40
0.5631968477
 40
0.6263009757
 40
0.6892492552
 40
0.7519476506
 40
0.8144103477
 40
0.8766139421
 40
1.0
 40
1.0
 40
1.0
 40
1.0
 10
2.5157774092
 20
4.2863048024
 30
0.0
 10
2.5144155802
 20
4.2881484153
 30
0.0
 10
2.5125843923
 20
4.2910958389
 30
0.0
 10
2.5107074517
 20
4.2953098704
 30
0.0
 10
2.5096053231
 20
4.2986177624
 30
0.0
 10
2.5088458373
 20
4.3020352426
 30
0.0
 10
2.5084603127
 20
4.3055273967
 30
0.0
 10
2.5084648486
 20
4.3090505538
 30
0.0
 10
2.5088774496
 20
4.3125543437
 30
0.0
 10
2.5096880983
 20
4.315987947
 30
0.0
 10
2.5108888266
 20
4.3193001831
 30
0.0
 10
2.5124454883
 20
4.3224498772
 30
0.0
 10
2.5143280185
 20
4.3254014986
 30
0.0
 10
2.5164950464
 20
4.3281329501
 30
0.0
 10
2.5197000772
 20
4.3314508929
 30
0.0
 10
2.5224289091
 20
4.3335942618
 30
0.0
 10
2.5243391625
 20
4.3348609182
 30
0.0
  0
SPLINE
  5
298
100
AcDbEntity
  8
ALL_ASSEMBLY_MEMBERS
100
AcDbSpline
 62
7
  6
CONTINUOUS
 70
0
 71
3
 72
21
 73
17
 74
0
 42
0.0000001
 43
0.0000001
 44
0.0000000001
 40
0.0
 40
0.0
 40
0.0
 40
0.0
 40
0.1230261488
 40
0.1851492558
 40
0.2475984169
 40
0.3103456627
 40
0.3733960975
 40
0.4366412875
 40
0.5000000039
 40
0.5633587203
 40
0.626603909
 40
0.6896543426
 40
0.7524015879
 40
0.8148507478
 40
0.8769738536
 40
1.0
 40
1.0
 40
1.0
 40
1.0
 10
3.1032208495
 20
4.1827226743
 30
0.0
 10
3.1051126283
 20
4.1839942777
 30
0.0
 10
3.1078140742
 20
4.1861443866
 30
0.0
 10
3.1109854191
 20
4.1894663026
 30
0.0
 10
3.1131317766
 20
4.1922013674
 30
0.0
 10
3.1149974971
 20
4.1951557769
 30
0.0
 10
3.1165417048
 20
4.1983073122
 30
0.0
 10
3.1177346915
 20
4.2016204267
 30
0.0
 10
3.118542684
 20
4.2050539136
 30
0.0
 10
3.118957741
 20
4.2085566856
 30
0.0
 10
3.1189698521
 20
4.2120780203
 30
0.0
 10
3.11859666
 20
4.2155676448
 30
0.0
 10
3.1178539239
 20
4.2189819957
 30
0.0
 10
3.1167724547
 20
4.2222862133
 30
0.0
 10
3.1149285276
 20
4.226492457
 30
0.0
 10
3.1131253794
 20
4.2294368473
 30
0.0
 10
3.1117826028
 20
4.2312787901
 30
0.0
  0
SPLINE
  5
299
100
AcDbEntity
  8
ALL_ASSEMBLY_MEMBERS
100
AcDbSpline
 62
7
  6
CONTINUOUS
 70
0
 71
3
 72
21
 73
17
 74
0
 42
0.0000001
 43
0.0000001
 44
0.0000000001
 40
0.0
 40
0.0
 40
0.0
 40
0.0
 40
0.1221998827
 40
0.1841392548
 40
0.2465583918
 40
0.309418354
 40
0.3727030995
 40
0.4362711423
 40
0.5000000039
 40
0.5637288655
 40
0.627296907
 40
0.6905816512
 40
0.7534416129
 40
0.8158607488
 40
0.8778001197
 40
1.0
 40
1.0
 40
1.0
 40
1.0
 10
3.1123377908
 20
4.1811151115
 30
0.0
 10
3.1141870236
 20
4.182398182
 30
0.0
 10
3.1168253914
 20
4.1845637994
 30
0.0
 10
3.1199193826
 20
4.1878947638
 30
0.0
 10
3.1220182207
 20
4.1906381095
 30
0.0
 10
3.1238453121
 20
4.193598908
 30
0.0
 10
3.1253609139
 20
4.1967546692
 30
0.0
 10
3.1265361277
 20
4.2000698136
 30
0.0
 10
3.1273380275
 20
4.2035030573
 30
0.0
 10
3.1277587266
 20
4.2070035169
 30
0.0
 10
3.127788233
 20
4.2105206803
 30
0.0
 10
3.127443367
 20
4.2140044921
 30
0.0
 10
3.1267391154
 20
4.2174116347
 30
0.0
 10
3.1257051322
 20
4.2207073812
 30
0.0
 10
3.1239369885
 20
4.2248956711
 30
0.0
 10
3.1221984185
 20
4.2278330606
 30
0.0
 10
3.1208995441
 20
4.2296712273
 30
0.0
  0
SPLINE
  5
29A
100
AcDbEntity
  8
ALL_ASSEMBLY_MEMBERS
100
AcDbSpline
 62
7
  6
CONTINUOUS
 70
0
 71
3
 72
23
 73
19
 74
0
 42
0.0000001
 43
0.0000001
 44
0.0000000001
 40
0.0
 40
0.0
 40
0.0
 40
0.0
 40
0.0619225739
 40
0.1240755691
 40
0.186400765
 40
0.2488727841
 40
0.3114753854
 40
0.3742378051
 40
0.4370902185
 40
0.4999999992
 40
0.5629097799
 40
0.6257621936
 40
0.6885246135
 40
0.751127215
 40
0.8135992344
 40
0.8759244305
 40
0.938077426
 40
1.0
 40
1.0
 40
1.0
 40
1.0
 10
2.5271945013
 20
4.2842916611
 30
0.0
 10
2.5264982948
 20
4.2852140177
 30
0.0
 10
2.5251767655
 20
4.2871191462
 30
0.0
 10
2.5234430113
 20
4.29014002
 30
0.0
 10
2.5219901196
 20
4.2933179085
 30
0.0
 10
2.5208535128
 20
4.2966316558
 30
0.0
 10
2.5200658706
 20
4.3000544605
 30
0.0
 10
2.5196596643
 20
4.3035508372
 30
0.0
 10
2.5196514816
 20
4.3070770613
 30
0.0
 10
2.5200599566
 20
4.3105825657
 30
0.0
 10
2.5208750687
 20
4.314016369
 30
0.0
 10
2.5220887977
 20
4.3173271372
 30
0.0
 10
2.523666338
 20
4.3204737258
 30
0.0
 10
2.5255771477
 20
4.3234207206
 30
0.0
 10
2.5277785771
 20
4.3261458821
 30
0.0
 10
2.5302307505
 20
4.3286352023
 30
0.0
 10
2.5328931463
 20
4.3308809163
 30
0.0
 10
2.5347865699
 20
4.3322191618
 30
0.0
 10
2.5357562546
 20
4.3328477769
 30
0.0
  0
SPLINE
  5
29B
100
AcDbEntity
  8
ALL_ASSEMBLY_MEMBERS
100
AcDbSpline
 62
7
  6
CONTINUOUS
 70
0
 71
3
 72
21
 73
17
 74
0
 42
0.0000001
 43
0.0000001
 44
0.0000000001
 40
0.0
 40
0.0
 40
0.0
 40
0.0
 40
0.1212332346
 40
0.1829595123
 40
0.2453453771
 40
0.3083381948
 40
0.3718966799
 40
0.4358406915
 40
0.500000004
 40
0.5641593164
 40
0.6281033267
 40
0.6916618105
 40
0.7546546276
 40
0.8170404912
 40
0.8787667678
 40
1.0
 40
1.0
 40
1.0
 40
1.0
 10
3.1198623565
 20
4.1797883276
 30
0.0
 10
3.121661512
 20
4.1810850259
 30
0.0
 10
3.1242256321
 20
4.1832688596
 30
0.0
 10
3.1272290065
 20
4.1866102945
 30
0.0
 10
3.1292720768
 20
4.1893633132
 30
0.0
 10
3.1310538604
 20
4.1923315749
 30
0.0
 10
3.1325359346
 20
4.195492286
 30
0.0
 10
3.1336903326
 20
4.1988098324
 30
0.0
 10
3.1344851055
 20
4.2022428346
 30
0.0
 10
3.1349124191
 20
4.2057406297
 30
0.0
 10
3.1349623075
 20
4.209252931
 30
0.0
 10
3.1346506401
 20
4.212729927
 30
0.0
 10
3.1339915165
 20
4.2161285864
 30
0.0
 10
3.1330132462
 20
4.2194143489
 30
0.0
 10
3.1313338356
 20
4.223581485
 30
0.0
 10
3.1296712659
 20
4.2265105982
 30
0.0
 10
3.1284241098
 20
4.2283444434
 30
0.0
  0
SPLINE
  5
29C
100
AcDbEntity
  8
ALL_ASSEMBLY_MEMBERS
100
AcDbSpline
 62
7
  6
CONTINUOUS
 70
0
 71
3
 72
21
 73
17
 74
0
 42
0.0000001
 43
0.0000001
 44
0.0000000001
 40
0.0
 40
0.0
 40
0.0
 40
0.0
 40
0.1207022241
 40
0.1823122995
 40
0.2446807347
 40
0.30774698
 40
0.3714556588
 40
0.4356054076
 40
0.5000000046
 40
0.5643946016
 40
0.6285443488
 40
0.692253026
 40
0.7553192707
 40
0.8176877045
 40
0.8792977786
 40
1.0
 40
1.0
 40
1.0
 40
1.0
 10
2.4908319007
 20
4.2907033686
 30
0.0
 10
2.4896133559
 20
4.2925348804
 30
0.0
 10
2.4879927873
 20
4.295459397
 30
0.0
 10
2.4863622003
 20
4.2996148354
 30
0.0
 10
2.4854146392
 20
4.3028950743
 30
0.0
 10
2.4847803793
 20
4.3062890467
 30
0.0
 10
2.4844869959
 20
4.3097622887
 30
0.0
 10
2.4845481073
 20
4.3132719249
 30
0.0
 10
2.4849790648
 20
4.3167682737
 30
0.0
 10
2.485769919
 20
4.320201163
 30
0.0
 10
2.4869128593
 20
4.3235200436
 30
0.0
 10
2.4883764683
 20
4.3266834803
 30
0.0
 10
2.4901332845
 20
4.3296558414
 30
0.0
 10
2.4921456085
 20
4.3324141726
 30
0.0
 10
2.4950991026
 20
4.3357613138
 30
0.0
 10
2.4976221826
 20
4.3379551932
 30
0.0
 10
2.499393654
 20
4.3392594844
 30
0.0
  0
SPLINE
  5
29D
100
AcDbEntity
  8
ALL_ASSEMBLY_MEMBERS
100
AcDbSpline
 62
7
  6
CONTINUOUS
 70
0
 71
3
 72
21
 73
17
 74
0
 42
0.0000001
 43
0.0000001
 44
0.0000000001
 40
0.0
 40
0.0
 40
0.0
 40
0.0
 40
0.1201347371
 40
0.1816213012
 40
0.243971769
 40
0.3071168281
 40
0.3709858726
 40
0.4353548715
 40
0.500000004
 40
0.5646451365
 40
0.629014134
 40
0.6928831772
 40
0.7560282357
 40
0.8183787023
 40
0.8798652653
 40
1.0
 40
1.0
 40
1.0
 40
1.0
 10
3.1257553156
 20
4.1787492399
 30
0.0
 10
3.1274970371
 20
4.1800617362
 30
0.0
 10
3.129976024
 20
4.1822663863
 30
0.0
 10
3.1328760971
 20
4.1856195961
 30
0.0
 10
3.1348554517
 20
4.188383608
 30
0.0
 10
3.1365855049
 20
4.191360354
 30
0.0
 10
3.1380293285
 20
4.1945267117
 30
0.0
 10
3.139159997
 20
4.1978470311
 30
0.0
 10
3.1399466569
 20
4.2012798157
 30
0.0
 10
3.1403815198
 20
4.2047746316
 30
0.0
 10
3.1404546551
 20
4.2082814226
 30
0.0
 10
3.1401808628
 20
4.2117506422
 30
0.0
 10
3.1395732516
 20
4.2151395814
 30
0.0
 10
3.1386586144
 20
4.2184138821
 30
0.0
 10
3.1370803025
 20
4.222556752
 30
0.0
 10
3.1355048516
 20
4.2254763088
 30
0.0
 10
3.1343170689
 20
4.2273053557
 30
0.0
  0
SPLINE
  5
29E
100
AcDbEntity
  8
ALL_ASSEMBLY_MEMBERS
100
AcDbSpline
 62
7
  6
CONTINUOUS
 70
0
 71
3
 72
23
 73
19
 74
0
 42
0.0000001
 43
0.0000001
 44
0.0000000001
 40
0.0
 40
0.0
 40
0.0
 40
0.0
 40
0.0621883154
 40
0.1245270869
 40
0.1869538939
 40
0.2494435598
 40
0.3119853148
 40
0.3746194984
 40
0.4372942783
 40
0.5000000045
 40
0.5627057307
 40
0.625380509
 40
0.6880146912
 40
0.7505564456
 40
0.8130461101
 40
0.8754729159
 40
0.9378116855
 40
1.0
 40
1.0
 40
1.0
 40
1.0
 10
2.5400699856
 20
4.2820213658
 30
0.0
 10
2.5393614476
 20
4.2829454
 30
0.0
 10
2.5380160634
 20
4.2848535411
 30
0.0
 10
2.5362484787
 20
4.2878801621
 30
0.0
 10
2.5347654334
 20
4.2910632359
 30
0.0
 10
2.5336029604
 20
4.2943815533
 30
0.0
 10
2.5327943397
 20
4.2978082556
 30
0.0
 10
2.532372668
 20
4.3013077986
 30
0.0
 10
2.5323549834
 20
4.3048363256
 30
0.0
 10
2.532760385
 20
4.3083431378
 30
0.0
 10
2.5335788326
 20
4.3117771189
 30
0.0
 10
2.5348022779
 20
4.3150868011
 30
0.0
 10
2.5363954341
 20
4.3182310755
 30
0.0
 10
2.5383272901
 20
4.3211745577
 30
0.0
 10
2.5405545887
 20
4.3238951668
 30
0.0
 10
2.5430368708
 20
4.3263790463
 30
0.0
 10
2.5457330224
 20
4.3286185902
 30
0.0
 10
2.5476498926
 20
4.3299515078
 30
0.0
 10
2.5486317389
 20
4.3305774816
 30
0.0
  0
SPLINE
  5
29F
100
AcDbEntity
  8
ALL_ASSEMBLY_MEMBERS
100
AcDbSpline
 62
7
  6
CONTINUOUS
 70
0
 71
3
 72
21
 73
17
 74
0
 42
0.0000001
 43
0.0000001
 44
0.0000000001
 40
0.0
 40
0.0
 40
0.0
 40
0.0
 40
0.1189156205
 40
0.1801392193
 40
0.2424533923
 40
0.305768943
 40
0.3699819755
 40
0.4348198223
 40
0.500000004
 40
0.5651801858
 40
0.6300180311
 40
0.6942310624
 40
0.7575466125
 40
0.8198607842
 40
0.8810843818
 40
1.0
 40
1.0
 40
1.0
 40
1.0
 10
3.129985944
 20
4.178003266
 30
0.0
 10
3.1316630608
 20
4.1793337354
 30
0.0
 10
3.1340463568
 20
4.1815616634
 30
0.0
 10
3.1368311158
 20
4.1849278308
 30
0.0
 10
3.1387391533
 20
4.1877040763
 30
0.0
 10
3.1404113471
 20
4.1906902709
 30
0.0
 10
3.141812423
 20
4.1938629433
 30
0.0
 10
3.1429165937
 20
4.1971864058
 30
0.0
 10
3.1436942082
 20
4.2006190213
 30
0.0
 10
3.1441375132
 20
4.2041105846
 30
0.0
 10
3.1442366232
 20
4.2076112663
 30
0.0
 10
3.1440051603
 20
4.2110717993
 30
0.0
 10
3.143455151
 20
4.2144498283
 30
0.0
 10
3.142611714
 20
4.2177112328
 30
0.0
 10
3.1411461937
 20
4.2218268391
 30
0.0
 10
3.1396686242
 20
4.2247355418
 30
0.0
 10
3.1385476973
 20
4.2265593818
 30
0.0
  0
SPLINE
  5
2A0
100
AcDbEntity
  8
ALL_ASSEMBLY_MEMBERS
100
AcDbSpline
 62
7
  6
CONTINUOUS
 70
0
 71
3
 72
21
 73
17
 74
0
 42
0.0000001
 43
0.0000001
 44
0.0000000001
 40
0.0
 40
0.0
 40
0.0
 40
0.0
 40
0.1182680982
 40
0.1793533476
 40
0.241649516
 40
0.3050562627
 40
0.3694517037
 40
0.4345373798
 40
0.5000000047
 40
0.5654626295
 40
0.630548304
 40
0.6949437434
 40
0.7583504894
 40
0.8206466564
 40
0.8817319046
 40
1.0
 40
1.0
 40
1.0
 40
1.0
 10
2.4823688797
 20
4.2921956276
 30
0.0
 10
2.481283969
 20
4.2940167424
 30
0.0
 10
2.4798590142
 20
4.2969195474
 30
0.0
 10
2.4784537719
 20
4.3010205092
 30
0.0
 10
2.4776484798
 20
4.3042749752
 30
0.0
 10
2.4771293151
 20
4.3076471463
 30
0.0
 10
2.4769205102
 20
4.3111030337
 30
0.0
 10
2.4770335219
 20
4.3146004676
 30
0.0
 10
2.4774813482
 20
4.3180903235
 30
0.0
 10
2.4782541302
 20
4.3215228808
 30
0.0
 10
2.4793441268
 20
4.3248480459
 30
0.0
 10
2.4807223223
 20
4.3280241021
 30
0.0
 10
2.482363528
 20
4.3310153417
 30
0.0
 10
2.484233348
 20
4.3337981132
 30
0.0
 10
2.4869564552
 20
4.3371711354
 30
0.0
 10
2.4892882925
 20
4.3394115165
 30
0.0
 10
2.490930633
 20
4.3407517434
 30
0.0
  0
SPLINE
  5
2A1
100
AcDbEntity
  8
ALL_ASSEMBLY_MEMBERS
100
AcDbSpline
 62
7
  6
CONTINUOUS
 70
0
 71
3
 72
21
 73
17
 74
0
 42
0.0000001
 43
0.0000001
 44
0.0000000001
 40
0.0
 40
0.0
 40
0.0
 40
0.0
 40
0.1175903747
 40
0.1785318086
 40
0.2408100717
 40
0.3043127329
 40
0.3688988624
 40
0.4342430435
 40
0.5000000041
 40
0.5657569646
 40
0.6311011443
 40
0.6956872725
 40
0.7591899331
 40
0.8214681949
 40
0.8824096276
 40
1.0
 40
1.0
 40
1.0
 40
1.0
 10
3.1325321843
 20
4.1775542951
 30
0.0
 10
3.1341377156
 20
4.1789049078
 30
0.0
 10
3.1364151391
 20
4.1811584002
 30
0.0
 10
3.1390733342
 20
4.184538591
 30
0.0
 10
3.1409028449
 20
4.1873282244
 30
0.0
 10
3.1425113796
 20
4.1903247728
 30
0.0
 10
3.143865462
 20
4.1935043997
 30
0.0
 10
3.144940527
 20
4.1968313753
 30
0.0
 10
3.1457082225
 20
4.2002638963
 30
0.0
 10
3.1461608159
 20
4.2037519782
 30
0.0
 10
3.146288478
 20
4.2072460064
 30
0.0
 10
3.1461035531
 20
4.2106970018
 30
0.0
 10
3.1456169049
 20
4.2140629873
 30
0.0
 10
3.1448518379
 20
4.2173101148
 30
0.0
 10
3.143510045
 20
4.2213956113
 30
0.0
 10
3.1421407067
 20
4.2242921261
 30
0.0
 10
3.1410939376
 20
4.2261104109
 30
0.0
  0
SPLINE
  5
2A2
100
AcDbEntity
  8
ALL_ASSEMBLY_MEMBERS
100
AcDbSpline
 62
7
  6
CONTINUOUS
 70
0
 71
3
 72
23
 73
19
 74
0
 42
0.0000001
 43
0.0000001
 44
0.0000000001
 40
0.0
 40
0.0
 40
0.0
 40
0.0
 40
0.0623621585
 40
0.1248226447
 40
0.1873162828
 40
0.2498178769
 40
0.3123199915
 40
0.3748701602
 40
0.4374283529
 40
0.5000000045
 40
0.5625716561
 40
0.6251298471
 40
0.6876800145
 40
0.7501821284
 40
0.8126837213
 40
0.8751773581
 40
0.9376378425
 40
1.0
 40
1.0
 40
1.0
 40
1.0
 10
2.5543367329
 20
4.2795057533
 30
0.0
 10
2.5536201256
 20
4.2804308891
 30
0.0
 10
2.5522591342
 20
4.2823410061
 30
0.0
 10
2.5504694007
 20
4.2853713853
 30
0.0
 10
2.5489666127
 20
4.2885578521
 30
0.0
 10
2.5477872008
 20
4.2918791612
 30
0.0
 10
2.5469648355
 20
4.2953084149
 30
0.0
 10
2.546533034
 20
4.298810032
 30
0.0
 10
2.546509124
 20
4.302340067
 30
0.0
 10
2.5469125086
 20
4.3058477366
 30
0.0
 10
2.5477331448
 20
4.3092818334
 30
0.0
 10
2.5489629559
 20
4.3125908035
 30
0.0
 10
2.5505663402
 20
4.3157335623
 30
0.0
 10
2.5525119846
 20
4.3186747412
 30
0.0
 10
2.5547562239
 20
4.3213923681
 30
0.0
 10
2.5572582184
 20
4.3238726837
 30
0.0
 10
2.5599764685
 20
4.3261081836
 30
0.0
 10
2.5619086805
 20
4.32743762
 30
0.0
 10
2.5628984862
 20
4.3280618691
 30
0.0
  0
SPLINE
  5
2A3
100
AcDbEntity
  8
ALL_ASSEMBLY_MEMBERS
100
AcDbSpline
 62
7
  6
CONTINUOUS
 70
0
 71
3
 72
21
 73
17
 74
0
 42
0.0000001
 43
0.0000001
 44
0.0000000001
 40
0.0
 40
0.0
 40
0.0
 40
0.0
 40
0.1217357325
 40
0.183572534
 40
0.2459754471
 40
0.3088990707
 40
0.3723153084
 40
0.436064111
 40
0.5000000046
 40
0.5639358981
 40
0.6276846991
 40
0.6911009353
 40
0.7540245583
 40
0.81642747
 40
0.8782642703
 40
1.0
 40
1.0
 40
1.0
 40
1.0
 10
2.497548589
 20
4.2895190353
 30
0.0
 10
2.4962744939
 20
4.2913551146
 30
0.0
 10
2.4945723488
 20
4.2942885435
 30
0.0
 10
2.4928467943
 20
4.2984666977
 30
0.0
 10
2.4918395361
 20
4.3017576611
 30
0.0
 10
2.4911569352
 20
4.3051607378
 30
0.0
 10
2.4908279989
 20
4.3086412796
 30
0.0
 10
2.4908672859
 20
4.3121561064
 30
0.0
 10
2.4912911586
 20
4.3156552813
 30
0.0
 10
2.4920896369
 20
4.3190884031
 30
0.0
 10
2.4932548608
 20
4.3224046968
 30
0.0
 10
2.4947543752
 20
4.3255628333
 30
0.0
 10
2.496559731
 20
4.328527216
 30
0.0
 10
2.4986318199
 20
4.3312752073
 30
0.0
 10
2.5016823236
 20
4.3346112136
 30
0.0
 10
2.5042851085
 20
4.3367855671
 30
0.0
 10
2.5061103423
 20
4.3380751511
 30
0.0
  0
SPLINE
  5
2A4
100
AcDbEntity
  8
ALL_ASSEMBLY_MEMBERS
100
AcDbSpline
 62
7
  6
CONTINUOUS
 70
0
 71
3
 72
23
 73
19
 74
0
 42
0.0000001
 43
0.0000001
 44
0.0000000001
 40
0.0
 40
0.0
 40
0.0
 40
0.0
 40
0.062443395
 40
0.1249608118
 40
0.1874857573
 40
0.2499929937
 40
0.3124766135
 40
0.3749874947
 40
0.4374911233
 40
0.5000000045
 40
0.5625088856
 40
0.6250125126
 40
0.6875233924
 40
0.7500070117
 40
0.8125142467
 40
0.875039191
 40
0.937556606
 40
1.0
 40
1.0
 40
1.0
 40
1.0
 10
2.5699203607
 20
4.2767579393
 30
0.0
 10
2.5691999819
 20
4.2776835911
 30
0.0
 10
2.5678316969
 20
4.2795946334
 30
0.0
 10
2.566031609
 20
4.2826267683
 30
0.0
 10
2.564519591
 20
4.28581482
 30
0.0
 10
2.5633322591
 20
4.2891375263
 30
0.0
 10
2.5625034664
 20
4.2925679718
 30
0.0
 10
2.5620669274
 20
4.2960705586
 30
0.0
 10
2.5620401055
 20
4.2996012997
 30
0.0
 10
2.5624425467
 20
4.3031093718
 30
0.0
 10
2.5632642071
 20
4.3065435243
 30
0.0
 10
2.564496996
 20
4.309852162
 30
0.0
 10
2.5661051638
 20
4.3129942117
 30
0.0
 10
2.5680572556
 20
4.3159343122
 30
0.0
 10
2.5703094151
 20
4.3186505432
 30
0.0
 10
2.5728206251
 20
4.3211291912
 30
0.0
 10
2.5755492056
 20
4.3233627997
 30
0.0
 10
2.5774885878
 20
4.3246906109
 30
0.0
 10
2.578482114
 20
4.3253140551
 30
0.0
  0
SPLINE
  5
2A5
100
AcDbEntity
  8
ALL_ASSEMBLY_MEMBERS
100
AcDbSpline
 62
7
  6
CONTINUOUS
 70
0
 71
3
 72
15
 73
11
 74
0
 42
0.0000001
 43
0.0000001
 44
0.0000000001
 40
0.0
 40
0.0
 40
0.0
 40
0.0
 40
0.1042683533
 40
0.224710933
 40
0.358465378
 40
0.4999999956
 40
0.6415346147
 40
0.7752890621
 40
0.8957316444
 40
1.0
 40
1.0
 40
1.0
 40
1.0
 10
2.5953013736
 20
4.3223483658
 30
0.0
 10
2.5950884024
 20
4.3206474294
 30
0.0
 10
2.5945982335
 20
4.316985588
 30
0.0
 10
2.5937391722
 20
4.3111550697
 30
0.0
 10
2.5927147933
 20
4.3047300723
 30
0.0
 10
2.591561269
 20
4.2979749554
 30
0.0
 10
2.5903348413
 20
4.2912326933
 30
0.0
 10
2.589099964
 20
4.2848448123
 30
0.0
 10
2.5879130628
 20
4.279072101
 30
0.0
 10
2.5871212473
 20
4.2754634479
 30
0.0
 10
2.5867396204
 20
4.27379225
 30
0.0
  0
SPLINE
  5
2A6
100
AcDbEntity
  8
ALL_ASSEMBLY_MEMBERS
100
AcDbSpline
 62
7
  6
CONTINUOUS
 70
0
 71
3
 72
23
 73
19
 74
0
 42
0.0000001
 43
0.0000001
 44
0.0000000001
 40
0.0
 40
0.0
 40
0.0
 40
0.0
 40
0.0624316876
 40
0.1249408977
 40
0.1874613284
 40
0.2499677489
 40
0.3124540329
 40
0.3749705772
 40
0.4374820725
 40
0.5000000045
 40
0.5625179364
 40
0.6250294302
 40
0.687545973
 40
0.7500322564
 40
0.8125386757
 40
0.8750591051
 40
0.9375683134
 40
1.0
 40
1.0
 40
1.0
 40
1.0
 10
2.5867396204
 20
4.27379225
 30
0.0
 10
2.5860197851
 20
4.2747178274
 30
0.0
 10
2.5846525513
 20
4.2766287363
 30
0.0
 10
2.5828539557
 20
4.2796606182
 30
0.0
 10
2.5813432681
 20
4.2828484415
 30
0.0
 10
2.5801570778
 20
4.2861709465
 30
0.0
 10
2.5793292116
 20
4.2896012202
 30
0.0
 10
2.5788933555
 20
4.2931036672
 30
0.0
 10
2.5788669533
 20
4.2966343065
 30
0.0
 10
2.5792695306
 20
4.3001423206
 30
0.0
 10
2.5800910432
 20
4.303576465
 30
0.0
 10
2.5813234029
 20
4.3068851506
 30
0.0
 10
2.5829308812
 20
4.3100273025
 30
0.0
 10
2.5848820436
 20
4.3129675585
 30
0.0
 10
2.5871330615
 20
4.3156839908
 30
0.0
 10
2.5896429432
 20
4.3181628792
 30
0.0
 10
2.5923700348
 20
4.3203967603
 30
0.0
 10
2.5943083837
 20
4.3217248057
 30
0.0
 10
2.5953013736
 20
4.3223483658
 30
0.0
  0
SPLINE
  5
2A7
100
AcDbEntity
  8
ALL_ASSEMBLY_MEMBERS
100
AcDbSpline
 62
7
  6
CONTINUOUS
 70
0
 71
3
 72
15
 73
11
 74
0
 42
0.0000001
 43
0.0000001
 44
0.0000000001
 40
0.0
 40
0.0
 40
0.0
 40
0.0
 40
0.1046038675
 40
0.2251055142
 40
0.3587171572
 40
0.4999999956
 40
0.6412828356
 40
0.7748944809
 40
0.8953961302
 40
1.0
 40
1.0
 40
1.0
 40
1.0
 10
2.6132685744
 20
4.3191802635
 30
0.0
 10
2.6131900615
 20
4.3174591067
 30
0.0
 10
2.6129405916
 20
4.3137587256
 30
0.0
 10
2.6123425108
 20
4.3078796624
 30
0.0
 10
2.6114855358
 20
4.3014226785
 30
0.0
 10
2.6103897173
 20
4.294654992
 30
0.0
 10
2.6091047648
 20
4.2879206549
 30
0.0
 10
2.6077016393
 20
4.2815599719
 30
0.0
 10
2.6062528933
 20
4.2758309038
 30
0.0
 10
2.6052217135
 20
4.2722683592
 30
0.0
 10
2.6047068211
 20
4.2706241477
 30
0.0
  0
SPLINE
  5
2A8
100
AcDbEntity
  8
ALL_ASSEMBLY_MEMBERS
100
AcDbSpline
 62
7
  6
CONTINUOUS
 70
0
 71
3
 72
23
 73
19
 74
0
 42
0.0000001
 43
0.0000001
 44
0.0000000001
 40
0.0
 40
0.0
 40
0.0
 40
0.0
 40
0.0623270841
 40
0.1247630007
 40
0.1872431369
 40
0.2497423084
 40
0.3122524139
 40
0.3748195399
 40
0.4374012745
 40
0.5000000045
 40
0.5625987344
 40
0.6251804675
 40
0.687747592
 40
0.7502576969
 40
0.8127568671
 40
0.8752370021
 40
0.9376729168
 40
1.0
 40
1.0
 40
1.0
 40
1.0
 10
2.6047068211
 20
4.2706241477
 30
0.0
 10
2.6039918419
 20
4.271549061
 30
0.0
 10
2.6026339995
 20
4.2734587789
 30
0.0
 10
2.6008487356
 20
4.2764883999
 30
0.0
 10
2.5993499319
 20
4.2796741824
 30
0.0
 10
2.5981739386
 20
4.2829948881
 30
0.0
 10
2.5973543474
 20
4.2864236271
 30
0.0
 10
2.5969245906
 20
4.2899248256
 30
0.0
 10
2.5969019373
 20
4.293454556
 30
0.0
 10
2.597305729
 20
4.2969620522
 30
0.0
 10
2.5981259233
 20
4.3003961253
 30
0.0
 10
2.5993544494
 20
4.303705239
 30
0.0
 10
2.6009557691
 20
4.3068483038
 30
0.0
 10
2.6028986307
 20
4.3097899478
 30
0.0
 10
2.6051394512
 20
4.3125081769
 30
0.0
 10
2.6076374677
 20
4.3149892121
 30
0.0
 10
2.6103512583
 20
4.3172255283
 30
0.0
 10
2.6122803748
 20
4.3185556667
 30
0.0
 10
2.6132685744
 20
4.3191802635
 30
0.0
  0
SPLINE
  5
2A9
100
AcDbEntity
  8
ALL_ASSEMBLY_MEMBERS
100
AcDbSpline
 62
7
  6
CONTINUOUS
 70
0
 71
3
 72
17
 73
13
 74
0
 42
0.0000001
 43
0.0000001
 44
0.0000000001
 40
0.0
 40
0.0
 40
0.0
 40
0.0
 40
0.0506068463
 40
0.1052307365
 40
0.2258397279
 40
0.3591853499
 40
0.4999999956
 40
0.6408146428
 40
0.7741602672
 40
0.8947692612
 40
0.9493931529
 40
1.0
 40
1.0
 40
1.0
 40
1.0
 10
2.6322900405
 20
4.3158262659
 30
0.0
 10
2.6323161011
 20
4.3149902126
 30
0.0
 10
2.6323413905
 20
4.3132507496
 30
0.0
 10
2.6322860992
 20
4.3095179272
 30
0.0
 10
2.6319946568
 20
4.3044233027
 30
0.0
 10
2.6313039885
 20
4.2979326641
 30
0.0
 10
2.630265144
 20
4.291150418
 30
0.0
 10
2.6289216737
 20
4.2844218856
 30
0.0
 10
2.6273507605
 20
4.2780864578
 30
0.0
 10
2.6258821625
 20
4.2731993974
 30
0.0
 10
2.6246574188
 20
4.2696727809
 30
0.0
 10
2.6240387233
 20
4.2680468699
 30
0.0
 10
2.6237282872
 20
4.2672701501
 30
0.0
  0
SPLINE
  5
2AA
100
AcDbEntity
  8
ALL_ASSEMBLY_MEMBERS
100
AcDbSpline
 62
7
  6
CONTINUOUS
 70
0
 71
3
 72
23
 73
19
 74
0
 42
0.0000001
 43
0.0000001
 44
0.0000000001
 40
0.0
 40
0.0
 40
0.0
 40
0.0
 40
0.0621300236
 40
0.1244280176
 40
0.1868324659
 40
0.2493181765
 40
0.3118732424
 40
0.3745355791
 40
0.4372493981
 40
0.5000000045
 40
0.5627506109
 40
0.6254644283
 40
0.6881267636
 40
0.7506818289
 40
0.8131675381
 40
0.8755719852
 40
0.9378699773
 40
1.0
 40
1.0
 40
1.0
 40
1.0
 10
2.6237282872
 20
4.2672701501
 30
0.0
 10
2.6230224546
 20
4.2681938157
 30
0.0
 10
2.6216823038
 20
4.2701012954
 30
0.0
 10
2.6199221435
 20
4.273126656
 30
0.0
 10
2.6184457156
 20
4.2763085916
 30
0.0
 10
2.6172889198
 20
4.2796259052
 30
0.0
 10
2.6164849052
 20
4.2830517517
 30
0.0
 10
2.6160666275
 20
4.2865505995
 30
0.0
 10
2.6160510288
 20
4.2900786217
 30
0.0
 10
2.6164571062
 20
4.2935851477
 30
0.0
 10
2.6172748208
 20
4.2970190909
 30
0.0
 10
2.6184961335
 20
4.3003290121
 30
0.0
 10
2.6200858625
 20
4.3034737941
 30
0.0
 10
2.6220130975
 20
4.3064180475
 30
0.0
 10
2.624234718
 20
4.3091396551
 30
0.0
 10
2.6267103925
 20
4.3116247283
 30
0.0
 10
2.6293991364
 20
4.3138656271
 30
0.0
 10
2.6313108626
 20
4.3151997131
 30
0.0
 10
2.6322900405
 20
4.3158262659
 30
0.0
  0
SPLINE
  5
2AB
100
AcDbEntity
  8
ALL_ASSEMBLY_MEMBERS
100
AcDbSpline
 62
7
  6
CONTINUOUS
 70
0
 71
3
 72
19
 73
15
 74
0
 42
0.0000001
 43
0.0000001
 44
0.0000000001
 40
0.0
 40
0.0
 40
0.0
 40
0.0
 40
0.0511443363
 40
0.1061081109
 40
0.1647682937
 40
0.2268880842
 40
0.3598540258
 40
0.4999999964
 40
0.6401459691
 40
0.7731119129
 40
0.8352317035
 40
0.8938918866
 40
0.9488556627
 40
1.0
 40
1.0
 40
1.0
 40
1.0
 10
2.6522665995
 20
4.3123038595
 30
0.0
 10
2.6523552386
 20
4.3114589281
 30
0.0
 10
2.6525005848
 20
4.3097017638
 30
0.0
 10
2.6526191405
 20
4.3069667206
 30
0.0
 10
2.6526372174
 20
4.3040467969
 30
0.0
 10
2.6525148969
 20
4.2998328255
 30
0.0
 10
2.6520665544
 20
4.2942779097
 30
0.0
 10
2.6510840171
 20
4.2874794889
 30
0.0
 10
2.6496821033
 20
4.2807550155
 30
0.0
 10
2.6482035143
 20
4.2753817598
 30
0.0
 10
2.6468771949
 20
4.2713800859
 30
0.0
 10
2.6458615355
 20
4.2686424378
 30
0.0
 10
2.6448146897
 20
4.2661128862
 30
0.0
 10
2.6440771233
 20
4.2645114032
 30
0.0
 10
2.6437048462
 20
4.2637477437
 30
0.0
  0
SPLINE
  5
2AC
100
AcDbEntity
  8
ALL_ASSEMBLY_MEMBERS
100
AcDbSpline
 62
7
  6
CONTINUOUS
 70
0
 71
3
 72
23
 73
19
 74
0
 42
0.0000001
 43
0.0000001
 44
0.0000000001
 40
0.0
 40
0.0
 40
0.0
 40
0.0
 40
0.0618418654
 40
0.1239390357
 40
0.1862334532
 40
0.2486999322
 40
0.3113206819
 40
0.3741218857
 40
0.4370282844
 40
0.5000000038
 40
0.562971723
 40
0.6258781196
 40
0.6886793215
 40
0.751300071
 40
0.8137665502
 40
0.8760609673
 40
0.9381581358
 40
1.0
 40
1.0
 40
1.0
 40
1.0
 10
2.6437048462
 20
4.2637477437
 30
0.0
 10
2.6430124043
 20
4.2646695972
 30
0.0
 10
2.6416981626
 20
4.2665738345
 30
0.0
 10
2.6399747426
 20
4.2695929805
 30
0.0
 10
2.6385310461
 20
4.2727692902
 30
0.0
 10
2.6374023666
 20
4.2760816361
 30
0.0
 10
2.6366211431
 20
4.2795032282
 30
0.0
 10
2.6362196721
 20
4.282998618
 30
0.0
 10
2.6362143953
 20
4.2865241223
 30
0.0
 10
2.6366238014
 20
4.2900292151
 30
0.0
 10
2.637437898
 20
4.2934629501
 30
0.0
 10
2.6386486499
 20
4.2967740357
 30
0.0
 10
2.640221403
 20
4.2999213163
 30
0.0
 10
2.6421257664
 20
4.302869367
 30
0.0
 10
2.6443192672
 20
4.3055959228
 30
0.0
 10
2.64676226
 20
4.3080869043
 30
0.0
 10
2.6494143538
 20
4.3103345291
 30
0.0
 10
2.6513006245
 20
4.3116744297
 30
0.0
 10
2.6522665995
 20
4.3123038595
 30
0.0
  0
SPLINE
  5
2AD
100
AcDbEntity
  8
ALL_ASSEMBLY_MEMBERS
100
AcDbSpline
 62
7
  6
CONTINUOUS
 70
0
 71
3
 72
19
 73
15
 74
0
 42
0.0000001
 43
0.0000001
 44
0.0000000001
 40
0.0
 40
0.0
 40
0.0
 40
0.0
 40
0.0518144835
 40
0.1072043712
 40
0.1660676091
 40
0.2281923087
 40
0.3606888646
 40
0.4999999957
 40
0.6393111282
 40
0.7718076864
 40
0.8339323875
 40
0.8927956265
 40
0.9481855157
 40
1.0
 40
1.0
 40
1.0
 40
1.0
 10
2.6730940994
 20
4.3086314093
 30
0.0
 10
2.6732437158
 20
4.3077783074
 30
0.0
 10
2.6735063827
 20
4.3060047618
 30
0.0
 10
2.6737806961
 20
4.3032414351
 30
0.0
 10
2.6739368742
 20
4.300296229
 30
0.0
 10
2.6739753274
 20
4.2960580617
 30
0.0
 10
2.6736651664
 20
4.2904777494
 30
0.0
 10
2.6727377044
 20
4.2836613596
 30
0.0
 10
2.6712778909
 20
4.2769388378
 30
0.0
 10
2.6696607678
 20
4.271588978
 30
0.0
 10
2.668175095
 20
4.2676195552
 30
0.0
 10
2.6670210157
 20
4.2649053828
 30
0.0
 10
2.665818132
 20
4.2624025257
 30
0.0
 10
2.6649647176
 20
4.2608257754
 30
0.0
 10
2.6645323461
 20
4.2600752936
 30
0.0
  0
SPLINE
  5
2AE
100
AcDbEntity
  8
ALL_ASSEMBLY_MEMBERS
100
AcDbSpline
 62
7
  6
CONTINUOUS
 70
0
 71
3
 72
21
 73
17
 74
0
 42
0.0000001
 43
0.0000001
 44
0.0000000001
 40
0.0
 40
0.0
 40
0.0
 40
0.0
 40
0.123210255
 40
0.1853745003
 40
0.2478305519
 40
0.3105527908
 40
0.3735509775
 40
0.4367240431
 40
0.5000000045
 40
0.5632759659
 40
0.6264490299
 40
0.6894472152
 40
0.7521694535
 40
0.8146255037
 40
0.8767897477
 40
1.0
 40
1.0
 40
1.0
 40
1.0
 10
2.6645323461
 20
4.2600752936
 30
0.0
 10
2.6631798188
 20
4.2619180887
 30
0.0
 10
2.6613623213
 20
4.2648640317
 30
0.0
 10
2.6595015076
 20
4.2690742615
 30
0.0
 10
2.6584094691
 20
4.2723803599
 30
0.0
 10
2.6576581643
 20
4.2757963122
 30
0.0
 10
2.6572786637
 20
4.2792872309
 30
0.0
 10
2.6572868998
 20
4.2828094973
 30
0.0
 10
2.6577007005
 20
4.2863127892
 30
0.0
 10
2.6585100515
 20
4.2897463348
 30
0.0
 10
2.6597069981
 20
4.2930589995
 30
0.0
 10
2.6612575766
 20
4.296209593
 30
0.0
 10
2.6631318967
 20
4.2991625769
 30
0.0
 10
2.6652888294
 20
4.3018957938
 30
0.0
 10
2.6684774056
 20
4.3052156799
 30
0.0
 10
2.6711928664
 20
4.30736234
 30
0.0
 10
2.6730940994
 20
4.3086314093
 30
0.0
  0
SPLINE
  5
2AF
100
AcDbEntity
  8
ALL_ASSEMBLY_MEMBERS
100
AcDbSpline
 62
7
  6
CONTINUOUS
 70
0
 71
3
 72
15
 73
11
 74
0
 42
0.0000001
 43
0.0000001
 44
0.0000000001
 40
0.0
 40
0.0
 40
0.0
 40
0.0
 40
0.1084535296
 40
0.2296693496
 40
0.3616426436
 40
0.4999999957
 40
0.6383573493
 40
0.7703306455
 40
0.8915464681
 40
1.0
 40
1.0
 40
1.0
 40
1.0
 10
2.6946639517
 20
4.3048280624
 30
0.0
 10
2.695094141
 20
4.3030534154
 30
0.0
 10
2.6957723252
 20
4.2992365786
 30
0.0
 10
2.6961926249
 20
4.2931519604
 30
0.0
 10
2.6959870886
 20
4.2865518712
 30
0.0
 10
2.695113359
 20
4.279715928
 30
0.0
 10
2.693596366
 20
4.2729934096
 30
0.0
 10
2.6915321436
 20
4.2667210568
 30
0.0
 10
2.689056129
 20
4.2611471367
 30
0.0
 10
2.6871134092
 20
4.2577924359
 30
0.0
 10
2.6861021984
 20
4.2562719466
 30
0.0
  0
SPLINE
  5
2B0
100
AcDbEntity
  8
ALL_ASSEMBLY_MEMBERS
100
AcDbSpline
 62
7
  6
CONTINUOUS
 70
0
 71
3
 72
21
 73
17
 74
0
 42
0.0000001
 43
0.0000001
 44
0.0000000001
 40
0.0
 40
0.0
 40
0.0
 40
0.0
 40
0.1224202037
 40
0.1844084259
 40
0.2468354268
 40
0.3096652571
 40
0.3728875534
 40
0.4363696423
 40
0.5000000046
 40
0.5636303668
 40
0.6271124541
 40
0.6903347488
 40
0.7531645786
 40
0.8155915781
 40
0.877579799
 40
1.0
 40
1.0
 40
1.0
 40
1.0
 10
2.6861021984
 20
4.2562719466
 30
0.0
 10
2.684791593
 20
4.2581111125
 30
0.0
 10
2.6830357725
 20
4.2610503747
 30
0.0
 10
2.6812474194
 20
4.2652434628
 30
0.0
 10
2.6802007644
 20
4.2685414734
 30
0.0
 10
2.679486245
 20
4.2719505417
 30
0.0
 10
2.679133823
 20
4.2754359044
 30
0.0
 10
2.6791586896
 20
4.2789541786
 30
0.0
 10
2.6795778836
 20
4.2824552516
 30
0.0
 10
2.6803814076
 20
4.2858885567
 30
0.0
 10
2.6815613613
 20
4.2892031578
 30
0.0
 10
2.683084594
 20
4.292357792
 30
0.0
 10
2.6849219926
 20
4.2953168881
 30
0.0
 10
2.6870335126
 20
4.2980580272
 30
0.0
 10
2.6901481353
 20
4.3013865884
 30
0.0
 10
2.6928033538
 20
4.3035480652
 30
0.0
 10
2.6946639517
 20
4.3048280624
 30
0.0
  0
SPLINE
  5
2B1
100
AcDbEntity
  8
ALL_ASSEMBLY_MEMBERS
100
AcDbSpline
 62
7
  6
CONTINUOUS
 70
0
 71
3
 72
17
 73
13
 74
0
 42
0.0000001
 43
0.0000001
 44
0.0000000001
 40
0.0
 40
0.0
 40
0.0
 40
0.0
 40
0.1098397414
 40
0.2313183067
 40
0.3626825712
 40
0.4309429368
 40
0.4999999957
 40
0.5690570547
 40
0.6373174218
 40
0.7686816885
 40
0.8901602563
 40
1.0
 40
1.0
 40
1.0
 40
1.0
 10
2.7168636973
 20
4.3009136483
 30
0.0
 10
2.7174091232
 20
4.2991302974
 30
0.0
 10
2.7183026245
 20
4.2952933005
 30
0.0
 10
2.7189661364
 20
4.2891581659
 30
0.0
 10
2.7189243137
 20
4.283693579
 30
0.0
 10
2.7185122574
 20
4.2791485942
 30
0.0
 10
2.7179991836
 20
4.2756805397
 30
0.0
 10
2.7172951708
 20
4.2722461529
 30
0.0
 10
2.7161279006
 20
4.2678343326
 30
0.0
 10
2.7142982024
 20
4.2626849962
 30
0.0
 10
2.7115763655
 20
4.2571467899
 30
0.0
 10
2.7094244187
 20
4.2538467875
 30
0.0
 10
2.708301944
 20
4.2523575325
 30
0.0
  0
SPLINE
  5
2B2
100
AcDbEntity
  8
ALL_ASSEMBLY_MEMBERS
100
AcDbSpline
 62
7
  6
CONTINUOUS
 70
0
 71
3
 72
21
 73
17
 74
0
 42
0.0000001
 43
0.0000001
 44
0.0000000001
 40
0.0
 40
0.0
 40
0.0
 40
0.0
 40
0.1214879951
 40
0.1832702394
 40
0.2456646808
 40
0.3086223827
 40
0.3721087643
 40
0.4359538701
 40
0.5000000046
 40
0.564046139
 40
0.6278912432
 40
0.6913776233
 40
0.7543353246
 40
0.8167297646
 40
0.8785120077
 40
1.0
 40
1.0
 40
1.0
 40
1.0
 10
2.708301944
 20
4.2523575325
 30
0.0
 10
2.7070411147
 20
4.2541925071
 30
0.0
 10
2.7053584612
 20
4.2571238122
 30
0.0
 10
2.7036556504
 20
4.2612965405
 30
0.0
 10
2.7026626757
 20
4.2645849429
 30
0.0
 10
2.7019916438
 20
4.2679858439
 30
0.0
 10
2.7016712178
 20
4.2714646384
 30
0.0
 10
2.7017157294
 20
4.2749782196
 30
0.0
 10
2.7021412978
 20
4.2784767129
 30
0.0
 10
2.7029379496
 20
4.281909774
 30
0.0
 10
2.7040978378
 20
4.2852266842
 30
0.0
 10
2.7055887576
 20
4.2883860895
 30
0.0
 10
2.7073824979
 20
4.2913523846
 30
0.0
 10
2.7094402888
 20
4.2941028546
 30
0.0
 10
2.7124675647
 20
4.297441541
 30
0.0
 10
2.715051307
 20
4.2996205652
 30
0.0
 10
2.7168636973
 20
4.3009136483
 30
0.0
  0
SPLINE
  5
2B3
100
AcDbEntity
  8
ALL_ASSEMBLY_MEMBERS
100
AcDbSpline
 62
7
  6
CONTINUOUS
 70
0
 71
3
 72
15
 73
11
 74
0
 42
0.0000001
 43
0.0000001
 44
0.0000000001
 40
0.0
 40
0.0
 40
0.0
 40
0.0
 40
0.2328186612
 40
0.3636847349
 40
0.4314781736
 40
0.4999999958
 40
0.568521818
 40
0.6363152581
 40
0.767181334
 40
1.0
 40
1.0
 40
1.0
 40
1.0
 10
2.7395775933
 20
4.2969085756
 30
0.0
 10
2.7409455152
 20
4.2931665678
 30
0.0
 10
2.7422043111
 20
4.2869729336
 30
0.0
 10
2.7423133489
 20
4.2795784287
 30
0.0
 10
2.7419526537
 20
4.2750168988
 30
0.0
 10
2.7414523828
 20
4.2715451079
 30
0.0
 10
2.7407350613
 20
4.2681115888
 30
0.0
 10
2.7395138687
 20
4.2637017878
 30
0.0
 10
2.7368823371
 20
4.2567905191
 30
0.0
 10
2.7335811082
 20
4.2514009401
 30
0.0
 10
2.73101584
 20
4.2483524598
 30
0.0
  0
SPLINE
  5
2B4
100
AcDbEntity
  8
ALL_ASSEMBLY_MEMBERS
100
AcDbSpline
 62
7
  6
CONTINUOUS
 70
0
 71
3
 72
21
 73
17
 74
0
 42
0.0000001
 43
0.0000001
 44
0.0000000001
 40
0.0
 40
0.0
 40
0.0
 40
0.0
 40
0.1204215686
 40
0.1819704735
 40
0.244329938
 40
0.3074351175
 40
0.3712231255
 40
0.4354813861
 40
0.5000000046
 40
0.5645186232
 40
0.6287768821
 40
0.6925648886
 40
0.7556700674
 40
0.8180295305
 40
0.8795784341
 40
1.0
 40
1.0
 40
1.0
 40
1.0
 10
2.73101584
 20
4.2483524598
 30
0.0
 10
2.7298124834
 20
4.250182749
 30
0.0
 10
2.7282141964
 20
4.2531048192
 30
0.0
 10
2.726609448
 20
4.2572540509
 30
0.0
 10
2.7256781548
 20
4.2605313577
 30
0.0
 10
2.7250570632
 20
4.2639228443
 30
0.0
 10
2.7247733614
 20
4.2673940984
 30
0.0
 10
2.724840415
 20
4.2709023273
 30
0.0
 10
2.7252733024
 20
4.2743979163
 30
0.0
 10
2.7260620832
 20
4.2778307518
 30
0.0
 10
2.7271989584
 20
4.2811503421
 30
0.0
 10
2.7286527898
 20
4.2843152222
 30
0.0
 10
2.7303963816
 20
4.2872897512
 30
0.0
 10
2.7323924159
 20
4.2900508911
 30
0.0
 10
2.7353195069
 20
4.2934010372
 30
0.0
 10
2.7378208122
 20
4.2956002386
 30
0.0
 10
2.7395775933
 20
4.2969085756
 30
0.0
  0
SPLINE
  5
2B5
100
AcDbEntity
  8
ALL_ASSEMBLY_MEMBERS
100
AcDbSpline
 62
7
  6
CONTINUOUS
 70
0
 71
3
 72
19
 73
15
 74
0
 42
0.0000001
 43
0.0000001
 44
0.0000000001
 40
0.0
 40
0.0
 40
0.0
 40
0.0
 40
0.11282409
 40
0.2348989116
 40
0.2991016319
 40
0.3650371804
 40
0.432191225
 40
0.4999999958
 40
0.5678087667
 40
0.6349628126
 40
0.7008983627
 40
0.7651010836
 40
0.8871759076
 40
1.0
 40
1.0
 40
1.0
 40
1.0
 10
2.7626872159
 20
4.2928337256
 30
0.0
 10
2.7634450333
 20
4.2910356069
 30
0.0
 10
2.7647397857
 20
4.2871674773
 30
0.0
 10
2.7656630775
 20
4.2820590268
 30
0.0
 10
2.7659852313
 20
4.2777058665
 30
0.0
 10
2.7659933568
 20
4.2742907207
 30
0.0
 10
2.7657572232
 20
4.2708213324
 30
0.0
 10
2.7652692517
 20
4.2673455513
 30
0.0
 10
2.7645390078
 20
4.2639124893
 30
0.0
 10
2.7635743001
 20
4.2605715682
 30
0.0
 10
2.762398616
 20
4.2573651599
 30
0.0
 10
2.7606070219
 20
4.2533847104
 30
0.0
 10
2.7579922185
 20
4.2489001215
 30
0.0
 10
2.7554525709
 20
4.2457080999
 30
0.0
 10
2.7541254626
 20
4.2442776098
 30
0.0
  0
SPLINE
  5
2B6
100
AcDbEntity
  8
ALL_ASSEMBLY_MEMBERS
100
AcDbSpline
 62
7
  6
CONTINUOUS
 70
0
 71
3
 72
21
 73
17
 74
0
 42
0.0000001
 43
0.0000001
 44
0.0000000001
 40
0.0
 40
0.0
 40
0.0
 40
0.0
 40
0.1192314283
 40
0.1805228365
 40
0.2428461118
 40
0.3061173454
 40
0.3702413387
 40
0.434958014
 40
0.5000000047
 40
0.5650419952
 40
0.6297586689
 40
0.6938826606
 40
0.7571538936
 40
0.8194771674
 40
0.8807685745
 40
1.0
 40
1.0
 40
1.0
 40
1.0
 10
2.7541254626
 20
4.2442776098
 30
0.0
 10
2.7529871052
 20
4.2461027883
 30
0.0
 10
2.7514840414
 20
4.2490143319
 30
0.0
 10
2.7499892251
 20
4.2531370378
 30
0.0
 10
2.7491272731
 20
4.256401803
 30
0.0
 10
2.7485622885
 20
4.2597826723
 30
0.0
 10
2.7483198231
 20
4.2632454625
 30
0.0
 10
2.748412182
 20
4.2667477271
 30
0.0
 10
2.7488532921
 20
4.2702401279
 30
0.0
 10
2.7496332557
 20
4.2736727798
 30
0.0
 10
2.7507443117
 20
4.2769954205
 30
0.0
 10
2.7521564987
 20
4.2801664508
 30
0.0
 10
2.753843736
 20
4.2831501925
 30
0.0
 10
2.7557703213
 20
4.2859232633
 30
0.0
 10
2.7585850376
 20
4.2892860822
 30
0.0
 10
2.760993262
 20
4.2915079601
 30
0.0
 10
2.7626872159
 20
4.2928337256
 30
0.0
  0
SPLINE
  5
2B7
100
AcDbEntity
  8
ALL_ASSEMBLY_MEMBERS
100
AcDbSpline
 62
7
  6
CONTINUOUS
 70
0
 71
3
 72
19
 73
15
 74
0
 42
0.0000001
 43
0.0000001
 44
0.0000000001
 40
0.0
 40
0.0
 40
0.0
 40
0.0
 40
0.114347166
 40
0.236747294
 40
0.3007298967
 40
0.3662428363
 40
0.4328314582
 40
0.5000000041
 40
0.56716855
 40
0.6337571706
 40
0.6992701087
 40
0.7632527108
 40
0.8856528364
 40
1.0
 40
1.0
 40
1.0
 40
1.0
 10
2.777510325
 20
4.2401542276
 30
0.0
 10
2.7789304484
 20
4.241557864
 30
0.0
 10
2.7816469427
 20
4.244698519
 30
0.0
 10
2.7844476335
 20
4.2491660713
 30
0.0
 10
2.7863475062
 20
4.2531372829
 30
0.0
 10
2.7875820031
 20
4.2563348485
 30
0.0
 10
2.7885830292
 20
4.2596710445
 30
0.0
 10
2.7893255805
 20
4.2631037715
 30
0.0
 10
2.7898018723
 20
4.2665834472
 30
0.0
 10
2.7900022616
 20
4.270060817
 30
0.0
 10
2.7899358458
 20
4.2734877686
 30
0.0
 10
2.7895087838
 20
4.2778692815
 30
0.0
 10
2.7884049882
 20
4.2830253
 30
0.0
 10
2.7869264858
 20
4.286905646
 30
0.0
 10
2.7860720783
 20
4.2887103434
 30
0.0
  0
SPLINE
  5
2B8
100
AcDbEntity
  8
ALL_ASSEMBLY_MEMBERS
100
AcDbSpline
 62
7
  6
CONTINUOUS
 70
0
 71
3
 72
21
 73
17
 74
0
 42
0.0000001
 43
0.0000001
 44
0.0000000001
 40
0.0
 40
0.0
 40
0.0
 40
0.0
 40
0.1179311905
 40
0.1789448198
 40
0.2412319662
 40
0.3046863337
 40
0.3691765963
 40
0.4343908895
 40
0.4999999953
 40
0.5656091011
 40
0.630823396
 40
0.6953136602
 40
0.7587680284
 40
0.8210551762
 40
0.8820688068
 40
1.0
 40
1.0
 40
1.0
 40
1.0
 10
2.7860720783
 20
4.2887103434
 30
0.0
 10
2.78444798
 20
4.2873649767
 30
0.0
 10
2.782143117
 20
4.2851180883
 30
0.0
 10
2.7794522247
 20
4.2817415025
 30
0.0
 10
2.7776024002
 20
4.2789553244
 30
0.0
 10
2.7759774028
 20
4.27596145
 30
0.0
 10
2.7746111711
 20
4.2727836227
 30
0.0
 10
2.7735285838
 20
4.2694575615
 30
0.0
 10
2.7727583263
 20
4.2660250254
 30
0.0
 10
2.772308135
 20
4.262536053
 30
0.0
 10
2.7721878545
 20
4.2590403111
 30
0.0
 10
2.7723848113
 20
4.2555868515
 30
0.0
 10
2.772887844
 20
4.2522177478
 30
0.0
 10
2.7736731813
 20
4.2489669196
 30
0.0
 10
2.7750469327
 20
4.2448736273
 30
0.0
 10
2.7764443143
 20
4.2419739332
 30
0.0
 10
2.777510325
 20
4.2401542276
 30
0.0
  0
SPLINE
  5
2B9
100
AcDbEntity
  8
ALL_ASSEMBLY_MEMBERS
100
AcDbSpline
 62
7
  6
CONTINUOUS
 70
0
 71
3
 72
19
 73
15
 74
0
 42
0.0000001
 43
0.0000001
 44
0.0000000001
 40
0.0
 40
0.0
 40
0.0
 40
0.0
 40
0.1158400422
 40
0.2385694722
 40
0.3023384
 40
0.3674356894
 40
0.4334655121
 40
0.499999999
 40
0.5665344859
 40
0.6325643091
 40
0.6976615989
 40
0.7614305269
 40
0.8841599573
 40
1.0
 40
1.0
 40
1.0
 40
1.0
 10
2.8010485053
 20
4.2360038114
 30
0.0
 10
2.8025552324
 20
4.2373825556
 30
0.0
 10
2.8054363586
 20
4.2404743826
 30
0.0
 10
2.8084137906
 20
4.2449253793
 30
0.0
 10
2.8104163961
 20
4.2488882157
 30
0.0
 10
2.8117064158
 20
4.2520774929
 30
0.0
 10
2.8127417519
 20
4.2554093354
 30
0.0
 10
2.8134959539
 20
4.2588418823
 30
0.0
 10
2.813961236
 20
4.2623253735
 30
0.0
 10
2.8141278956
 20
4.2658103871
 30
0.0
 10
2.8140064706
 20
4.2692485401
 30
0.0
 10
2.8134800069
 20
4.2736573197
 30
0.0
 10
2.8122044666
 20
4.2788582301
 30
0.0
 10
2.8105545607
 20
4.2827490003
 30
0.0
 10
2.8096102585
 20
4.2845599272
 30
0.0
  0
SPLINE
  5
2BA
100
AcDbEntity
  8
ALL_ASSEMBLY_MEMBERS
100
AcDbSpline
 62
7
  6
CONTINUOUS
 70
0
 71
3
 72
21
 73
17
 74
0
 42
0.0000001
 43
0.0000001
 44
0.0000000001
 40
0.0
 40
0.0
 40
0.0
 40
0.0
 40
0.1165381759
 40
0.1772583421
 40
0.2395107066
 40
0.3031632059
 40
0.3680449141
 40
0.4337886476
 40
0.4999999952
 40
0.566211343
 40
0.6319550782
 40
0.6968367881
 40
0.760489288
 40
0.8227416539
 40
0.8834618214
 40
1.0
 40
1.0
 40
1.0
 40
1.0
 10
2.8096102585
 20
4.2845599272
 30
0.0
 10
2.8080628556
 20
4.2831928039
 30
0.0
 10
2.8058712201
 20
4.2809187764
 30
0.0
 10
2.8033147706
 20
4.2775274366
 30
0.0
 10
2.8015485946
 20
4.2747270635
 30
0.0
 10
2.7999913676
 20
4.2717221958
 30
0.0
 10
2.7986751335
 20
4.2685369529
 30
0.0
 10
2.7976234939
 20
4.2652071006
 30
0.0
 10
2.7968637694
 20
4.2617745854
 30
0.0
 10
2.7964036875
 20
4.2582892351
 30
0.0
 10
2.7962530289
 20
4.2548005156
 30
0.0
 10
2.7964004671
 20
4.2513571876
 30
0.0
 10
2.7968360565
 20
4.2480009326
 30
0.0
 10
2.7975379351
 20
4.2447653748
 30
0.0
 10
2.7987803053
 20
4.2407042005
 30
0.0
 10
2.8000620058
 20
4.23781773
 30
0.0
 10
2.8010485053
 20
4.2360038114
 30
0.0
  0
SPLINE
  5
2BB
100
AcDbEntity
  8
ALL_ASSEMBLY_MEMBERS
100
AcDbSpline
 62
7
  6
CONTINUOUS
 70
0
 71
3
 72
19
 73
15
 74
0
 42
0.0000001
 43
0.0000001
 44
0.0000000001
 40
0.0
 40
0.0
 40
0.0
 40
0.0
 40
0.1150960872
 40
0.2376600132
 40
0.3015351332
 40
0.3668397369
 40
0.433148638
 40
0.4999999952
 40
0.5668513525
 40
0.6331602552
 40
0.6984648608
 40
0.7623399814
 40
0.8849039101
 40
1.0
 40
1.0
 40
1.0
 40
1.0
 10
2.8331790354
 20
4.2804041159
 30
0.0
 10
2.8317149867
 20
4.2790131247
 30
0.0
 10
2.8289149758
 20
4.2758971307
 30
0.0
 10
2.8260250669
 20
4.2714378821
 30
0.0
 10
2.8240733175
 20
4.2674709433
 30
0.0
 10
2.8228107476
 20
4.2642775753
 30
0.0
 10
2.8217923769
 20
4.2609435915
 30
0.0
 10
2.8210439394
 20
4.2575109691
 30
0.0
 10
2.8205732145
 20
4.2540293784
 30
0.0
 10
2.8203898803
 20
4.2505481551
 30
0.0
 10
2.8204841117
 20
4.2471155462
 30
0.0
 10
2.8209613833
 20
4.2427203055
 30
0.0
 10
2.8221518564
 20
4.2375415753
 30
0.0
 10
2.8237172733
 20
4.2336558385
 30
0.0
 10
2.8246172821
 20
4.2318480001
 30
0.0
  0
SPLINE
  5
2BC
100
AcDbEntity
  8
ALL_ASSEMBLY_MEMBERS
100
AcDbSpline
 62
7
  6
CONTINUOUS
 70
0
 71
3
 72
21
 73
17
 74
0
 42
0.0000001
 43
0.0000001
 44
0.0000000001
 40
0.0
 40
0.0
 40
0.0
 40
0.0
 40
0.1185969136
 40
0.1797523023
 40
0.2420575031
 40
0.3054178849
 40
0.3697207241
 40
0.4346806545
 40
0.500000004
 40
0.5653193535
 40
0.6302792826
 40
0.6945821205
 40
0.7579425017
 40
0.8202477012
 40
0.8814030888
 40
1.0
 40
1.0
 40
1.0
 40
1.0
 10
2.8480937748
 20
4.2277084611
 30
0.0
 10
2.8497538195
 20
4.2290437136
 30
0.0
 10
2.8521118484
 20
4.2312777626
 30
0.0
 10
2.8548663035
 20
4.2346473053
 30
0.0
 10
2.8567555639
 20
4.2374267597
 30
0.0
 10
2.8584125308
 20
4.2404154345
 30
0.0
 10
2.8598023627
 20
4.2435897695
 30
0.0
 10
2.8608995672
 20
4.2469140668
 30
0.0
 10
2.8616748061
 20
4.250346651
 30
0.0
 10
2.8621203327
 20
4.2538373723
 30
0.0
 10
2.8622262744
 20
4.257336456
 30
0.0
 10
2.8620059461
 20
4.2607947055
 30
0.0
 10
2.8614710934
 20
4.2641698572
 30
0.0
 10
2.8606463988
 20
4.267427855
 30
0.0
 10
2.8592105092
 20
4.2715362685
 30
0.0
 10
2.8577587765
 20
4.2744420812
 30
0.0
 10
2.8566555281
 20
4.2762645769
 30
0.0
  0
SPLINE
  5
2BD
100
AcDbEntity
  8
ALL_ASSEMBLY_MEMBERS
100
AcDbSpline
 62
7
  6
CONTINUOUS
 70
0
 71
3
 72
19
 73
15
 74
0
 42
0.0000001
 43
0.0000001
 44
0.0000000001
 40
0.0
 40
0.0
 40
0.0
 40
0.0
 40
0.1135840717
 40
0.2358199051
 40
0.2999125379
 40
0.3656373947
 40
0.4325098782
 40
0.4999999952
 40
0.5674901121
 40
0.6343625974
 40
0.700087456
 40
0.7641800895
 40
0.8864159256
 40
1.0
 40
1.0
 40
1.0
 40
1.0
 10
2.8566555281
 20
4.2762645769
 30
0.0
 10
2.8552813231
 20
4.2748476911
 30
0.0
 10
2.8526521449
 20
4.2716815209
 30
0.0
 10
2.8499437481
 20
4.2672054753
 30
0.0
 10
2.8480975994
 20
4.2632297383
 30
0.0
 10
2.8468922462
 20
4.2600277998
 30
0.0
 10
2.84590922
 20
4.2566892781
 30
0.0
 10
2.8451727714
 20
4.253256405
 30
0.0
 10
2.8446906949
 20
4.2497786791
 30
0.0
 10
2.8444725957
 20
4.2463052801
 30
0.0
 10
2.8445101296
 20
4.242884187
 30
0.0
 10
2.8448851599
 20
4.2385167961
 30
0.0
 10
2.8458993225
 20
4.2333843628
 30
0.0
 10
2.847287048
 20
4.229509904
 30
0.0
 10
2.8480937748
 20
4.2277084611
 30
0.0
  0
SPLINE
  5
2BE
100
AcDbEntity
  8
ALL_ASSEMBLY_MEMBERS
100
AcDbSpline
 62
7
  6
CONTINUOUS
 70
0
 71
3
 72
21
 73
17
 74
0
 42
0.0000001
 43
0.0000001
 44
0.0000000001
 40
0.0
 40
0.0
 40
0.0
 40
0.0
 40
0.1198437812
 40
0.1812672915
 40
0.2436088121
 40
0.306794416
 40
0.3707456224
 40
0.4352267846
 40
0.500000004
 40
0.5647732234
 40
0.6292543842
 40
0.6932055894
 40
0.7563911927
 40
0.818732712
 40
0.8801562212
 40
1.0
 40
1.0
 40
1.0
 40
1.0
 10
2.8713555836
 20
4.2236067765
 30
0.0
 10
2.8730819782
 20
4.224923518
 30
0.0
 10
2.8755382545
 20
4.2271337054
 30
0.0
 10
2.8784108822
 20
4.2304900163
 30
0.0
 10
2.8803732819
 20
4.2332569433
 30
0.0
 10
2.8820895756
 20
4.2362359399
 30
0.0
 10
2.8835232301
 20
4.2394037992
 30
0.0
 10
2.8846475932
 20
4.2427248619
 30
0.0
 10
2.8854320993
 20
4.2461575992
 30
0.0
 10
2.8858689699
 20
4.249651634
 30
0.0
 10
2.8859482846
 20
4.2531569669
 30
0.0
 10
2.8856845616
 20
4.2566241195
 30
0.0
 10
2.88509065
 20
4.2600104676
 30
0.0
 10
2.8841929422
 20
4.2632817087
 30
0.0
 10
2.8826414811
 20
4.2674181057
 30
0.0
 10
2.881089265
 20
4.2703350984
 30
0.0
 10
2.8799173369
 20
4.2721628923
 30
0.0
  0
SPLINE
  5
2BF
100
AcDbEntity
  8
ALL_ASSEMBLY_MEMBERS
100
AcDbSpline
 62
7
  6
CONTINUOUS
 70
0
 71
3
 72
19
 73
15
 74
0
 42
0.0000001
 43
0.0000001
 44
0.0000000001
 40
0.0
 40
0.0
 40
0.0
 40
0.0
 40
0.1120583521
 40
0.2339735838
 40
0.2982877259
 40
0.3644351886
 40
0.431871772
 40
0.4999999951
 40
0.5681282183
 40
0.6355648034
 40
0.701712268
 40
0.7660264108
 40
0.8879416452
 40
1.0
 40
1.0
 40
1.0
 40
1.0
 10
2.8799173369
 20
4.2721628923
 30
0.0
 10
2.8786393073
 20
4.270718231
 30
0.0
 10
2.8761928889
 20
4.2674996541
 30
0.0
 10
2.8736744315
 20
4.2630063075
 30
0.0
 10
2.8719390891
 20
4.2590208618
 30
0.0
 10
2.8707940756
 20
4.2558098115
 30
0.0
 10
2.8698482993
 20
4.2524663755
 30
0.0
 10
2.8691244613
 20
4.2490330758
 30
0.0
 10
2.8686303889
 20
4.2455592622
 30
0.0
 10
2.8683756054
 20
4.2420939855
 30
0.0
 10
2.8683533222
 20
4.2386849675
 30
0.0
 10
2.8686209079
 20
4.2343463513
 30
0.0
 10
2.8694506687
 20
4.2292626234
 30
0.0
 10
2.8706487318
 20
4.225401426
 30
0.0
 10
2.8713555836
 20
4.2236067765
 30
0.0
  0
SPLINE
  5
2C0
100
AcDbEntity
  8
ALL_ASSEMBLY_MEMBERS
100
AcDbSpline
 62
7
  6
CONTINUOUS
 70
0
 71
3
 72
21
 73
17
 74
0
 42
0.0000001
 43
0.0000001
 44
0.0000000001
 40
0.0
 40
0.0
 40
0.0
 40
0.0
 40
0.1209732895
 40
0.1826426064
 40
0.2450198636
 40
0.3080485869
 40
0.3716806123
 40
0.4357254087
 40
0.500000004
 40
0.5642745993
 40
0.6283193942
 40
0.6919514184
 40
0.7549801412
 40
0.8173573971
 40
0.8790267129
 40
1.0
 40
1.0
 40
1.0
 40
1.0
 10
2.8942814283
 20
4.2195643316
 30
0.0
 10
2.8960670489
 20
4.2208647369
 30
0.0
 10
2.8986111034
 20
4.2230534847
 30
0.0
 10
2.9015900712
 20
4.2263977166
 30
0.0
 10
2.9036181017
 20
4.2291533358
 30
0.0
 10
2.9053876712
 20
4.232123604
 30
0.0
 10
2.9068607113
 20
4.2352856487
 30
0.0
 10
2.9080095031
 20
4.2386038469
 30
0.0
 10
2.9088023582
 20
4.242036792
 30
0.0
 10
2.9092314544
 20
4.2455338776
 30
0.0
 10
2.9092868339
 20
4.2490448739
 30
0.0
 10
2.9089841119
 20
4.2525200332
 30
0.0
 10
2.908337152
 20
4.2559164007
 30
0.0
 10
2.907373904
 20
4.2591994629
 30
0.0
 10
2.9057183847
 20
4.26336088
 30
0.0
 10
2.9040763512
 20
4.2662877479
 30
0.0
 10
2.9028431816
 20
4.2681204474
 30
0.0
  0
SPLINE
  5
2C1
100
AcDbEntity
  8
ALL_ASSEMBLY_MEMBERS
100
AcDbSpline
 62
7
  6
CONTINUOUS
 70
0
 71
3
 72
17
 73
13
 74
0
 42
0.0000001
 43
0.0000001
 44
0.0000000001
 40
0.0
 40
0.0
 40
0.0
 40
0.0
 40
0.1105687179
 40
0.2321932011
 40
0.3632448637
 40
0.4312409886
 40
0.4999999951
 40
0.5687590017
 40
0.6367551283
 40
0.7678067934
 40
0.8894312794
 40
1.0
 40
1.0
 40
1.0
 40
1.0
 10
2.9028431816
 20
4.2681204474
 30
0.0
 10
2.9016675034
 20
4.2666463585
 30
0.0
 10
2.899415031
 20
4.2633735121
 30
0.0
 10
2.8965734369
 20
4.2578526469
 30
0.0
 10
2.8946789291
 20
4.2527072263
 30
0.0
 10
2.8934848683
 20
4.2482970038
 30
0.0
 10
2.8927741095
 20
4.2448630047
 30
0.0
 10
2.8922675074
 20
4.2413930073
 30
0.0
 10
2.8918811726
 20
4.2368403609
 30
0.0
 10
2.89190159
 20
4.2313572872
 30
0.0
 10
2.8926835679
 20
4.2251974883
 30
0.0
 10
2.8936808202
 20
4.2213516277
 30
0.0
 10
2.8942814283
 20
4.2195643316
 30
0.0
  0
SPLINE
  5
2C2
100
AcDbEntity
  8
ALL_ASSEMBLY_MEMBERS
100
AcDbSpline
 62
7
  6
CONTINUOUS
 70
0
 71
3
 72
21
 73
17
 74
0
 42
0.0000001
 43
0.0000001
 44
0.0000000001
 40
0.0
 40
0.0
 40
0.0
 40
0.0
 40
0.1219734553
 40
0.1838627321
 40
0.2462738966
 40
0.3091648841
 40
0.3725137876
 40
0.4361700649
 40
0.5000000039
 40
0.563829943
 40
0.627486219
 40
0.6908351212
 40
0.7537261081
 40
0.8161372714
 40
0.8780265471
 40
1.0
 40
1.0
 40
1.0
 40
1.0
 10
2.91675178
 20
4.2156022023
 30
0.0
 10
2.9185893153
 20
4.2168884436
 30
0.0
 10
2.9212103393
 20
4.2190583204
 30
0.0
 10
2.9242831203
 20
4.2223917479
 30
0.0
 10
2.9263689152
 20
4.2251373603
 30
0.0
 10
2.9281854072
 20
4.2280999075
 30
0.0
 10
2.9296931633
 20
4.2312568273
 30
0.0
 10
2.9308635046
 20
4.2345725315
 30
0.0
 10
2.9316637353
 20
4.2380057144
 30
0.0
 10
2.9320859821
 20
4.2415055461
 30
0.0
 10
2.9321202586
 20
4.2450215691
 30
0.0
 10
2.9317831614
 20
4.2485037862
 30
0.0
 10
2.9310894681
 20
4.2519089468
 30
0.0
 10
2.9300685168
 20
4.2552023623
 30
0.0
 10
2.9283211466
 20
4.2593857124
 30
0.0
 10
2.9266003312
 20
4.2623211726
 30
0.0
 10
2.9253135333
 20
4.2641583181
 30
0.0
  0
SPLINE
  5
2C3
100
AcDbEntity
  8
ALL_ASSEMBLY_MEMBERS
100
AcDbSpline
 62
7
  6
CONTINUOUS
 70
0
 71
3
 72
15
 73
11
 74
0
 42
0.0000001
 43
0.0000001
 44
0.0000000001
 40
0.0
 40
0.0
 40
0.0
 40
0.0
 40
0.1091360819
 40
0.2304855206
 40
0.3621684472
 40
0.499999995
 40
0.6378315446
 40
0.7695144739
 40
0.8908639154
 40
1.0
 40
1.0
 40
1.0
 40
1.0
 10
2.9253135333
 20
4.2641583181
 30
0.0
 10
2.9242462096
 20
4.2626534858
 30
0.0
 10
2.9221981562
 20
4.2593260463
 30
0.0
 10
2.9195989595
 20
4.2537698596
 30
0.0
 10
2.9174552475
 20
4.2475065431
 30
0.0
 10
2.9159101109
 20
4.2407835034
 30
0.0
 10
2.9150626494
 20
4.2339374448
 30
0.0
 10
2.9149348992
 20
4.2273186597
 30
0.0
 10
2.9154770174
 20
4.2212085743
 30
0.0
 10
2.9162635068
 20
4.2173813283
 30
0.0
 10
2.91675178
 20
4.2156022023
 30
0.0
  0
SPLINE
  5
2C4
100
AcDbEntity
  8
ALL_ASSEMBLY_MEMBERS
100
AcDbSpline
 62
7
  6
CONTINUOUS
 70
0
 71
3
 72
21
 73
17
 74
0
 42
0.0000001
 43
0.0000001
 44
0.0000000001
 40
0.0
 40
0.0
 40
0.0
 40
0.0
 40
0.122835128
 40
0.1849156286
 40
0.2473577185
 40
0.3101309526
 40
0.3732355826
 40
0.4365555335
 40
0.5000000039
 40
0.5634444743
 40
0.6267644239
 40
0.6898690527
 40
0.7526422862
 40
0.8150843749
 40
0.8771648744
 40
1.0
 40
1.0
 40
1.0
 40
1.0
 10
2.938649485
 20
4.2117410461
 30
0.0
 10
2.9405314454
 20
4.2130152865
 30
0.0
 10
2.9432183357
 20
4.2151689763
 30
0.0
 10
2.9463718014
 20
4.2184929929
 30
0.0
 10
2.9485071823
 20
4.2212299737
 30
0.0
 10
2.9503639779
 20
4.2241858616
 30
0.0
 10
2.9519015747
 20
4.2273383738
 30
0.0
 10
2.953090453
 20
4.2306519559
 30
0.0
 10
2.9538970364
 20
4.2340853836
 30
0.0
 10
2.9543133973
 20
4.237587618
 30
0.0
 10
2.954329529
 20
4.2411079869
 30
0.0
 10
2.9539628832
 20
4.2445962684
 30
0.0
 10
2.9532290393
 20
4.2480089558
 30
0.0
 10
2.9521585401
 20
4.2513112197
 30
0.0
 10
2.9503321324
 20
4.2555133223
 30
0.0
 10
2.9485438867
 20
4.2584560992
 30
0.0
 10
2.9472112383
 20
4.2602971619
 30
0.0
  0
SPLINE
  5
2C5
100
AcDbEntity
  8
ALL_ASSEMBLY_MEMBERS
100
AcDbSpline
 62
7
  6
CONTINUOUS
 70
0
 71
3
 72
19
 73
15
 74
0
 42
0.0000001
 43
0.0000001
 44
0.0000000001
 40
0.0
 40
0.0
 40
0.0
 40
0.0
 40
0.0521893504
 40
0.1078192178
 40
0.1667976848
 40
0.2289262946
 40
0.3611595489
 40
0.499999995
 40
0.6388404429
 40
0.7710737
 40
0.8332023113
 40
0.8921807795
 40
0.9478106486
 40
1.0
 40
1.0
 40
1.0
 40
1.0
 10
2.9472112383
 20
4.2602971619
 30
0.0
 10
2.9467496926
 20
4.2595532068
 30
0.0
 10
2.9458399333
 20
4.2579887556
 30
0.0
 10
2.9445606517
 20
4.2554989559
 30
0.0
 10
2.9433387907
 20
4.2527962416
 30
0.0
 10
2.9417753875
 20
4.2488429077
 30
0.0
 10
2.9400902984
 20
4.2435045236
 30
0.0
 10
2.9386019145
 20
4.2367823262
 30
0.0
 10
2.9377014109
 20
4.2299564696
 30
0.0
 10
2.9374590417
 20
4.224363695
 30
0.0
 10
2.9375760404
 20
4.2201140608
 30
0.0
 10
2.9377998314
 20
4.217156439
 30
0.0
 10
2.9381504013
 20
4.2143792525
 30
0.0
 10
2.9384702215
 20
4.2125979932
 30
0.0
 10
2.938649485
 20
4.2117410461
 30
0.0
  0
SPLINE
  5
2C6
100
AcDbEntity
  8
ALL_ASSEMBLY_MEMBERS
100
AcDbSpline
 62
7
  6
CONTINUOUS
 70
0
 71
3
 72
21
 73
17
 74
0
 42
0.0000001
 43
0.0000001
 44
0.0000000001
 40
0.0
 40
0.0
 40
0.0
 40
0.0
 40
0.1235514664
 40
0.185792144
 40
0.2482611557
 40
0.310937152
 40
0.3738384677
 40
0.4368776827
 40
0.5000000039
 40
0.5631223251
 40
0.6261615388
 40
0.6890628533
 40
0.7517388491
 40
0.8142078595
 40
0.876448536
 40
1.0
 40
1.0
 40
1.0
 40
1.0
 10
2.9598603749
 20
4.2080009939
 30
0.0
 10
2.9617791088
 20
4.2092653862
 30
0.0
 10
2.9645205108
 20
4.2114056606
 30
0.0
 10
2.9677410237
 20
4.2147217706
 30
0.0
 10
2.9699175469
 20
4.2174515599
 30
0.0
 10
2.9718078003
 20
4.2204018988
 30
0.0
 10
2.9733701853
 20
4.2235507466
 30
0.0
 10
2.9745744721
 20
4.22686258
 30
0.0
 10
2.9753863421
 20
4.2302962392
 30
0.0
 10
2.9757978144
 20
4.2338004992
 30
0.0
 10
2.9757988687
 20
4.2373244949
 30
0.0
 10
2.9754076763
 20
4.2408178111
 30
0.0
 10
2.9746404945
 20
4.2442367274
 30
0.0
 10
2.9735288747
 20
4.247546305
 30
0.0
 10
2.9716367589
 20
4.2517639093
 30
0.0
 10
2.9697927007
 20
4.254712724
 30
0.0
 10
2.9684221282
 20
4.2565571097
 30
0.0
  0
SPLINE
  5
2C7
100
AcDbEntity
  8
ALL_ASSEMBLY_MEMBERS
100
AcDbSpline
 62
7
  6
CONTINUOUS
 70
0
 71
3
 72
19
 73
15
 74
0
 42
0.0000001
 43
0.0000001
 44
0.0000000001
 40
0.0
 40
0.0
 40
0.0
 40
0.0
 40
0.0514627963
 40
0.1066284227
 40
0.165384584
 40
0.227506321
 40
0.3602495576
 40
0.4999999949
 40
0.6397504342
 40
0.7724936736
 40
0.8346154122
 40
0.8933715746
 40
0.9485372028
 40
1.0
 40
1.0
 40
1.0
 40
1.0
 10
2.9684221282
 20
4.2565571097
 30
0.0
 10
2.9680196987
 20
4.255800015
 30
0.0
 10
2.9672240429
 20
4.2542108421
 30
0.0
 10
2.9660991255
 20
4.2516946634
 30
0.0
 10
2.9650142131
 20
4.2489687828
 30
0.0
 10
2.9636080602
 20
4.2449831419
 30
0.0
 10
2.9620601954
 20
4.2396215828
 30
0.0
 10
2.9606293811
 20
4.2328982895
 30
0.0
 10
2.959674405
 20
4.2260910931
 30
0.0
 10
2.9592951609
 20
4.2205234746
 30
0.0
 10
2.9592533429
 20
4.2162972645
 30
0.0
 10
2.959340521
 20
4.2133647127
 30
0.0
 10
2.9595370138
 20
4.2106155336
 30
0.0
 10
2.9597411566
 20
4.2088500692
 30
0.0
 10
2.9598603749
 20
4.2080009939
 30
0.0
  0
SPLINE
  5
2C8
100
AcDbEntity
  8
ALL_FEATURES
100
AcDbSpline
 62
7
  6
CONTINUOUS
 70
0
 71
3
 72
46
 73
42
 74
0
 42
0.0000001
 43
0.0000001
 44
0.0000000001
 40
0.0
 40
0.0
 40
0.0
 40
0.0
 40
0.0531228971
 40
0.1059754473
 40
0.1587871018
 40
0.2117722195
 40
0.2652250486
 40
0.2922852913
 40
0.3196922004
 40
0.3761711668
 40
0.4058377111
 40
0.4370631037
 40
0.4535093538
 40
0.4706896588
 40
0.4887927544
 40
0.5080580174
 40
0.528773743
 40
0.5512514487
 40
0.5632084134
 40
0.5756637016
 40
0.5885238722
 40
0.6016475951
 40
0.6148971664
 40
0.6280929085
 40
0.6410337132
 40
0.6535777394
 40
0.6656780165
 40
0.6772892121
 40
0.6990949926
 40
0.7192557238
 40
0.7380763393
 40
0.7558280502
 40
0.7727307294
 40
0.7889548443
 40
0.8046336109
 40
0.8198710451
 40
0.834748771
 40
0.8917229851
 40
0.9192716741
 40
0.9464310749
 40
1.0
 40
1.0
 40
1.0
 40
1.0
 10
6.7798939286
 20
5.5539766364
 30
0.0
 10
6.7792066742
 20
5.5580012065
 30
0.0
 10
6.7781926787
 20
5.5660938577
 30
0.0
 10
6.7775978285
 20
5.5782927406
 30
0.0
 10
6.777862361
 20
5.590493502
 30
0.0
 10
6.7790187809
 20
5.6026893925
 30
0.0
 10
6.7808357688
 20
5.6128037438
 30
0.0
 10
6.7829279726
 20
5.6208345162
 30
0.0
 10
6.7855599119
 20
5.6289478456
 30
0.0
 10
6.789106202
 20
5.6369701739
 30
0.0
 10
6.7938471691
 20
5.6446595254
 30
0.0
 10
6.797510234
 20
5.6493610513
 30
0.0
 10
6.8009418496
 20
5.652980439
 30
0.0
 10
6.8038776293
 20
5.6556672271
 30
0.0
 10
6.8071912625
 20
5.658243239
 30
0.0
 10
6.8109442391
 20
5.6606724526
 30
0.0
 10
6.8152195685
 20
5.6628732018
 30
0.0
 10
6.8191836725
 20
5.6644024198
 30
0.0
 10
6.8226511808
 20
5.665391672
 30
0.0
 10
6.8254528799
 20
5.6659987445
 30
0.0
 10
6.8283767539
 20
5.6664358839
 30
0.0
 10
6.8313846516
 20
5.6666807913
 30
0.0
 10
6.8344282442
 20
5.6667077397
 30
0.0
 10
6.8374522075
 20
5.6665270033
 30
0.0
 10
6.8404032596
 20
5.6661486902
 30
0.0
 10
6.843238644
 20
5.6655854667
 30
0.0
 10
6.8459331145
 20
5.6648681565
 30
0.0
 10
6.8492544493
 20
5.6637639815
 30
0.0
 10
6.8530436856
 20
5.6621287786
 30
0.0
 10
6.8571244244
 20
5.6598390908
 30
0.0
 10
6.8607131689
 20
5.6573523742
 30
0.0
 10
6.8638866514
 20
5.6547339578
 30
0.0
 10
6.8667050748
 20
5.6520184038
 30
0.0
 10
6.8692222544
 20
5.6492337332
 30
0.0
 10
6.8714774628
 20
5.6463954053
 30
0.0
 10
6.8735060476
 20
5.6435169465
 30
0.0
 10
6.8770666588
 20
5.6378468842
 30
0.0
 10
6.8803563983
 20
5.6309025603
 30
0.0
 10
6.8831757955
 20
5.6227925088
 30
0.0
 10
6.8854217238
 20
5.6147747862
 30
0.0
 10
6.8866129678
 20
5.6086730498
 30
0.0
 10
6.88722735
 20
5.6046020411
 30
0.0
  0
SPLINE
  5
2C9
100
AcDbEntity
  8
ALL_FEATURES
100
AcDbSpline
 62
7
  6
CONTINUOUS
 70
0
 71
3
 72
31
 73
27
 74
0
 42
0.0000001
 43
0.0000001
 44
0.0000000001
 40
0.0
 40
0.0
 40
0.0
 40
0.0
 40
0.0342918645
 40
0.0708474129
 40
0.1100678445
 40
0.1522090958
 40
0.1743367456
 40
0.1970612019
 40
0.2201873618
 40
0.2434877999
 40
0.2667239757
 40
0.289637252
 40
0.333732687
 40
0.3749974171
 40
0.4133809988
 40
0.4492016015
 40
0.4828807918
 40
0.5147978882
 40
0.5452732211
 40
0.5745668595
 40
0.6028864428
 40
0.6572279322
 40
0.7093119377
 40
0.8090746075
 40
0.9054426006
 40
1.0
 40
1.0
 40
1.0
 40
1.0
 10
6.8586894221
 20
5.502506426
 30
0.0
 10
6.8576109796
 20
5.5017721524
 30
0.0
 10
6.8553207445
 20
5.5003441079
 30
0.0
 10
6.8515853891
 20
5.4984389255
 30
0.0
 10
6.8474078089
 20
5.4967837976
 30
0.0
 10
6.8436084708
 20
5.4957185937
 30
0.0
 10
6.8403570075
 20
5.4950917953
 30
0.0
 10
6.8377914362
 20
5.4947526326
 30
0.0
 10
6.8351658407
 20
5.4945617501
 30
0.0
 10
6.8325139003
 20
5.4945325108
 30
0.0
 10
6.8298732309
 20
5.4946643359
 30
0.0
 10
6.8264584321
 20
5.4950383627
 30
0.0
 10
6.8224096188
 20
5.495849784
 30
0.0
 10
6.8179131459
 20
5.4972734589
 30
0.0
 10
6.8138754042
 20
5.4990218499
 30
0.0
 10
6.8102675241
 20
5.500989926
 30
0.0
 10
6.8070446196
 20
5.5031189582
 30
0.0
 10
6.8041521847
 20
5.5053589454
 30
0.0
 10
6.8015493094
 20
5.50768519
 30
0.0
 10
6.7991949722
 20
5.5100734202
 30
0.0
 10
6.7963881043
 20
5.5132798773
 30
0.0
 10
6.7933249382
 20
5.5174027708
 30
0.0
 10
6.7892488798
 20
5.5241153746
 30
0.0
 10
6.7853247424
 20
5.5327438186
 30
0.0
 10
6.782004874
 20
5.5433132468
 30
0.0
 10
6.7804995003
 20
5.5504304007
 30
0.0
 10
6.7798939286
 20
5.5539766364
 30
0.0
  0
SPLINE
  5
2CA
100
AcDbEntity
  8
ALL_FEATURES
100
AcDbSpline
 62
7
  6
CONTINUOUS
 70
0
 71
3
 72
60
 73
56
 74
0
 42
0.0000001
 43
0.0000001
 44
0.0000000001
 40
0.0
 40
0.0
 40
0.0
 40
0.0
 40
0.0078270469
 40
0.0156752681
 40
0.0195993668
 40
0.0235201151
 40
0.0313577736
 40
0.0391957259
 40
0.0470220048
 40
0.0548514794
 40
0.0626805571
 40
0.0705002515
 40
0.0783202543
 40
0.0861397348
 40
0.0939545864
 40
0.1095807525
 40
0.1252034545
 40
0.140826797
 40
0.156447756
 40
0.1720691628
 40
0.1876890443
 40
0.2033092646
 40
0.2189285671
 40
0.2501649509
 40
0.2814011299
 40
0.3126370702
 40
0.343873182
 40
0.3751091242
 40
0.4375776531
 40
0.5000469515
 40
0.5625164241
 40
0.6249855547
 40
0.656221851
 40
0.6874579131
 40
0.7186943779
 40
0.7499306035
 40
0.7811667422
 40
0.8124030482
 40
0.8280228473
 40
0.8436430795
 40
0.8592634837
 40
0.8748850668
 40
0.8905067273
 40
0.9061301062
 40
0.9139426366
 40
0.9217574695
 40
0.9295726604
 40
0.9373873911
 40
0.9452061059
 40
0.953027224
 40
0.968662561
 40
0.9764948127
 40
0.9843216636
 40
0.9921584444
 40
1.0
 40
1.0
 40
1.0
 40
1.0
 10
6.8275588651
 20
5.2973226215
 30
0.0
 10
6.8285342302
 20
5.2975834172
 30
0.0
 10
6.8305247323
 20
5.2979759152
 30
0.0
 10
6.833056334
 20
5.298130512
 30
0.0
 10
6.8350802611
 20
5.2980427849
 30
0.0
 10
6.83709137
 20
5.297811046
 30
0.0
 10
6.8395676481
 20
5.2972656405
 30
0.0
 10
6.842430832
 20
5.2962478875
 30
0.0
 10
6.845155052
 20
5.2949062845
 30
0.0
 10
6.8477256861
 20
5.2932949587
 30
0.0
 10
6.8501422462
 20
5.2914638699
 30
0.0
 10
6.8524087802
 20
5.2894530296
 30
0.0
 10
6.8545307995
 20
5.2872928182
 30
0.0
 10
6.8565199753
 20
5.285011195
 30
0.0
 10
6.8590099296
 20
5.2818375296
 30
0.0
 10
6.8618376903
 20
5.2776589156
 30
0.0
 10
6.8648513885
 20
5.2724125895
 30
0.0
 10
6.8675362228
 20
5.2669924226
 30
0.0
 10
6.8699431942
 20
5.2614445748
 30
0.0
 10
6.8721042427
 20
5.255797427
 30
0.0
 10
6.8740536076
 20
5.2500743154
 30
0.0
 10
6.8758122094
 20
5.2442902654
 30
0.0
 10
6.8779338498
 20
5.2365147141
 30
0.0
 10
6.8802074651
 20
5.2266971844
 30
0.0
 10
6.8824416042
 20
5.214815021
 30
0.0
 10
6.8842609019
 20
5.2028629505
 30
0.0
 10
6.8857251273
 20
5.1908627984
 30
0.0
 10
6.8872656115
 20
5.1748188033
 30
0.0
 10
6.8885103239
 20
5.1547057161
 30
0.0
 10
6.8890938809
 20
5.1305337615
 30
0.0
 10
6.8888327593
 20
5.1063562325
 30
0.0
 10
6.8878870262
 20
5.0862275061
 30
0.0
 10
6.8866268597
 20
5.0701591825
 30
0.0
 10
6.8853992269
 20
5.0581326846
 30
0.0
 10
6.8838540085
 20
5.0461425314
 30
0.0
 10
6.8819401061
 20
5.0342049736
 30
0.0
 10
6.8795938803
 20
5.0223441555
 30
0.0
 10
6.8772073738
 20
5.0125529608
 30
0.0
 10
6.874980351
 20
5.0048067569
 30
0.0
 10
6.8731322912
 20
4.9990503901
 30
0.0
 10
6.8710828256
 20
4.9933620869
 30
0.0
 10
6.8688073394
 20
4.987759565
 30
0.0
 10
6.866269498
 20
4.9822699378
 30
0.0
 10
6.863905299
 20
4.9778169729
 30
0.0
 10
6.8618363127
 20
4.9743564503
 30
0.0
 10
6.8601900034
 20
4.9718190655
 30
0.0
 10
6.8584398271
 20
4.9693515419
 30
0.0
 10
6.8565755583
 20
4.9669682166
 30
0.0
 10
6.8545892535
 20
4.9646837352
 30
0.0
 10
6.8517669602
 20
4.9617992345
 30
0.0
 10
6.8486495761
 20
4.9592050335
 30
0.0
 10
6.8452306336
 20
4.9570490369
 30
0.0
 10
6.8425107562
 20
4.9556976582
 30
0.0
 10
6.8396505273
 20
4.9546708327
 30
0.0
 10
6.8376701697
 20
4.9542286345
 30
0.0
 10
6.8366704404
 20
4.954074766
 30
0.0
  0
SPLINE
  5
2CB
100
AcDbEntity
  8
ALL_FEATURES
100
AcDbSpline
 62
7
  6
CONTINUOUS
 70
0
 71
3
 72
51
 73
47
 74
0
 42
0.0000001
 43
0.0000001
 44
0.0000000001
 40
0.0
 40
0.0
 40
0.0
 40
0.0
 40
0.0156346908
 40
0.0312891323
 40
0.0469288961
 40
0.0625606313
 40
0.0703799709
 40
0.0781970392
 40
0.0938248055
 40
0.1094525003
 40
0.1250780486
 40
0.1407037086
 40
0.1563277547
 40
0.1719520593
 40
0.1875752999
 40
0.2188195888
 40
0.2500637657
 40
0.2813076378
 40
0.3125516799
 40
0.3437956073
 40
0.3750393482
 40
0.4062831319
 40
0.4375266738
 40
0.4687702116
 40
0.5000136296
 40
0.5312570135
 40
0.5625003913
 40
0.593743759
 40
0.6249871298
 40
0.656230579
 40
0.6874738683
 40
0.71871718
 40
0.7499603981
 40
0.781203335
 40
0.8124458079
 40
0.8436874554
 40
0.8749275565
 40
0.8905514539
 40
0.9061756046
 40
0.921801664
 40
0.9296166207
 40
0.9374344616
 40
0.9530642053
 40
0.9687006504
 40
0.9843620474
 40
1.0
 40
1.0
 40
1.0
 40
1.0
 10
6.8265995634
 20
4.9548679601
 30
0.0
 10
6.8247504919
 20
4.9554458752
 30
0.0
 10
6.8211835726
 20
4.9570560949
 30
0.0
 10
6.8164115016
 20
4.9604221549
 30
0.0
 10
6.812203906
 20
4.9644596528
 30
0.0
 10
6.80910307
 20
4.9681914894
 30
0.0
 10
6.8068370444
 20
4.9713352305
 30
0.0
 10
6.8046992854
 20
4.9745669955
 30
0.0
 10
6.8022516735
 20
4.9787487949
 30
0.0
 10
6.7996238388
 20
4.9839324785
 30
0.0
 10
6.7972603184
 20
4.9892409421
 30
0.0
 10
6.7951301261
 20
4.9946461421
 30
0.0
 10
6.7932024157
 20
5.0001262657
 30
0.0
 10
6.7914571118
 20
5.0056666195
 30
0.0
 10
6.7893440232
 20
5.0131169197
 30
0.0
 10
6.7870662841
 20
5.0225279252
 30
0.0
 10
6.7848095463
 20
5.0339235216
 30
0.0
 10
6.7829534198
 20
5.0453905715
 30
0.0
 10
6.7814406203
 20
5.0569073295
 30
0.0
 10
6.7802263894
 20
5.0684590254
 30
0.0
 10
6.779275558
 20
5.0800351166
 30
0.0
 10
6.7785637191
 20
5.0916281516
 30
0.0
 10
6.7780696426
 20
5.1032323806
 30
0.0
 10
6.7777824932
 20
5.1148434672
 30
0.0
 10
6.7776925067
 20
5.1264577059
 30
0.0
 10
6.7777993974
 20
5.138071785
 30
0.0
 10
6.778104134
 20
5.1496823791
 30
0.0
 10
6.7786161854
 20
5.1612857458
 30
0.0
 10
6.7793481992
 20
5.1728774243
 30
0.0
 10
6.7803201358
 20
5.1844516125
 30
0.0
 10
6.7815590576
 20
5.1960005061
 30
0.0
 10
6.7830994635
 20
5.207513392
 30
0.0
 10
6.7849872992
 20
5.2189749542
 30
0.0
 10
6.7872818447
 20
5.2303627703
 30
0.0
 10
6.7900610218
 20
5.2416435041
 30
0.0
 10
6.7934293733
 20
5.2527639047
 30
0.0
 10
6.7968486247
 20
5.2618292833
 30
0.0
 10
6.800054853
 20
5.2688801843
 30
0.0
 10
6.8027333051
 20
5.2740371546
 30
0.0
 10
6.8052271934
 20
5.2781907481
 30
0.0
 10
6.8074082228
 20
5.2813927838
 30
0.0
 10
6.809721046
 20
5.2845014628
 30
0.0
 10
6.81288668
 20
5.2881782423
 30
0.0
 10
6.817185388
 20
5.2921213083
 30
0.0
 10
6.8220582918
 20
5.2953456831
 30
0.0
 10
6.8256869416
 20
5.2968221017
 30
0.0
 10
6.8275588651
 20
5.2973226215
 30
0.0
  0
SPLINE
  5
2CC
100
AcDbEntity
  8
ALL_FEATURES
100
AcDbSpline
 62
7
  6
CONTINUOUS
 70
0
 71
3
 72
54
 73
50
 74
0
 42
0.0000001
 43
0.0000001
 44
0.0000000001
 40
0.0
 40
0.0
 40
0.0
 40
0.0
 40
0.0537555606
 40
0.0810758627
 40
0.1088562352
 40
0.1229818447
 40
0.1373053326
 40
0.1518680304
 40
0.1667216786
 40
0.1819289256
 40
0.1975709448
 40
0.2305751032
 40
0.2669570348
 40
0.2768033056
 40
0.2870194814
 40
0.2976403655
 40
0.3087073002
 40
0.3202660672
 40
0.3323094228
 40
0.344797958
 40
0.3576991347
 40
0.3708866595
 40
0.3841535403
 40
0.3973025404
 40
0.4101926905
 40
0.4226979254
 40
0.4347165187
 40
0.4462515996
 40
0.4573175727
 40
0.4679331276
 40
0.4781421483
 40
0.4879853935
 40
0.4974983084
 40
0.5156696619
 40
0.5329064222
 40
0.5652743127
 40
0.5956947316
 40
0.6248229733
 40
0.6806856565
 40
0.734828031
 40
0.788133087
 40
0.814626745
 40
0.8410616997
 40
0.8674669752
 40
0.8938684673
 40
0.9202914712
 40
0.9467638479
 40
0.9733190287
 40
1.0
 40
1.0
 40
1.0
 40
1.0
 10
6.7799156769
 20
4.6980628092
 30
0.0
 10
6.7806151885
 20
4.7021359478
 30
0.0
 10
6.7819488603
 20
4.7082395173
 30
0.0
 10
6.7844266583
 20
4.7162374134
 30
0.0
 10
6.786332254
 20
4.7212122428
 30
0.0
 10
6.788107253
 20
4.7251550564
 30
0.0
 10
6.7895869128
 20
4.7281134581
 30
0.0
 10
6.7912243706
 20
4.7310520154
 30
0.0
 10
6.7930393558
 20
4.7339649456
 30
0.0
 10
6.7950508252
 20
4.7368481765
 30
0.0
 10
6.7980897902
 20
4.7407065999
 30
0.0
 10
6.8026207002
 20
4.7454468596
 30
0.0
 10
6.807477997
 20
4.7491777434
 30
0.0
 10
6.8111937019
 20
4.7514212024
 30
0.0
 10
6.8132701847
 20
4.7525427822
 30
0.0
 10
6.8154872657
 20
4.7535947084
 30
0.0
 10
6.8178550402
 20
4.7545610984
 30
0.0
 10
6.8203781981
 20
4.7554248959
 30
0.0
 10
6.8230543851
 20
4.756164262
 30
0.0
 10
6.8258737359
 20
4.7567522808
 30
0.0
 10
6.828814198
 20
4.7571573368
 30
0.0
 10
6.8318349882
 20
4.7573652715
 30
0.0
 10
6.8348821965
 20
4.7573703526
 30
0.0
 10
6.8378992135
 20
4.7571580476
 30
0.0
 10
6.8408359351
 20
4.7567457122
 30
0.0
 10
6.8436542253
 20
4.7561603754
 30
0.0
 10
6.8463283786
 20
4.755422488
 30
0.0
 10
6.8488472287
 20
4.7545577248
 30
0.0
 10
6.8512119808
 20
4.7535901732
 30
0.0
 10
6.8534286367
 20
4.7525398018
 30
0.0
 10
6.8555044834
 20
4.7514196645
 30
0.0
 10
6.8574499845
 20
4.7502425864
 30
0.0
 10
6.8598483334
 20
4.7486373772
 30
0.0
 10
6.8625893018
 20
4.7465288363
 30
0.0
 10
6.8664582212
 20
4.743032251
 30
0.0
 10
6.8705707511
 20
4.7384296053
 30
0.0
 10
6.8746195217
 20
4.7326211933
 30
0.0
 10
6.8789388012
 20
4.7248569352
 30
0.0
 10
6.8829329456
 20
4.7148869339
 30
0.0
 10
6.8860992554
 20
4.7027139882
 30
0.0
 10
6.887712263
 20
4.692529104
 30
0.0
 10
6.8885008461
 20
4.6843985243
 30
0.0
 10
6.88886152
 20
4.6783084494
 30
0.0
 10
6.8890015682
 20
4.6722166499
 30
0.0
 10
6.8889270796
 20
4.6661245759
 30
0.0
 10
6.8886336774
 20
4.6600339143
 30
0.0
 10
6.8881150938
 20
4.653946241
 30
0.0
 10
6.8873538429
 20
4.6478640551
 30
0.0
 10
6.8866729466
 20
4.643826579
 30
0.0
 10
6.8862838959
 20
4.6418125582
 30
0.0
  0
SPLINE
  5
2CD
100
AcDbEntity
  8
ALL_FEATURES
100
AcDbSpline
 62
7
  6
CONTINUOUS
 70
0
 71
3
 72
35
 73
31
 74
0
 42
0.0000001
 43
0.0000001
 44
0.0000000001
 40
0.0
 40
0.0
 40
0.0
 40
0.0
 40
0.0387733837
 40
0.0820744771
 40
0.1057112999
 40
0.1305524972
 40
0.1561965561
 40
0.1819818783
 40
0.1947013712
 40
0.2071842859
 40
0.2312908532
 40
0.2540782437
 40
0.2755510281
 40
0.2958300031
 40
0.3150600027
 40
0.3509588348
 40
0.3842644735
 40
0.4156878929
 40
0.4746972198
 40
0.5029315281
 40
0.5305748313
 40
0.5845876832
 40
0.6375029221
 40
0.689758274
 40
0.7416230281
 40
0.7932717249
 40
0.8448279896
 40
0.8963940606
 40
0.9480743281
 40
1.0
 40
1.0
 40
1.0
 40
1.0
 10
6.8586894221
 20
4.593179752
 30
0.0
 10
6.8568970018
 20
4.591959356
 30
0.0
 10
6.8529250694
 20
4.5896269254
 30
0.0
 10
6.8474126965
 20
4.5874157087
 30
0.0
 10
6.8424407362
 20
4.5861168364
 30
0.0
 10
6.8383439491
 20
4.5854433621
 30
0.0
 10
6.8340811514
 20
4.5851582416
 30
0.0
 10
6.8304891911
 20
4.5852784843
 30
0.0
 10
6.8276526714
 20
4.5855798046
 30
0.0
 10
6.8249271372
 20
4.5860057929
 30
0.0
 10
6.8216852731
 20
4.5867478512
 30
0.0
 10
6.8180429945
 20
4.5879259142
 30
0.0
 10
6.8147097765
 20
4.5893205786
 30
0.0
 10
6.8116693404
 20
4.5908724363
 30
0.0
 10
6.8080558344
 20
4.5930522374
 30
0.0
 10
6.8040741655
 20
4.5960085292
 30
0.0
 10
6.7999572879
 20
4.5998606325
 30
0.0
 10
6.7953888271
 20
4.6050698875
 30
0.0
 10
6.7916634282
 20
4.6105995275
 30
0.0
 10
6.7886415372
 20
4.6162725831
 30
0.0
 10
6.7860810052
 20
4.6218632496
 30
0.0
 10
6.7835022698
 20
4.6289476682
 30
0.0
 10
6.7811978556
 20
4.6375558607
 30
0.0
 10
6.7795483106
 20
4.6461886749
 30
0.0
 10
6.7784479104
 20
4.6548353299
 30
0.0
 10
6.7778291653
 20
4.6634897035
 30
0.0
 10
6.7776550681
 20
4.6721472995
 30
0.0
 10
6.7779153289
 20
4.6808046439
 30
0.0
 10
6.7786252913
 20
4.6894575667
 30
0.0
 10
6.779424147
 20
4.6952007134
 30
0.0
 10
6.7799156769
 20
4.6980628092
 30
0.0
  0
SPLINE
  5
2CE
100
AcDbEntity
  8
ALL_FEATURES
100
AcDbSpline
 62
7
  6
CONTINUOUS
 70
0
 71
3
 72
23
 73
19
 74
0
 42
0.0000001
 43
0.0000001
 44
0.0000000001
 40
0.0
 40
0.0
 40
0.0
 40
0.0
 40
0.1182162447
 40
0.1771231622
 40
0.2359864347
 40
0.2948708693
 40
0.3538441847
 40
0.4129858543
 40
0.4723972778
 40
0.53221659
 40
0.5926385788
 40
0.7164670441
 40
0.7810193489
 40
0.8485020805
 40
0.8838300659
 40
0.9205973595
 40
0.9591731363
 40
1.0
 40
1.0
 40
1.0
 40
1.0
 10
6.88722735
 20
5.6046020411
 30
0.0
 10
6.88788036
 20
5.6002750777
 30
0.0
 10
6.8885626939
 20
5.5937436763
 30
0.0
 10
6.8889536319
 20
5.5850158703
 30
0.0
 10
6.8889966441
 20
5.5784750827
 30
0.0
 10
6.8887901298
 20
5.571935187
 30
0.0
 10
6.8883286965
 20
5.5653978005
 30
0.0
 10
6.8875954522
 20
5.5588653571
 30
0.0
 10
6.8865657737
 20
5.5523411142
 30
0.0
 10
6.8852034357
 20
5.5458282747
 30
0.0
 10
6.8828585341
 20
5.5371008241
 30
0.0
 10
6.8795977813
 20
5.5284418604
 30
0.0
 10
6.875121905
 20
5.5200807278
 30
0.0
 10
6.8716269931
 20
5.5149463507
 30
0.0
 10
6.8683293063
 20
5.5109645177
 30
0.0
 10
6.8654971244
 20
5.5079992686
 30
0.0
 10
6.8622941476
 20
5.5051232256
 30
0.0
 10
6.8599386294
 20
5.5033569674
 30
0.0
 10
6.8586894221
 20
5.502506426
 30
0.0
  0
SPLINE
  5
2CF
100
AcDbEntity
  8
ALL_FEATURES
100
AcDbSpline
 62
7
  6
CONTINUOUS
 70
0
 71
3
 72
11
 73
7
 74
0
 42
0.0000001
 43
0.0000001
 44
0.0000000001
 40
0.0
 40
0.0
 40
0.0
 40
0.0
 40
0.2499744144
 40
0.5001953556
 40
0.7504623525
 40
1.0
 40
1.0
 40
1.0
 40
1.0
 10
6.8366704404
 20
4.954074766
 30
0.0
 10
6.8358316314
 20
4.9539456648
 30
0.0
 10
6.8341366871
 20
4.9537817968
 30
0.0
 10
6.8315837623
 20
4.9538442282
 30
0.0
 10
6.8290567478
 20
4.9541967443
 30
0.0
 10
6.8274081917
 20
4.9546152286
 30
0.0
 10
6.8265995634
 20
4.9548679601
 30
0.0
  0
SPLINE
  5
2D0
100
AcDbEntity
  8
ALL_FEATURES
100
AcDbSpline
 62
7
  6
CONTINUOUS
 70
0
 71
3
 72
17
 73
13
 74
0
 42
0.0000001
 43
0.0000001
 44
0.0000000001
 40
0.0
 40
0.0
 40
0.0
 40
0.0
 40
0.2276258414
 40
0.4623408831
 40
0.523009685
 40
0.5847971875
 40
0.6479485217
 40
0.7128191864
 40
0.7798704065
 40
0.8496393053
 40
0.9227444447
 40
1.0
 40
1.0
 40
1.0
 40
1.0
 10
6.8862838959
 20
4.6418125582
 30
0.0
 10
6.8854586723
 20
4.6375405759
 30
0.0
 10
6.8833505165
 20
4.6289394101
 30
0.0
 10
6.8797266601
 20
4.619575063
 30
0.0
 10
6.8765919338
 20
4.6135079208
 30
0.0
 10
6.8748119242
 20
4.6104372032
 30
0.0
 10
6.8728326401
 20
4.6073944548
 30
0.0
 10
6.8706210163
 20
4.6043895259
 30
0.0
 10
6.8681414757
 20
4.6014340039
 30
0.0
 10
6.8653602433
 20
4.598536785
 30
0.0
 10
6.8622159495
 20
4.5957339296
 30
0.0
 10
6.8599100552
 20
4.5940108383
 30
0.0
 10
6.8586894221
 20
4.593179752
 30
0.0
  0
ENDSEC
  0
SECTION
  2
OBJECTS
  0
DICTIONARY
  5
C
100
AcDbDictionary
280
0
281
1
  3
ACAD_GROUP
350
D
  3
ACAD_MLINESTYLE
350
17
  3
ACAD_LAYOUT
350
1A
  3
ACAD_PLOTSETTINGS
350
19
  3
ACAD_PLOTSTYLENAME
350
E
  0
DICTIONARY
  5
D
102
{ACAD_REACTORS
330
C
102
}
100
AcDbDictionary
280
0
281
1
  0
ACDBDICTIONARYWDFLT
  5
E
102
{ACAD_REACTORS
330
C
102
}
100
AcDbDictionary
281
1
  3
Normal
350
F
100
AcDbDictionaryWithDefault
340
F
  0
DICTIONARY
  5
17
102
{ACAD_REACTORS
330
C
102
}
100
AcDbDictionary
280
0
281
1
  3
Standard
350
18
  0
DICTIONARY
  5
19
102
{ACAD_REACTORS
330
C
102
}
100
AcDbDictionary
281
1
  0
DICTIONARY
  5
1A
102
{ACAD_REACTORS
330
C
102
}
100
AcDbDictionary
281
1
  3
Model
350
2D1
  3
Layout1
350
2D2
  0
ACDBPLACEHOLDER
  5
F
102
{ACAD_REACTORS
330
E
102
}
  0
MLINESTYLE
  5
18
102
{ACAD_REACTORS
330
17
102
}
100
AcDbMlineStyle
  2
STANDARD
 70
0
  3

 62
256
 51
90.0
 52
90.0
 71
2
 49
0.5
 62
256
  6
BYLAYER
 49
-0.5
 62
256
  6
BYLAYER
  0
LAYOUT
  5
2D1
102
{ACAD_REACTORS
330
1A
102
}
100
AcDbPlotSettings
  1

  2
none_device
  4
ANSI_A_(11.00_x_8.50_Inches)
  6

 40
0.0
 41
0.0
 42
0.0
 43
0.0
 44
279.4
 45
215.9
 46
0.0
 47
0.0
 48
0.0
 49
0.0
140
0.0
141
0.0
142
1.0
143
1.0
 70
1024
 72
0
 73
0
 74
0
  7

 75
0
147
1.0
148
0.0
149
0.0
100
AcDbLayout
  1
Model
 70
0
 71
0
 10
0.0
 20
0.0
 11
11.0
 21
8.5
 12
0.0
 22
0.0
 32
0.0
 14
0.0
 24
0.0
 34
0.0
 15
0.0
 25
0.0
 35
0.0
146
0.0
 13
0.0
 23
0.0
 33
0.0
 16
1.0
 26
0.0
 36
0.0
 17
0.0
 27
1.0
 37
0.0
 76
0
330
211
345
0
346
0
  0
LAYOUT
  5
2D2
102
{ACAD_REACTORS
330
1A
102
}
100
AcDbPlotSettings
  1

  2
none_device
  4
ANSI_A_(11.00_x_8.50_Inches)
  6

 40
0.0
 41
0.0
 42
0.0
 43
0.0
 44
279.4
 45
215.9
 46
0.0
 47
0.0
 48
0.0
 49
0.0
140
0.0
141
0.0
142
1.0
143
1.0
 70
0
 72
0
 73
0
 74
0
  7

 75
0
147
1.0
148
0.0
149
0.0
100
AcDbLayout
  1
Layout1
 70
0
 71
1
 10
0.0
 20
0.0
 11
11.0
 21
8.5
 12
0.0
 22
0.0
 32
0.0
 14
0.0
 24
0.0
 34
0.0
 15
0.0
 25
0.0
 35
0.0
146
0.0
 13
0.0
 23
0.0
 33
0.0
 16
1.0
 26
0.0
 36
0.0
 17
0.0
 27
1.0
 37
0.0
 76
0
330
212
345
0
346
0
  0
ENDSEC
  0
EOF
