999
DXF file: 3-669_right.dxf
999
Pro/ENGINEER 2018400 by Parametric Technology Corporation
  0
SECTION
  2
HEADER
  9
$ACADVER
  1
AC1027
  9
$DWGCODEPAGE
  3
ANSI_1252
  9
$EXTMAX
 10
11.0
 20
8.5
 30
0.0
  9
$EXTMIN
 10
0.0
 20
0.0
 30
0.0
  9
$LIMMIN
 10
0.0
 20
0.0
  9
$LIMMAX
 10
11.0
 20
8.5
  9
$VIEWCTR
 10
5.5
 20
4.25
  9
$VIEWSIZE
 40
8.5
  9
$CLAYER
  8
0
  9
$LTSCALE
 40
0.605
  9
$CELTYPE
  6
BYLAYER
  9
$DIMSCALE
 40
1.0
  9
$DIMASZ
 40
0.1
  9
$DIMEXO
 40
0.0625
  9
$DIMDLI
 40
0.418
  9
$DIMEXE
 40
0.125
  9
$DIMCEN
 40
0.099
  9
$DIMLFAC
 40
1.0
  9
$DIMBLK
  1
_FILLED
  9
$DIMALT
 70
1
  9
$DIMALTD
 70
2
  9
$DIMALTTD
 70
2
  9
$DIMALTF
 40
25.4
  9
$DIMTXT
 40
0.08
  9
$DIMTOL
 70
1
  9
$DIMLIM
 70
0
  9
$DIMTFAC
 40
1.0
  9
$DIMTP
 40
0.001
  9
$DIMTM
 40
0.001
  9
$DIMGAP
 40
0.09
  9
$DIMDSEP
 70
46
  9
$AUNITS
 70
0
  9
$PDMODE
 70
3
  9
$PDSIZE
 40
0.3125
  9
$HANDSEED
  5
278
  9
$TILEMODE
 70
1
  9
$MEASUREMENT
 70
0
  9
$INSUNITS
 70
1
  0
ENDSEC
  0
SECTION
  2
CLASSES
  0
CLASS
  1
ACDBDICTIONARYWDFLT
  2
AcDbDictionaryWithDefault
  3
AutoCAD 2000
 90
0
 91
1
280
0
281
0
  0
CLASS
  1
ACDBPLACEHOLDER
  2
AcDbPlaceHolder
  3
AutoCAD 2000
 90
0
 91
1
280
0
281
0
  0
CLASS
  1
LAYOUT
  2
AcDbLayout
  3
AutoCAD 2000
 90
0
 91
0
280
0
281
0
  0
ENDSEC
  0
SECTION
  2
TABLES
  0
TABLE
  2
VPORT
  5
8
100
AcDbSymbolTable
 70
2
  0
VPORT
  5
1F4
100
AcDbSymbolTableRecord
100
AcDbViewportTableRecord
  2
*ACTIVE
 70
0
 10
0.0
 20
0.0
 11
1.0
 21
1.0
 12
5.5
 22
4.25
 13
0.0
 23
0.0
 14
1.0
 24
1.0
 15
0.0
 25
0.0
 16
0.0
 26
0.0
 36
1.0
 17
0.0
 27
0.0
 37
0.0
 40
8.5
 41
1.2941176471
 42
50.0
 43
0.0
 44
0.0
 50
0.0
 51
0.0
 71
0
 72
100
 73
1
 74
1
 75
0
 76
0
 77
0
 78
0
  0
ENDTAB
  0
TABLE
  2
LTYPE
  5
5
100
AcDbSymbolTable
 70
6
  0
LTYPE
  5
14
100
AcDbSymbolTableRecord
100
AcDbLinetypeTableRecord
  2
BYBLOCK
 70
0
  3

 72
65
 73
0
 40
0.0
  0
LTYPE
  5
15
100
AcDbSymbolTableRecord
100
AcDbLinetypeTableRecord
  2
BYLAYER
 70
0
  3

 72
65
 73
0
 40
0.0
  0
LTYPE
  5
16
100
AcDbSymbolTableRecord
100
AcDbLinetypeTableRecord
  2
CONTINUOUS
 70
64
  3
Solid line
 72
65
 73
0
 40
0.0
  0
LTYPE
  5
1F5
100
AcDbSymbolTableRecord
100
AcDbLinetypeTableRecord
  2
CENTER
 70
64
  3
____ _ ____ _ ____ _ ____ _ ____ _ ____ _ ____
 72
65
 73
4
 40
0.6
 49
0.375
 74
0
 49
-0.075
 74
0
 49
0.075
 74
0
 49
-0.075
 74
0
  0
LTYPE
  5
1F6
100
AcDbSymbolTableRecord
100
AcDbLinetypeTableRecord
  2
HIDDEN
 70
64
  3
- - - - - - - - - - - - - - - - - - - -
 72
65
 73
2
 40
0.2
 49
0.1
 74
0
 49
-0.1
 74
0
  0
LTYPE
  5
1F7
100
AcDbSymbolTableRecord
100
AcDbLinetypeTableRecord
  2
PHANTOM
 70
64
  3
_____ _ _ _____ _ _ _____ _ _ _____
 72
65
 73
6
 40
0.8
 49
0.45
 74
0
 49
-0.05
 74
0
 49
0.1
 74
0
 49
-0.05
 74
0
 49
0.1
 74
0
 49
-0.05
 74
0
  0
LTYPE
  5
1F8
100
AcDbSymbolTableRecord
100
AcDbLinetypeTableRecord
  2
DOT
 70
64
  3
. . . . . . . . . . . . . . . . . . . .
 72
65
 73
2
 40
0.2
 49
0.1
 74
0
 49
-0.1
 74
0
  0
LTYPE
  5
1F9
100
AcDbSymbolTableRecord
100
AcDbLinetypeTableRecord
  2
DASHED
 70
64
  3
- - - - - - - - - - - - - - - - - - - -
 72
65
 73
2
 40
0.2
 49
0.1
 74
0
 49
-0.1
 74
0
  0
ENDTAB
  0
TABLE
  2
LAYER
  5
2
100
AcDbSymbolTable
 70
36
  0
LAYER
  5
10
100
AcDbSymbolTableRecord
100
AcDbLayerTableRecord
  2
0
 70
0
 62
7
  6
CONTINUOUS
370
-3
390
F
  0
LAYER
  5
1FA
100
AcDbSymbolTableRecord
100
AcDbLayerTableRecord
  2
DEFAULT_1
 70
0
 62
7
  6
CENTER
370
-3
390
F
  0
LAYER
  5
1FB
100
AcDbSymbolTableRecord
100
AcDbLayerTableRecord
  2
DEFAULT_2
 70
0
 62
8
  6
HIDDEN
370
-3
390
F
  0
LAYER
  5
1FC
100
AcDbSymbolTableRecord
100
AcDbLayerTableRecord
  2
DEFAULT_3
 70
0
 62
7
  6
PHANTOM
370
-3
390
F
  0
LAYER
  5
1FD
100
AcDbSymbolTableRecord
100
AcDbLayerTableRecord
  2
ALL_FEATURES
 70
0
 62
7
  6
CONTINUOUS
370
-3
390
F
  0
LAYER
  5
1FE
100
AcDbSymbolTableRecord
100
AcDbLayerTableRecord
  2
AXES_FEATURES
 70
0
 62
7
  6
CONTINUOUS
370
-3
390
F
  0
LAYER
  5
1FF
100
AcDbSymbolTableRecord
100
AcDbLayerTableRecord
  2
CHAMFER_FEATURES
 70
0
 62
7
  6
CONTINUOUS
370
-3
390
F
  0
LAYER
  5
200
100
AcDbSymbolTableRecord
100
AcDbLayerTableRecord
  2
COORDINATE_SYSTEMS
 70
0
 62
7
  6
CONTINUOUS
370
-3
390
F
  0
LAYER
  5
201
100
AcDbSymbolTableRecord
100
AcDbLayerTableRecord
  2
CUT_FEATURES
 70
0
 62
7
  6
CONTINUOUS
370
-3
390
F
  0
LAYER
  5
202
100
AcDbSymbolTableRecord
100
AcDbLayerTableRecord
  2
CYAN
 70
0
 62
7
  6
CONTINUOUS
370
-3
390
F
  0
LAYER
  5
203
100
AcDbSymbolTableRecord
100
AcDbLayerTableRecord
  2
DATUM_CURVES
 70
0
 62
7
  6
CONTINUOUS
370
-3
390
F
  0
LAYER
  5
204
100
AcDbSymbolTableRecord
100
AcDbLayerTableRecord
  2
DATUM_PLANES
 70
0
 62
7
  6
CONTINUOUS
370
-3
390
F
  0
LAYER
  5
205
100
AcDbSymbolTableRecord
100
AcDbLayerTableRecord
  2
DATUM_POINTS
 70
0
 62
7
  6
CONTINUOUS
370
-3
390
F
  0
LAYER
  5
206
100
AcDbSymbolTableRecord
100
AcDbLayerTableRecord
  2
DEFAULT_COORDINATE_SYSTEM
 70
0
 62
7
  6
CONTINUOUS
370
-3
390
F
  0
LAYER
  5
207
100
AcDbSymbolTableRecord
100
AcDbLayerTableRecord
  2
DEFAULT_DATUM_AXES
 70
0
 62
7
  6
CONTINUOUS
370
-3
390
F
  0
LAYER
  5
208
100
AcDbSymbolTableRecord
100
AcDbLayerTableRecord
  2
DEFAULT_DATUM_PLANES
 70
0
 62
7
  6
CONTINUOUS
370
-3
390
F
  0
LAYER
  5
209
100
AcDbSymbolTableRecord
100
AcDbLayerTableRecord
  2
DEFAULT_SURFACES
 70
0
 62
7
  6
CONTINUOUS
370
-3
390
F
  0
LAYER
  5
20A
100
AcDbSymbolTableRecord
100
AcDbLayerTableRecord
  2
DIMENSIONS
 70
0
 62
7
  6
CONTINUOUS
370
-3
390
F
  0
LAYER
  5
20B
100
AcDbSymbolTableRecord
100
AcDbLayerTableRecord
  2
HOLE_FEATURES
 70
0
 62
7
  6
CONTINUOUS
370
-3
390
F
  0
LAYER
  5
20C
100
AcDbSymbolTableRecord
100
AcDbLayerTableRecord
  2
PLATED_SURFACE_AREA
 70
0
 62
7
  6
CONTINUOUS
370
-3
390
F
  0
LAYER
  5
20D
100
AcDbSymbolTableRecord
100
AcDbLayerTableRecord
  2
POINTS
 70
0
 62
7
  6
CONTINUOUS
370
-3
390
F
  0
LAYER
  5
20E
100
AcDbSymbolTableRecord
100
AcDbLayerTableRecord
  2
PROTRUSION_FEATURES
 70
0
 62
7
  6
CONTINUOUS
370
-3
390
F
  0
LAYER
  5
20F
100
AcDbSymbolTableRecord
100
AcDbLayerTableRecord
  2
QUILTS
 70
0
 62
7
  6
CONTINUOUS
370
-3
390
F
  0
LAYER
  5
210
100
AcDbSymbolTableRecord
100
AcDbLayerTableRecord
  2
ROUND_FEATURES
 70
0
 62
7
  6
CONTINUOUS
370
-3
390
F
  0
LAYER
  5
211
100
AcDbSymbolTableRecord
100
AcDbLayerTableRecord
  2
SURFACE_FEATURES
 70
0
 62
7
  6
CONTINUOUS
370
-3
390
F
  0
LAYER
  5
212
100
AcDbSymbolTableRecord
100
AcDbLayerTableRecord
  2
SURFACE_FINISH_SYMBOLS
 70
0
 62
7
  6
CONTINUOUS
370
-3
390
F
  0
LAYER
  5
213
100
AcDbSymbolTableRecord
100
AcDbLayerTableRecord
  2
WETTED_SURFACE_AREA
 70
0
 62
7
  6
CONTINUOUS
370
-3
390
F
  0
LAYER
  5
214
100
AcDbSymbolTableRecord
100
AcDbLayerTableRecord
  2
WHITE
 70
0
 62
7
  6
CONTINUOUS
370
-3
390
F
  0
ENDTAB
  0
TABLE
  2
STYLE
  5
3
100
AcDbSymbolTable
 70
1
  0
STYLE
  5
11
100
AcDbSymbolTableRecord
100
AcDbTextStyleTableRecord
  2
STANDARD
 70
0
 40
0.0
 41
0.8
 50
0.0
 71
0
 42
0.2
  3
txt
  4

  0
STYLE
  5
215
100
AcDbSymbolTableRecord
100
AcDbTextStyleTableRecord
  2
TEXTSTYLE_1
 70
0
 40
0.0
 41
0.8
 50
0.0
 71
0
 42
0.2
  3
gdt
  4

  0
ENDTAB
  0
TABLE
  2
VIEW
  5
6
100
AcDbSymbolTable
 70
0
  0
ENDTAB
  0
TABLE
  2
UCS
  5
7
100
AcDbSymbolTable
 70
0
  0
ENDTAB
  0
TABLE
  2
APPID
  5
9
100
AcDbSymbolTable
 70
1
  0
APPID
  5
216
100
AcDbSymbolTableRecord
100
AcDbRegAppTableRecord
  2
ACAD
 70
0
  0
ENDTAB
  0
TABLE
  2
BLOCK_RECORD
  5
1
100
AcDbSymbolTable
 70
0
  0
BLOCK_RECORD
  5
217
100
AcDbSymbolTableRecord
100
AcDbBlockTableRecord
  2
*Model_Space
  0
BLOCK_RECORD
  5
218
100
AcDbSymbolTableRecord
100
AcDbBlockTableRecord
  2
*Paper_Space
  0
BLOCK_RECORD
  5
219
100
AcDbSymbolTableRecord
100
AcDbBlockTableRecord
  2
_FILLED
  0
ENDTAB
  0
TABLE
  2
DIMSTYLE
  5
A
100
AcDbSymbolTable
 70
1
100
AcDbDimStyleTable
 71
0
  0
DIMSTYLE
105
21A
100
AcDbSymbolTableRecord
100
AcDbDimStyleTableRecord
  2
STANDARD
 70
0
  3

  4

 40
1.0
 41
0.1
 42
0.0625
 43
0.38
 44
0.125
 45
0.0
 46
0.0
 47
0.001
 48
0.001
140
0.08
141
0.09
142
0.0
143
25.4
144
1.0
145
0.0
146
1.0
147
0.09
 71
1.0
 72
0.0
 73
1
 74
1
 75
0
 76
0
 77
0
 78
4
 79
1
170
1
171
2
172
0
173
0
174
0
175
0
176
0
177
0
178
0
270
2
179
3
271
3
272
3
273
2
274
2
275
0
280
0
281
0
282
0
283
1
284
4
285
0
286
0
287
3
288
0
340
11
278
46
341
219
342
219
343
219
344
219
  0
ENDTAB
  0
ENDSEC
  0
SECTION
  2
BLOCKS
  0
BLOCK
  5
20
100
AcDbEntity
  8
0
100
AcDbBlockBegin
  2
*Model_Space
 70
0
 10
0.0
 20
0.0
 30
0.0
  3
*Model_Space
  1

  0
ENDBLK
  5
21
100
AcDbEntity
  8
0
100
AcDbBlockEnd
  0
BLOCK
  5
1C
100
AcDbEntity
  8
0
100
AcDbBlockBegin
  2
*Paper_Space
 70
0
 10
0.0
 20
0.0
 30
0.0
  3
*Paper_Space
  1

  0
ENDBLK
  5
1D
100
AcDbEntity
  8
0
100
AcDbBlockEnd
  0
BLOCK
  5
21B
100
AcDbEntity
  8
0
100
AcDbBlockBegin
  2
_FILLED
 70
64
 10
0.0
 20
0.0
  3
_FILLED
  1

  0
SOLID
  5
21C
100
AcDbEntity
  8
0
  6
BYBLOCK
 62
0
100
AcDbTrace
 10
0.0
 20
0.0
 11
-1.0
 21
0.2
 12
-1.0
 22
-0.2
 13
-1.0
 23
-0.2
  0
ENDBLK
  5
21D
100
AcDbEntity
  8
0
  6
BYBLOCK
 62
0
100
AcDbBlockEnd
  0
ENDSEC
  0
SECTION
  2
ENTITIES
  0
MTEXT
  5
21E
100
AcDbEntity
  8
0
100
AcDbMText
 62
2
  6
CONTINUOUS
  7
STANDARD
 71
3
 72
1
 10
6.625880034
 20
3.0578867514
 30
0.0
 11
1.0
 21
0.0
 31
0.0
 73
2
 44
0.9
  1
SCALE  .500
 40
0.08
 41
0.704
  0
LINE
  5
21F
100
AcDbEntity
  8
0
100
AcDbLine
 62
7
  6
CONTINUOUS
 10
0.0
 20
0.0
 11
0.0
 21
8.5
  0
LINE
  5
220
100
AcDbEntity
  8
0
100
AcDbLine
 62
7
  6
CONTINUOUS
 10
0.0
 20
0.0
 11
11.0
 21
0.0
  0
LINE
  5
221
100
AcDbEntity
  8
0
100
AcDbLine
 62
7
  6
CONTINUOUS
 10
0.0
 20
8.5
 11
11.0
 21
8.5
  0
LINE
  5
222
100
AcDbEntity
  8
0
100
AcDbLine
 62
7
  6
CONTINUOUS
 10
11.0
 20
0.0
 11
11.0
 21
8.5
  0
LINE
  5
223
100
AcDbEntity
  8
ALL_FEATURES
100
AcDbLine
 62
7
  6
CONTINUOUS
 10
2.7120862764
 20
4.4652140602
 11
2.4776410072
 21
4.0900232007
  0
LINE
  5
224
100
AcDbEntity
  8
ALL_FEATURES
100
AcDbLine
 62
7
  6
CONTINUOUS
 10
3.1146926622
 20
4.2110733304
 11
2.9530859131
 21
3.9714814719
  0
LINE
  5
225
100
AcDbEntity
  8
ALL_FEATURES
100
AcDbLine
 62
7
  6
CONTINUOUS
 10
2.9530859131
 20
3.9714814719
 11
2.4776410072
 21
4.0900232007
  0
LINE
  5
226
100
AcDbEntity
  8
0
100
AcDbLine
 62
7
  6
CONTINUOUS
 10
7.3924676884
 20
4.2454672859
 11
7.3249985389
 21
4.2454672859
  0
LINE
  5
227
100
AcDbEntity
  8
0
100
AcDbLine
 62
7
  6
CONTINUOUS
 10
7.1174676884
 20
4.4604672859
 11
6.9874676884
 21
4.4604672859
  0
LINE
  5
228
100
AcDbEntity
  8
0
100
AcDbLine
 62
7
  6
CONTINUOUS
 10
6.9524676884
 20
4.5154672859
 11
6.8908572088
 21
4.5154672859
  0
LINE
  5
229
100
AcDbEntity
  8
ALL_FEATURES
100
AcDbLine
 62
7
  6
CONTINUOUS
 10
5.3274676884
 20
4.5654672859
 11
4.2464676884
 21
4.5654672859
  0
LINE
  5
22A
100
AcDbEntity
  8
ALL_FEATURES
100
AcDbLine
 62
7
  6
CONTINUOUS
 10
5.3274676884
 20
4.8654672859
 11
4.7804676884
 21
4.8654672859
  0
LINE
  5
22B
100
AcDbEntity
  8
ALL_FEATURES
100
AcDbLine
 62
7
  6
CONTINUOUS
 10
5.3274676884
 20
4.5654672849
 11
5.3274676884
 21
5.1654672868
  0
LINE
  5
22C
100
AcDbEntity
  8
0
100
AcDbLine
 62
7
  6
CONTINUOUS
 10
5.3505446115
 20
5.1855858046
 11
5.3505446115
 21
4.5453487671
  0
LINE
  5
22D
100
AcDbEntity
  8
0
100
AcDbLine
 62
7
  6
CONTINUOUS
 10
5.3827618061
 20
5.2066437565
 11
5.3827618061
 21
4.5242908153
  0
LINE
  5
22E
100
AcDbEntity
  8
0
100
AcDbLine
 62
7
  6
CONTINUOUS
 10
5.4562027765
 20
5.2152488881
 11
5.4562027765
 21
4.5156856836
  0
LINE
  5
22F
100
AcDbEntity
  8
ALL_FEATURES
100
AcDbLine
 62
7
  6
CONTINUOUS
 10
5.3274676884
 20
5.1654672859
 11
4.3424676884
 21
5.1654672859
  0
LINE
  5
230
100
AcDbEntity
  8
0
100
AcDbLine
 62
7
  6
CONTINUOUS
 10
6.9524676884
 20
5.2154672859
 11
6.8908572088
 21
5.2154672859
  0
LINE
  5
231
100
AcDbEntity
  8
0
100
AcDbLine
 62
7
  6
CONTINUOUS
 10
5.5295546208
 20
5.174644286
 11
5.5295546208
 21
4.5562902857
  0
LINE
  5
232
100
AcDbEntity
  8
0
100
AcDbLine
 62
7
  6
CONTINUOUS
 10
7.1174676884
 20
5.2704672859
 11
6.9874676884
 21
5.2704672859
  0
LINE
  5
233
100
AcDbEntity
  8
0
100
AcDbLine
 62
7
  6
CONTINUOUS
 10
7.3924676884
 20
5.4854672859
 11
7.3249985389
 21
5.4854672859
  0
LINE
  5
234
100
AcDbEntity
  8
0
100
AcDbLine
 62
7
  6
CONTINUOUS
 10
7.2529665175
 20
5.4548314546
 11
7.1761702537
 21
5.3750814883
  0
LINE
  5
235
100
AcDbEntity
  8
0
100
AcDbLine
 62
7
  6
CONTINUOUS
 10
7.2529665175
 20
4.2761031172
 11
7.1761702537
 21
4.3558530834
  0
LINE
  5
236
100
AcDbEntity
  8
0
100
AcDbLine
 62
7
  6
CONTINUOUS
 10
6.864625804
 20
4.5183694063
 11
6.864625804
 21
5.2125651654
  0
LINE
  5
237
100
AcDbEntity
  8
0
100
AcDbLine
 62
7
  6
CONTINUOUS
 10
6.8908572088
 20
4.5154672859
 11
6.8908572088
 21
5.2154672859
  0
LINE
  5
238
100
AcDbEntity
  8
0
100
AcDbLine
 62
7
  6
CONTINUOUS
 10
6.9524676884
 20
4.4954672859
 11
6.9524676884
 21
5.2354672859
  0
LINE
  5
239
100
AcDbEntity
  8
0
100
AcDbLine
 62
7
  6
CONTINUOUS
 10
6.9874676884
 20
4.4604672859
 11
6.9874676884
 21
5.2704672859
  0
LINE
  5
23A
100
AcDbEntity
  8
0
100
AcDbLine
 62
7
  6
CONTINUOUS
 10
7.1174676884
 20
4.4054672859
 11
7.1174676884
 21
5.3254672859
  0
LINE
  5
23B
100
AcDbEntity
  8
0
100
AcDbLine
 62
7
  6
CONTINUOUS
 10
7.1348017972
 20
5.3492629601
 11
7.1348017972
 21
4.3816716116
  0
LINE
  5
23C
100
AcDbEntity
  8
0
100
AcDbLine
 62
7
  6
CONTINUOUS
 10
7.1761702537
 20
5.3750814883
 11
7.1761702537
 21
4.3558530834
  0
LINE
  5
23D
100
AcDbEntity
  8
0
100
AcDbLine
 62
7
  6
CONTINUOUS
 10
7.2529665175
 20
4.2761031172
 11
7.2529665175
 21
5.4548314546
  0
LINE
  5
23E
100
AcDbEntity
  8
0
100
AcDbLine
 62
7
  6
CONTINUOUS
 10
7.3249985389
 20
4.2454672859
 11
7.3249985389
 21
5.4854672859
  0
LINE
  5
23F
100
AcDbEntity
  8
ALL_FEATURES
100
AcDbLine
 62
7
  6
CONTINUOUS
 10
7.3924676884
 20
5.4854672859
 11
7.3924676884
 21
4.2454672859
  0
ARC
  5
240
100
AcDbEntity
  8
0
100
AcDbCircle
 62
7
  6
CONTINUOUS
 10
6.0995431629
 20
1.1030145855
 40
3.5
100
AcDbArc
 50
77.3734736475
 51
99.3725839912
  0
ARC
  5
241
100
AcDbEntity
  8
0
100
AcDbCircle
 62
7
  6
CONTINUOUS
 10
6.0995431629
 20
8.6279199863
 40
3.5
100
AcDbArc
 50
260.6274160088
 51
282.6265263525
  0
ARC
  5
242
100
AcDbEntity
  8
ALL_FEATURES
100
AcDbCircle
 62
7
  6
CONTINUOUS
 10
4.3434168664
 20
2.4119577068
 40
2.7536090908
100
AcDbArc
 50
97.930128624
 51
112.3374523783
  0
ARC
  5
243
100
AcDbEntity
  8
ALL_FEATURES
100
AcDbCircle
 62
7
  6
CONTINUOUS
 10
4.3425433428
 20
2.4143745009
 40
2.751092786
100
AcDbArc
 50
90.0015756204
 51
97.9190543927
  0
ARC
  5
244
100
AcDbEntity
  8
ALL_FEATURES
100
AcDbCircle
 62
7
  6
CONTINUOUS
 10
4.2467141343
 20
1.9246038981
 40
2.6408633993
100
AcDbArc
 50
90.0053468523
 51
101.9008315835
  0
ARC
  5
245
100
AcDbEntity
  8
ALL_FEATURES
100
AcDbCircle
 62
7
  6
CONTINUOUS
 10
4.2464676884
 20
1.9269672859
 40
2.6385
100
AcDbArc
 50
101.9061784358
 51
108.9079827008
  0
ARC
  5
246
100
AcDbEntity
  8
ALL_FEATURES
100
AcDbCircle
 62
7
  6
CONTINUOUS
 10
4.1037432271
 20
3.3545952867
 40
1.5441210656
100
AcDbArc
 50
139.5888094204
 51
142.1403893844
  0
ARC
  5
247
100
AcDbEntity
  8
ALL_FEATURES
100
AcDbCircle
 62
7
  6
CONTINUOUS
 10
3.7738898483
 20
3.8013262322
 40
1.2522693786
100
AcDbArc
 50
131.0269231405
 51
147.9845059448
  0
ARC
  5
248
100
AcDbEntity
  8
ALL_FEATURES
100
AcDbCircle
 62
7
  6
CONTINUOUS
 10
3.7721468852
 20
3.8028141882
 40
1.25
100
AcDbArc
 50
112.3469579043
 51
131.0114221702
  0
ARC
  5
249
100
AcDbEntity
  8
ALL_FEATURES
100
AcDbCircle
 62
7
  6
CONTINUOUS
 10
3.56915226
 20
3.9045292288
 40
0.548181368
100
AcDbArc
 50
139.5895461527
 51
145.9993733145
  0
ARC
  5
24A
100
AcDbEntity
  8
0
100
AcDbCircle
 62
7
  6
CONTINUOUS
 10
5.5499113545
 20
4.4329590107
 40
0.125
100
AcDbArc
 50
99.3725839913
 51
138.5616812168
  0
ARC
  5
24B
100
AcDbEntity
  8
0
100
AcDbCircle
 62
7
  6
CONTINUOUS
 10
5.5499113545
 20
5.297975561
 40
0.125
100
AcDbArc
 50
221.4383187832
 51
260.6274160087
  0
ARC
  5
24C
100
AcDbEntity
  8
0
100
AcDbCircle
 62
7
  6
CONTINUOUS
 10
6.8908572088
 20
5.0954672859
 40
0.12
100
AcDbArc
 50
90.0
 51
102.6265263525
  0
ARC
  5
24D
100
AcDbEntity
  8
0
100
AcDbCircle
 62
7
  6
CONTINUOUS
 10
6.8908572088
 20
4.6354672859
 40
0.12
100
AcDbArc
 50
257.3734736475
 51
270.0
  0
ARC
  5
24E
100
AcDbEntity
  8
0
100
AcDbCircle
 62
7
  6
CONTINUOUS
 10
7.1041382324
 20
5.444445657
 40
0.1
100
AcDbArc
 50
287.8565955216
 51
316.0809241867
  0
ARC
  5
24F
100
AcDbEntity
  8
0
100
AcDbCircle
 62
7
  6
CONTINUOUS
 10
7.1041382324
 20
4.2864889147
 40
0.1
100
AcDbArc
 50
43.9190758133
 51
72.1434044784
  0
ARC
  5
250
100
AcDbEntity
  8
0
100
AcDbCircle
 62
7
  6
CONTINUOUS
 10
7.3249985389
 20
5.3854672859
 40
0.1
100
AcDbArc
 50
90.0
 51
136.0809241867
  0
ARC
  5
251
100
AcDbEntity
  8
0
100
AcDbCircle
 62
7
  6
CONTINUOUS
 10
7.3249985389
 20
4.3454672859
 40
0.1
100
AcDbArc
 50
223.9190758133
 51
270.0
  0
ARC
  5
252
100
AcDbEntity
  8
0
100
AcDbCircle
 62
7
  6
CONTINUOUS
 10
5.4224676884
 20
4.5454672859
 40
0.045
100
AcDbArc
 50
208.0724869359
 51
318.5616812167
  0
ARC
  5
253
100
AcDbEntity
  8
0
100
AcDbCircle
 62
7
  6
CONTINUOUS
 10
5.4224676884
 20
5.1854672859
 40
0.045
100
AcDbArc
 50
41.4383187833
 51
151.9275130641
  0
ARC
  5
254
100
AcDbEntity
  8
0
100
AcDbCircle
 62
7
  6
CONTINUOUS
 10
5.3474676884
 20
5.2254672859
 40
0.04
100
AcDbArc
 50
274.4117257858
 51
331.9275130644
  0
ARC
  5
255
100
AcDbEntity
  8
0
100
AcDbCircle
 62
7
  6
CONTINUOUS
 10
5.3474676884
 20
4.5054672859
 40
0.04
100
AcDbArc
 50
28.0724869356
 51
85.5882742142
  0
ARC
  5
256
100
AcDbEntity
  8
0
100
AcDbCircle
 62
7
  6
CONTINUOUS
 10
6.9874676884
 20
4.4954672859
 40
0.035
100
AcDbArc
 50
180.0
 51
270.0
  0
ARC
  5
257
100
AcDbEntity
  8
0
100
AcDbCircle
 62
7
  6
CONTINUOUS
 10
6.9874676884
 20
5.2354672859
 40
0.035
100
AcDbArc
 50
90.0
 51
180.0
  0
ARC
  5
258
100
AcDbEntity
  8
0
100
AcDbCircle
 62
7
  6
CONTINUOUS
 10
7.1424676884
 20
4.4054672859
 40
0.025
100
AcDbArc
 50
180.0
 51
252.1434044784
  0
ARC
  5
259
100
AcDbEntity
  8
0
100
AcDbCircle
 62
7
  6
CONTINUOUS
 10
7.1424676884
 20
5.3254672859
 40
0.025
100
AcDbArc
 50
107.8565955216
 51
180.0
  0
ARC
  5
25A
100
AcDbEntity
  8
0
100
AcDbCircle
 62
7
  6
CONTINUOUS
 10
5.3524676884
 20
5.1606598789
 40
0.025
100
AcDbArc
 50
94.4117257858
 51
172.8676476859
  0
ARC
  5
25B
100
AcDbEntity
  8
0
100
AcDbCircle
 62
7
  6
CONTINUOUS
 10
5.3524676884
 20
4.5702746928
 40
0.025
100
AcDbArc
 50
187.1323523141
 51
265.5882742142
  0
SPLINE
  5
25C
100
AcDbEntity
  8
ALL_FEATURES
100
AcDbSpline
 62
7
  6
CONTINUOUS
 70
0
 71
3
 72
11
 73
7
 74
0
 42
0.0000001
 43
0.0000001
 44
0.0000000001
 40
0.0
 40
0.0
 40
0.0
 40
0.0
 40
0.2499894575
 40
0.5
 40
0.7500105425
 40
1.0
 40
1.0
 40
1.0
 40
1.0
 10
3.3914638008
 20
4.4230944064
 30
0.0
 10
3.3683472919
 20
4.4151762581
 30
0.0
 10
3.3231403401
 20
4.3961501617
 30
0.0
 10
3.2597765155
 20
4.3588741737
 30
0.0
 10
3.2018689132
 20
4.3135841843
 30
0.0
 10
3.1675963985
 20
4.2784977828
 30
0.0
 10
3.1517559793
 20
4.2598926443
 30
0.0
  0
SPLINE
  5
25D
100
AcDbEntity
  8
ALL_FEATURES
100
AcDbSpline
 62
7
  6
CONTINUOUS
 70
0
 71
3
 72
11
 73
7
 74
0
 42
0.0000001
 43
0.0000001
 44
0.0000000001
 40
0.0
 40
0.0
 40
0.0
 40
0.0
 40
0.2521224973
 40
0.5031414453
 40
0.7525903437
 40
1.0
 40
1.0
 40
1.0
 40
1.0
 10
2.8846335263
 20
4.3022668558
 30
0.0
 10
2.868101634
 20
4.2810023152
 30
0.0
 10
2.8362076402
 20
4.2377001388
 30
0.0
 10
2.7919158065
 20
4.1705578659
 30
0.0
 10
2.7514091038
 20
4.1016498137
 30
0.0
 10
2.7269205357
 20
4.0545230996
 30
0.0
 10
2.7153634602
 20
4.0307523363
 30
0.0
  0
LINE
  5
25E
100
AcDbEntity
  8
ALL_FEATURES
100
AcDbLine
 62
7
  6
CONTINUOUS
 10
4.7169676374
 20
5.1654672859
 11
4.7305110255
 21
5.0896513334
  0
SPLINE
  5
25F
100
AcDbEntity
  8
ALL_FEATURES
100
AcDbSpline
 62
7
  6
CONTINUOUS
 70
0
 71
3
 72
18
 73
14
 74
0
 42
0.0000001
 43
0.0000001
 44
0.0000000001
 40
0.0
 40
0.0
 40
0.0
 40
0.0
 40
0.0976453912
 40
0.205166344
 40
0.3214258215
 40
0.4453360599
 40
0.5758634442
 40
0.7120262717
 40
0.7819962683
 40
0.8531855803
 40
0.8892493154
 40
0.9256822957
 40
1.0
 40
1.0
 40
1.0
 40
1.0
 10
4.7305110255
 20
5.0896513334
 30
0.0
 10
4.7318225707
 20
5.0822850298
 30
0.0
 10
4.7345936736
 20
5.0668101396
 30
0.0
 10
4.7390222168
 20
5.0425819793
 30
0.0
 10
4.7439548814
 20
5.0164003434
 30
0.0
 10
4.7494432365
 20
4.9885301931
 30
0.0
 10
4.7555572038
 20
4.9592305381
 30
0.0
 10
4.7612346154
 20
4.9340640388
 30
0.0
 10
4.7663060568
 20
4.9134273194
 30
0.0
 10
4.769769715
 20
4.9002957328
 30
0.0
 10
4.7727427673
 20
4.889694358
 30
0.0
 10
4.7759304549
 20
4.8789055714
 30
0.0
 10
4.7785629111
 20
4.8708339287
 30
0.0
 10
4.7804676884
 20
4.8654672859
 30
0.0
  0
SPLINE
  5
260
100
AcDbEntity
  8
ALL_FEATURES
100
AcDbSpline
 62
7
  6
CONTINUOUS
 70
0
 71
3
 72
10
 73
6
 74
0
 42
0.0000001
 43
0.0000001
 44
0.0000000001
 40
0.0
 40
0.0
 40
0.0
 40
0.0
 40
0.246845858
 40
0.4961792253
 40
1.0
 40
1.0
 40
1.0
 40
1.0
 10
4.7804676884
 20
4.8654672859
 30
0.0
 10
4.7523423653
 20
4.8654672859
 30
0.0
 10
4.6958082523
 20
4.8657430467
 30
0.0
 10
4.5818756386
 20
4.8669202936
 30
0.0
 10
4.4960678739
 20
4.8679816969
 30
0.0
 10
4.4386641066
 20
4.8683157218
 30
0.0
  0
SPLINE
  5
261
100
AcDbEntity
  8
ALL_FEATURES
100
AcDbSpline
 62
7
  6
CONTINUOUS
 70
0
 71
3
 72
18
 73
14
 74
0
 42
0.0000001
 43
0.0000001
 44
0.0000000001
 40
0.0
 40
0.0
 40
0.0
 40
0.0
 40
0.0743149731
 40
0.1107468411
 40
0.1468096021
 40
0.2179973367
 40
0.2879661796
 40
0.4241277668
 40
0.5546551049
 40
0.678566313
 40
0.7948276424
 40
0.9023512446
 40
1.0
 40
1.0
 40
1.0
 40
1.0
 10
4.7804676884
 20
4.8654672859
 30
0.0
 10
4.7823724399
 20
4.8601007159
 30
0.0
 10
4.7850049811
 20
4.852029209
 30
0.0
 10
4.7881930341
 20
4.8412406439
 30
0.0
 10
4.791166619
 20
4.8306394456
 30
0.0
 10
4.7946312278
 20
4.8175080806
 30
0.0
 10
4.7997047516
 20
4.7968716817
 30
0.0
 10
4.8053856975
 20
4.7717055688
 30
0.0
 10
4.8115051884
 20
4.7424063886
 30
0.0
 10
4.8170000477
 20
4.7145366362
 30
0.0
 10
4.8219399103
 20
4.6883553047
 30
0.0
 10
4.8263760644
 20
4.664127345
 30
0.0
 10
4.8291525985
 20
4.6486525906
 30
0.0
 10
4.8304668719
 20
4.6412863352
 30
0.0
  0
LINE
  5
262
100
AcDbEntity
  8
ALL_FEATURES
100
AcDbLine
 62
7
  6
CONTINUOUS
 10
4.8304668719
 20
4.6412863352
 11
4.8440451377
 21
4.5654672859
  0
SPLINE
  5
263
100
AcDbEntity
  8
ALL_FEATURES
100
AcDbSpline
 62
7
  6
CONTINUOUS
 70
0
 71
3
 72
24
 73
20
 74
0
 42
0.0000001
 43
0.0000001
 44
0.0000000001
 40
0.0
 40
0.0
 40
0.0
 40
0.0
 40
0.0191877407
 40
0.0750984256
 40
0.1160229363
 40
0.1650332689
 40
0.2216576275
 40
0.2854385891
 40
0.3559029673
 40
0.4324972917
 40
0.5146729703
 40
0.6019704437
 40
0.6939901598
 40
0.7416892009
 40
0.79052293
 40
0.8405391707
 40
0.8918563036
 40
0.9447435778
 40
1.0
 40
1.0
 40
1.0
 40
1.0
 10
4.3424676884
 20
5.1654672859
 30
0.0
 10
4.3429704224
 20
5.1635291643
 30
0.0
 10
4.344929317
 20
5.1559413431
 30
0.0
 10
4.3479115647
 20
5.1442072276
 30
0.0
 10
4.3516300804
 20
5.129449369
 30
0.0
 10
4.3553883248
 20
5.1146247155
 30
0.0
 10
4.3597879749
 20
5.0975021783
 30
0.0
 10
4.3648420619
 20
5.0782365333
 30
0.0
 10
4.3705620326
 20
5.0569915187
 30
0.0
 10
4.3769942993
 20
5.0339512903
 30
0.0
 10
4.3841860625
 20
5.0093007361
 30
0.0
 10
4.3922474933
 20
4.9832302905
 30
0.0
 10
4.3996962486
 20
4.9607399081
 30
0.0
 10
4.4062588839
 20
4.9421902276
 30
0.0
 10
4.4116015756
 20
4.9278604343
 30
0.0
 10
4.4173670998
 20
4.9132881344
 30
0.0
 10
4.4236591233
 20
4.8984740745
 30
0.0
 10
4.430617468
 20
4.8833550429
 30
0.0
 10
4.4358399448
 20
4.8733428098
 30
0.0
 10
4.4386641066
 20
4.8683157218
 30
0.0
  0
SPLINE
  5
264
100
AcDbEntity
  8
ALL_FEATURES
100
AcDbSpline
 62
7
  6
CONTINUOUS
 70
0
 71
3
 72
26
 73
22
 74
0
 42
0.0000001
 43
0.0000001
 44
0.0000000001
 40
0.0
 40
0.0
 40
0.0
 40
0.0
 40
0.0537825201
 40
0.1054387192
 40
0.1557248887
 40
0.204885827
 40
0.2530217442
 40
0.3001657261
 40
0.3914559284
 40
0.4784619933
 40
0.5607108088
 40
0.6376769002
 40
0.7087497894
 40
0.7733162077
 40
0.8308398562
 40
0.8808002603
 40
0.9226630848
 40
0.9559162664
 40
0.9801483975
 40
0.9949723215
 40
1.0
 40
1.0
 40
1.0
 40
1.0
 10
4.4386641066
 20
4.8683157218
 30
0.0
 10
4.4414933819
 20
4.8632795316
 30
0.0
 10
4.446746734
 20
4.85323944
 30
0.0
 10
4.4538090284
 20
4.8380747612
 30
0.0
 10
4.4602703438
 20
4.8231856818
 30
0.0
 10
4.4662655908
 20
4.8085109929
 30
0.0
 10
4.4718937235
 20
4.7940536424
 30
0.0
 10
4.4789082702
 20
4.7752824495
 30
0.0
 10
4.4870291546
 20
4.7524700507
 30
0.0
 10
4.4960424101
 20
4.7259768794
 30
0.0
 10
4.5042970974
 20
4.7008525276
 30
0.0
 10
4.5118655491
 20
4.6773047914
 30
0.0
 10
4.5187583014
 20
4.6555350338
 30
0.0
 10
4.5249853326
 20
4.6357449524
 30
0.0
 10
4.5305206257
 20
4.6181144035
 30
0.0
 10
4.5353401402
 20
4.6028149711
 30
0.0
 10
4.5394083022
 20
4.5900119041
 30
0.0
 10
4.5426955515
 20
4.5798603303
 30
0.0
 10
4.5451296339
 20
4.5724852307
 30
0.0
 10
4.5466349477
 20
4.5679960516
 30
0.0
 10
4.547323374
 20
4.5659780888
 30
0.0
 10
4.5474985277
 20
4.5654672859
 30
0.0
  0
SPLINE
  5
265
100
AcDbEntity
  8
ALL_FEATURES
100
AcDbSpline
 62
7
  6
CONTINUOUS
 70
0
 71
3
 72
10
 73
6
 74
0
 42
0.0000001
 43
0.0000001
 44
0.0000000001
 40
0.0
 40
0.0
 40
0.0
 40
0.0
 40
0.5006340585
 40
0.7507235469
 40
1.0
 40
1.0
 40
1.0
 40
1.0
 10
4.4386641066
 20
4.8683157218
 30
0.0
 10
4.3800396325
 20
4.8686568499
 30
0.0
 10
4.2921183375
 20
4.8685850604
 30
0.0
 10
4.1750421854
 20
4.8658854664
 30
0.0
 10
4.1166117226
 20
4.8634220828
 30
0.0
 10
4.0874632326
 20
4.8618495167
 30
0.0
  0
SPLINE
  5
266
100
AcDbEntity
  8
ALL_FEATURES
100
AcDbSpline
 62
7
  6
CONTINUOUS
 70
0
 71
3
 72
26
 73
22
 74
0
 42
0.0000001
 43
0.0000001
 44
0.0000000001
 40
0.0
 40
0.0
 40
0.0
 40
0.0
 40
0.0554833479
 40
0.1078864269
 40
0.1584176751
 40
0.2075070018
 40
0.2553639681
 40
0.3020956374
 40
0.3923769748
 40
0.4783374848
 40
0.5596413442
 40
0.635862102
 40
0.7064395349
 40
0.7707872399
 40
0.8283497416
 40
0.8785739243
 40
0.9208843105
 40
0.9547104953
 40
0.9795210438
 40
0.9947925608
 40
1.0
 40
1.0
 40
1.0
 40
1.0
 10
4.0874632326
 20
4.8618495167
 30
0.0
 10
4.09133364
 20
4.8569686092
 30
0.0
 10
4.0985660723
 20
4.8472418048
 30
0.0
 10
4.1084441934
 20
4.8324466086
 30
0.0
 10
4.1175045894
 20
4.8179798657
 30
0.0
 10
4.1259559397
 20
4.80374011
 30
0.0
 10
4.133933264
 20
4.789718872
 30
0.0
 10
4.14392617
 20
4.7715263948
 30
0.0
 10
4.1556061253
 20
4.7493826411
 30
0.0
 10
4.1687182792
 20
4.7236106386
 30
0.0
 10
4.180856035
 20
4.6991161294
 30
0.0
 10
4.1920919829
 20
4.6761030277
 30
0.0
 10
4.2024191903
 20
4.6547649404
 30
0.0
 10
4.211824101
 20
4.6353077531
 30
0.0
 10
4.2202482082
 20
4.6179145168
 30
0.0
 10
4.22763275
 20
4.60276693
 30
0.0
 10
4.2339038792
 20
4.5900413538
 30
0.0
 10
4.2389912909
 20
4.5799136488
 30
0.0
 10
4.2427724617
 20
4.572527332
 30
0.0
 10
4.2451184213
 20
4.5680160447
 30
0.0
 10
4.2461932938
 20
4.5659835475
 30
0.0
 10
4.2464676884
 20
4.5654672859
 30
0.0
  0
SPLINE
  5
267
100
AcDbEntity
  8
ALL_FEATURES
100
AcDbSpline
 62
7
  6
CONTINUOUS
 70
0
 71
3
 72
27
 73
23
 74
0
 42
0.0000001
 43
0.0000001
 44
0.0000000001
 40
0.0
 40
0.0
 40
0.0
 40
0.0
 40
0.0182093145
 40
0.0405680917
 40
0.0714048574
 40
0.1104349592
 40
0.157310033
 40
0.2116734286
 40
0.2731939969
 40
0.341540402
 40
0.4163450541
 40
0.4972765093
 40
0.5841568378
 40
0.6769279511
 40
0.7255937624
 40
0.7759079227
 40
0.8280360676
 40
0.882260771
 40
0.9102884317
 40
0.9391165286
 40
0.9689484723
 40
1.0
 40
1.0
 40
1.0
 40
1.0
 10
3.963514439
 20
5.1392320398
 30
0.0
 10
3.9640774331
 20
5.1374666867
 30
0.0
 10
3.9653334456
 20
5.1335342519
 30
0.0
 10
3.9675490813
 20
5.1266142463
 30
0.0
 10
3.9704151332
 20
5.1176778533
 30
0.0
 10
3.9740530965
 20
5.1063691041
 30
0.0
 10
3.9784960814
 20
5.0928045859
 30
0.0
 10
3.9837721552
 20
5.0771050889
 30
0.0
 10
3.9899261808
 20
5.0593965469
 30
0.0
 10
3.9970025124
 20
5.0398077444
 30
0.0
 10
4.0050901097
 20
5.0184867176
 30
0.0
 10
4.0142836128
 20
4.9955719039
 30
0.0
 10
4.0247615294
 20
4.9712101137
 30
0.0
 10
4.0345659216
 20
4.9501416475
 30
0.0
 10
4.0432922349
 20
4.9326879588
 30
0.0
 10
4.0504793981
 20
4.9190927546
 30
0.0
 10
4.0582949962
 20
4.9051953922
 30
0.0
 10
4.0653713985
 20
4.8934911034
 30
0.0
 10
4.0714751975
 20
4.8839766385
 30
0.0
 10
4.0764119709
 20
4.8766649847
 30
0.0
 10
4.0817316221
 20
4.8692446248
 30
0.0
 10
4.085499981
 20
4.8643253414
 30
0.0
 10
4.0874632326
 20
4.8618495167
 30
0.0
  0
SPLINE
  5
268
100
AcDbEntity
  8
ALL_FEATURES
100
AcDbSpline
 62
7
  6
CONTINUOUS
 70
0
 71
3
 72
28
 73
24
 74
0
 42
0.0000001
 43
0.0000001
 44
0.0000000001
 40
0.0
 40
0.0
 40
0.0
 40
0.0
 40
0.0321096116
 40
0.062460935
 40
0.0913916324
 40
0.1192307507
 40
0.1725835623
 40
0.223407327
 40
0.2721914417
 40
0.3192393338
 40
0.4089121696
 40
0.4932257745
 40
0.5723085611
 40
0.6460985921
 40
0.714272577
 40
0.7764255684
 40
0.8320973323
 40
0.8808024767
 40
0.922011378
 40
0.9551671662
 40
0.9796454715
 40
0.9948040972
 40
1.0
 40
1.0
 40
1.0
 40
1.0
 10
3.4793910091
 20
4.7504766941
 30
0.0
 10
3.4822441248
 20
4.7484023333
 30
0.0
 10
3.4877407541
 20
4.7442931481
 30
0.0
 10
3.4956226713
 20
4.7380722992
 30
0.0
 10
3.5029930326
 20
4.7319652041
 30
0.0
 10
3.512151541
 20
4.7240600011
 30
0.0
 10
3.5229152463
 20
4.7143366932
 30
0.0
 10
3.5350776613
 20
4.7027391763
 30
0.0
 10
3.5464915734
 20
4.6913667123
 30
0.0
 10
3.5606550931
 20
4.6767125874
 30
0.0
 10
3.5771348687
 20
4.6588744345
 30
0.0
 10
3.5955500511
 20
4.6380441293
 30
0.0
 10
3.6124723359
 20
4.618228948
 30
0.0
 10
3.6280307021
 20
4.5995834245
 30
0.0
 10
3.6422524763
 20
4.5822462076
 30
0.0
 10
3.6551369847
 20
4.5663869222
 30
0.0
 10
3.6666308953
 20
4.552153706
 30
0.0
 10
3.6766717218
 20
4.5397045254
 30
0.0
 10
3.6851759464
 20
4.5291938144
 30
0.0
 10
3.6920527085
 20
4.5207900724
 30
0.0
 10
3.6971513035
 20
4.5146293427
 30
0.0
 10
3.7003088905
 20
4.5108493997
 30
0.0
 10
3.7017508206
 20
4.5091403007
 30
0.0
 10
3.7021195429
 20
4.5087045588
 30
0.0
  0
SPLINE
  5
269
100
AcDbEntity
  8
ALL_FEATURES
100
AcDbSpline
 62
7
  6
CONTINUOUS
 70
0
 71
3
 72
15
 73
11
 74
0
 42
0.0000001
 43
0.0000001
 44
0.0000000001
 40
0.0
 40
0.0
 40
0.0
 40
0.0
 40
0.1279174388
 40
0.2551057919
 40
0.3814520061
 40
0.5068857642
 40
0.6313866981
 40
0.7549920362
 40
0.8778044845
 40
1.0
 40
1.0
 40
1.0
 40
1.0
 10
4.0874632326
 20
4.8618495167
 30
0.0
 10
4.0610426362
 20
4.860424121
 30
0.0
 10
4.0083798711
 20
4.8570193611
 30
0.0
 10
3.9297867735
 20
4.8499477924
 30
0.0
 10
3.8519397301
 20
4.8406507488
 30
0.0
 10
3.7749908746
 20
4.8288540781
 30
0.0
 10
3.6990920234
 20
4.8142829989
 30
0.0
 10
3.6243943603
 20
4.7966615193
 30
0.0
 10
3.5510531878
 20
4.7757141697
 30
0.0
 10
3.5030710556
 20
4.7593143857
 30
0.0
 10
3.4793910091
 20
4.7504766941
 30
0.0
  0
SPLINE
  5
26A
100
AcDbEntity
  8
ALL_FEATURES
100
AcDbSpline
 62
7
  6
CONTINUOUS
 70
0
 71
3
 72
27
 73
23
 74
0
 42
0.0000001
 43
0.0000001
 44
0.0000000001
 40
0.0
 40
0.0
 40
0.0
 40
0.0
 40
0.0759315521
 40
0.1101593088
 40
0.1425669119
 40
0.2034037054
 40
0.2598639826
 40
0.3127775122
 40
0.3626967551
 40
0.4551316497
 40
0.5391352313
 40
0.6156231887
 40
0.6852201973
 40
0.7481377499
 40
0.8044484832
 40
0.8540913077
 40
0.8969535177
 40
0.9328503069
 40
0.9615369748
 40
0.9825976664
 40
0.9955724077
 40
1.0
 40
1.0
 40
1.0
 40
1.0
 10
3.1670262009
 20
4.5803791746
 30
0.0
 10
3.1732247031
 20
4.5772383272
 30
0.0
 10
3.1821411589
 20
4.572528506
 30
0.0
 10
3.1935154383
 20
4.5661364928
 30
0.0
 10
3.2036024954
 20
4.5602761945
 30
0.0
 10
3.2153369086
 20
4.5532031815
 30
0.0
 10
3.2285130398
 20
4.5448934534
 30
0.0
 10
3.2407096912
 20
4.5369080168
 30
0.0
 10
3.2555112568
 20
4.5268948882
 30
0.0
 10
3.2724541653
 20
4.5149732779
 30
0.0
 10
3.2911301667
 20
4.5012980134
 30
0.0
 10
3.30792592
 20
4.4885975671
 30
0.0
 10
3.3230607168
 20
4.4769022628
 30
0.0
 10
3.336651865
 20
4.4662302729
 30
0.0
 10
3.3487669835
 20
4.4566357215
 30
0.0
 10
3.3594232296
 20
4.4481553735
 30
0.0
 10
3.36861875
 20
4.4408396687
 30
0.0
 10
3.376329092
 20
4.4347375261
 30
0.0
 10
3.382509319
 20
4.4299172232
 30
0.0
 10
3.38706057
 20
4.4264195262
 30
0.0
 10
3.3898643085
 20
4.4242913424
 30
0.0
 10
3.3911390132
 20
4.4233366713
 30
0.0
 10
3.3914638008
 20
4.4230944064
 30
0.0
  0
SPLINE
  5
26B
100
AcDbEntity
  8
ALL_FEATURES
100
AcDbSpline
 62
7
  6
CONTINUOUS
 70
0
 71
3
 72
26
 73
22
 74
0
 42
0.0000001
 43
0.0000001
 44
0.0000000001
 40
0.0
 40
0.0
 40
0.0
 40
0.0
 40
0.0162316392
 40
0.0637611933
 40
0.0987334065
 40
0.1409743822
 40
0.190379221
 40
0.2468966325
 40
0.3105078997
 40
0.3812602748
 40
0.4593043709
 40
0.5451062705
 40
0.639370316
 40
0.6900903705
 40
0.7436068856
 40
0.8003514073
 40
0.8609760547
 40
0.8930199228
 40
0.9266046544
 40
0.962128612
 40
1.0
 40
1.0
 40
1.0
 40
1.0
 10
3.2968786534
 20
4.9589380582
 30
0.0
 10
3.2977410146
 20
4.9577028132
 30
0.0
 10
3.3011208834
 20
4.9528451928
 30
0.0
 10
3.3063159519
 20
4.9452964374
 30
0.0
 10
3.3128546786
 20
4.9357421423
 30
0.0
 10
3.3195303018
 20
4.9260706598
 30
0.0
 10
3.3274235994
 20
4.9148102187
 30
0.0
 10
3.3365904775
 20
4.9020212322
 30
0.0
 10
3.3470952268
 20
4.8877548964
 30
0.0
 10
3.3590562276
 20
4.8720827864
 30
0.0
 10
3.3726183405
 20
4.8550464073
 30
0.0
 10
3.3880312156
 20
4.8367035825
 30
0.0
 10
3.4023102625
 20
4.8207315657
 30
0.0
 10
3.4149720022
 20
4.8073474086
 30
0.0
 10
3.4254822339
 20
4.7967263118
 30
0.0
 10
3.4369183407
 20
4.7857345217
 30
0.0
 10
3.4471963438
 20
4.7764216775
 30
0.0
 10
3.4560632924
 20
4.768760406
 30
0.0
 10
3.4632934349
 20
4.7627706266
 30
0.0
 10
3.4710903574
 20
4.7566214682
 30
0.0
 10
3.4765480851
 20
4.7525436451
 30
0.0
 10
3.4793910091
 20
4.7504766941
 30
0.0
  0
SPLINE
  5
26C
100
AcDbEntity
  8
ALL_FEATURES
100
AcDbSpline
 62
7
  6
CONTINUOUS
 70
0
 71
3
 72
16
 73
12
 74
0
 42
0.0000001
 43
0.0000001
 44
0.0000000001
 40
0.0
 40
0.0
 40
0.0
 40
0.0
 40
0.1044776535
 40
0.196055755
 40
0.2787826262
 40
0.3551656495
 40
0.4927975811
 40
0.6148655103
 40
0.7249440855
 40
0.8250789174
 40
1.0
 40
1.0
 40
1.0
 40
1.0
 10
2.9280313705
 20
4.3556005293
 30
0.0
 10
2.9333937466
 20
4.3536827833
 30
0.0
 10
2.9434340085
 20
4.3500208174
 30
0.0
 10
2.9576390607
 20
4.3446216197
 30
0.0
 10
2.9703611008
 20
4.3396335644
 30
0.0
 10
2.9853738757
 20
4.3336122975
 30
0.0
 10
3.0023022404
 20
4.3266080599
 30
0.0
 10
3.0208370604
 20
4.3186866381
 30
0.0
 10
3.0374300288
 20
4.311424625
 30
0.0
 10
3.0566078644
 20
4.3028843984
 30
0.0
 10
3.0702573575
 20
4.2966805106
 30
0.0
 10
3.0789291208
 20
4.2927165796
 30
0.0
  0
LINE
  5
26D
100
AcDbEntity
  8
ALL_FEATURES
100
AcDbLine
 62
7
  6
CONTINUOUS
 10
3.0789291208
 20
4.2927165796
 11
3.0819079618
 21
4.2913540434
  0
SPLINE
  5
26E
100
AcDbEntity
  8
ALL_FEATURES
100
AcDbSpline
 62
7
  6
CONTINUOUS
 70
0
 71
3
 72
15
 73
11
 74
0
 42
0.0000001
 43
0.0000001
 44
0.0000000001
 40
0.0
 40
0.0
 40
0.0
 40
0.0
 40
0.2277427383
 40
0.4256004663
 40
0.5946684387
 40
0.7354315101
 40
0.847844463
 40
0.9308723095
 40
0.9823417326
 40
1.0
 40
1.0
 40
1.0
 40
1.0
 10
3.0819079618
 20
4.2913540434
 30
0.0
 10
3.0871961864
 20
4.288933673
 30
0.0
 10
3.0970726098
 20
4.2843972457
 30
0.0
 10
3.1108741213
 20
4.2780625034
 30
0.0
 10
3.1226682048
 20
4.2726788726
 30
0.0
 10
3.1324949539
 20
4.2682400815
 30
0.0
 10
3.1403427829
 20
4.2647579799
 30
0.0
 10
3.1461301306
 20
4.2622551958
 30
0.0
 10
3.1497079875
 20
4.2607396425
 30
0.0
 10
3.1513389431
 20
4.2600641802
 30
0.0
 10
3.1517559793
 20
4.2598926443
 30
0.0
  0
SPLINE
  5
26F
100
AcDbEntity
  8
ALL_FEATURES
100
AcDbSpline
 62
7
  6
CONTINUOUS
 70
0
 71
3
 72
11
 73
7
 74
0
 42
0.0000001
 43
0.0000001
 44
0.0000000001
 40
0.0
 40
0.0
 40
0.0
 40
0.0
 40
0.2491927297
 40
0.498456838
 40
0.7486717882
 40
1.0
 40
1.0
 40
1.0
 40
1.0
 10
3.4793910091
 20
4.7504766941
 30
0.0
 10
3.4516230061
 20
4.7401133256
 30
0.0
 10
3.3967472652
 20
4.71753209
 30
0.0
 10
3.3169372337
 20
4.6778632026
 30
0.0
 10
3.2400922415
 20
4.6322200203
 30
0.0
 10
3.1910198814
 20
4.5982085136
 30
0.0
 10
3.1670262009
 20
4.5803791746
 30
0.0
  0
SPLINE
  5
270
100
AcDbEntity
  8
ALL_FEATURES
100
AcDbSpline
 62
7
  6
CONTINUOUS
 70
0
 71
3
 72
25
 73
21
 74
0
 42
0.0000001
 43
0.0000001
 44
0.0000000001
 40
0.0
 40
0.0
 40
0.0
 40
0.0
 40
0.0854755115
 40
0.1585333107
 40
0.2238803423
 40
0.2834484328
 40
0.3894616575
 40
0.4823313189
 40
0.5650013579
 40
0.6389850841
 40
0.7054087838
 40
0.7648308014
 40
0.8176126784
 40
0.8638972826
 40
0.9037473174
 40
0.937123092
 40
0.9638881152
 40
0.9836195339
 40
0.9958221424
 40
1.0
 40
1.0
 40
1.0
 40
1.0
 10
2.8846335263
 20
4.3022668558
 30
0.0
 10
2.891319272
 20
4.3000213284
 30
0.0
 10
2.9036929339
 20
4.2957766108
 30
0.0
 10
2.9210818953
 20
4.2895408883
 30
0.0
 10
2.9364072805
 20
4.2838860817
 30
0.0
 10
2.9542290046
 20
4.2771434538
 30
0.0
 10
2.9740963507
 20
4.2693920182
 30
0.0
 10
2.9956499414
 20
4.2607225427
 30
0.0
 10
3.0146945192
 20
4.2528991312
 30
0.0
 10
3.0316796777
 20
4.2458061769
 30
0.0
 10
3.0468734592
 20
4.239401827
 30
0.0
 10
3.0604440144
 20
4.2336505769
 30
0.0
 10
3.0724845126
 20
4.2285475965
 30
0.0
 10
3.0830421667
 20
4.2240843555
 30
0.0
 10
3.0921334253
 20
4.2202646912
 30
0.0
 10
3.0997508867
 20
4.2170953165
 30
0.0
 10
3.1058503549
 20
4.2145991495
 30
0.0
 10
3.1103433348
 20
4.2127903636
 30
0.0
 10
3.113112717
 20
4.2116907863
 30
0.0
 10
3.1143714329
 20
4.2111984185
 30
0.0
 10
3.1146926622
 20
4.2110733304
 30
0.0
  0
SPLINE
  5
271
100
AcDbEntity
  8
ALL_FEATURES
100
AcDbSpline
 62
7
  6
CONTINUOUS
 70
0
 71
3
 72
25
 73
21
 74
0
 42
0.0000001
 43
0.0000001
 44
0.0000000001
 40
0.0
 40
0.0
 40
0.0
 40
0.0
 40
0.0172610969
 40
0.0667034741
 40
0.1024350594
 40
0.1451323158
 40
0.1946122905
 40
0.250765482
 40
0.3135366843
 40
0.3830048975
 40
0.4593949847
 40
0.5433529947
 40
0.6358321531
 40
0.685824687
 40
0.7388575601
 40
0.7954961002
 40
0.8565868364
 40
0.8891565965
 40
0.9235755782
 40
1.0
 40
1.0
 40
1.0
 40
1.0
 10
2.9518844444
 20
4.746038352
 30
0.0
 10
2.9530232405
 20
4.7449597312
 30
0.0
 10
2.9574190048
 20
4.7407862868
 30
0.0
 10
2.9641448301
 20
4.7343513053
 30
0.0
 10
2.9725238346
 20
4.7263008167
 30
0.0
 10
2.9809356651
 20
4.7182796015
 30
0.0
 10
2.9907534311
 20
4.7090440323
 30
0.0
 10
3.0020031312
 20
4.6986692952
 30
0.0
 10
3.0147280655
 20
4.6872164505
 30
0.0
 10
3.0290245566
 20
4.6747640024
 30
0.0
 10
3.0450356188
 20
4.6613535731
 30
0.0
 10
3.0630109984
 20
4.6470415235
 30
0.0
 10
3.0794688737
 20
4.6346861671
 30
0.0
 10
3.0939441816
 20
4.6243849639
 30
0.0
 10
3.105931383
 20
4.6162092639
 30
0.0
 10
3.1189391841
 20
4.6077461336
 30
0.0
 10
3.1305696506
 20
4.6005830226
 30
0.0
 10
3.1405954766
 20
4.5946711703
 30
0.0
 10
3.1519286839
 20
4.5882365009
 30
0.0
 10
3.1608313621
 20
4.5835181656
 30
0.0
 10
3.1670262009
 20
4.5803791746
 30
0.0
  0
SPLINE
  5
272
100
AcDbEntity
  8
ALL_FEATURES
100
AcDbSpline
 62
7
  6
CONTINUOUS
 70
0
 71
3
 72
10
 73
6
 74
0
 42
0.0000001
 43
0.0000001
 44
0.0000000001
 40
0.0
 40
0.0
 40
0.0
 40
0.0
 40
0.4990466424
 40
0.749472436
 40
1.0
 40
1.0
 40
1.0
 40
1.0
 10
3.1670262009
 20
4.5803791746
 30
0.0
 10
3.1231409839
 20
4.5477687374
 30
0.0
 10
3.0601364283
 20
4.4947281025
 30
0.0
 10
2.9825357959
 20
4.4173456782
 30
0.0
 10
2.9458251966
 20
4.3764989891
 30
0.0
 10
2.9280313705
 20
4.3556005293
 30
0.0
  0
SPLINE
  5
273
100
AcDbEntity
  8
ALL_FEATURES
100
AcDbSpline
 62
7
  6
CONTINUOUS
 70
0
 71
3
 72
14
 73
10
 74
0
 42
0.0000001
 43
0.0000001
 44
0.0000000001
 40
0.0
 40
0.0
 40
0.0
 40
0.0
 40
0.0690143118
 40
0.1520039535
 40
0.2644651847
 40
0.405331305
 40
0.574490939
 40
0.7723689245
 40
1.0
 40
1.0
 40
1.0
 40
1.0
 10
2.7120862764
 20
4.4652140602
 30
0.0
 10
2.7135542198
 20
4.464265846
 30
0.0
 10
2.7167884454
 20
4.4621790836
 30
0.0
 10
2.722417753
 20
4.4585518518
 30
0.0
 10
2.7295763031
 20
4.4539388811
 30
0.0
 10
2.7385964146
 20
4.4481866142
 30
0.0
 10
2.7495052961
 20
4.4413742318
 30
0.0
 10
2.7623780195
 20
4.4335607549
 30
0.0
 10
2.7716745922
 20
4.4281127891
 30
0.0
 10
2.77667409
 20
4.4252442012
 30
0.0
  0
SPLINE
  5
274
100
AcDbEntity
  8
ALL_FEATURES
100
AcDbSpline
 62
7
  6
CONTINUOUS
 70
0
 71
3
 72
17
 73
13
 74
0
 42
0.0000001
 43
0.0000001
 44
0.0000000001
 40
0.0
 40
0.0
 40
0.0
 40
0.0
 40
0.1730893724
 40
0.2725704953
 40
0.3822236399
 40
0.5041114101
 40
0.64191735
 40
0.7186028164
 40
0.7593293456
 40
0.8018565655
 40
0.8941963299
 40
1.0
 40
1.0
 40
1.0
 40
1.0
 10
2.77667409
 20
4.4252442012
 30
0.0
 10
2.7850229036
 20
4.420453859
 30
0.0
 10
2.7982827518
 20
4.4131035827
 30
0.0
 10
2.8171297768
 20
4.4032739216
 30
0.0
 10
2.8336099529
 20
4.3950697264
 30
0.0
 10
2.852185822
 20
4.3863022324
 30
0.0
 10
2.8692887712
 20
4.3787204373
 30
0.0
 10
2.8823708552
 20
4.3732157977
 30
0.0
 10
2.8906029812
 20
4.3698482717
 30
0.0
 10
2.8996650832
 20
4.3662109843
 30
0.0
 10
2.9121455863
 20
4.3613759199
 30
0.0
 10
2.9224912646
 20
4.3575818367
 30
0.0
 10
2.9280313705
 20
4.3556005293
 30
0.0
  0
SPLINE
  5
275
100
AcDbEntity
  8
ALL_FEATURES
100
AcDbSpline
 62
7
  6
CONTINUOUS
 70
0
 71
3
 72
24
 73
20
 74
0
 42
0.0000001
 43
0.0000001
 44
0.0000000001
 40
0.0
 40
0.0
 40
0.0
 40
0.0
 40
0.0150061295
 40
0.0580835271
 40
0.0893114635
 40
0.1268999946
 40
0.1709481653
 40
0.2216639959
 40
0.2793423502
 40
0.3445087301
 40
0.4179011516
 40
0.500859991
 40
0.5951430933
 40
0.6474476104
 40
0.7040234617
 40
0.7657123466
 40
0.8337448407
 40
0.9101800787
 40
1.0
 40
1.0
 40
1.0
 40
1.0
 10
2.671045407
 20
4.3995349397
 30
0.0
 10
2.6720664793
 20
4.3989512545
 30
0.0
 10
2.6760191054
 20
4.3966927287
 30
0.0
 10
2.6820991528
 20
4.3932240297
 30
0.0
 10
2.6897198468
 20
4.3888840456
 30
0.0
 10
2.6974298205
 20
4.3845472284
 30
0.0
 10
2.7065095018
 20
4.3795304454
 30
0.0
 10
2.7170243807
 20
4.3738563904
 30
0.0
 10
2.7290688122
 20
4.3675330146
 30
0.0
 10
2.7427857681
 20
4.3605746946
 30
0.0
 10
2.7583902842
 20
4.3529615825
 30
0.0
 10
2.7762013114
 20
4.3446734549
 30
0.0
 10
2.7926590169
 20
4.3374022077
 30
0.0
 10
2.8073243971
 20
4.3311985485
 30
0.0
 10
2.8196978282
 20
4.3261362184
 30
0.0
 10
2.8332792367
 20
4.3207738043
 30
0.0
 10
2.8483850396
 20
4.3150375187
 30
0.0
 10
2.8656390477
 20
4.3087517017
 30
0.0
 10
2.8779601053
 20
4.3045082437
 30
0.0
 10
2.8846335263
 20
4.3022668558
 30
0.0
  0
ENDSEC
  0
SECTION
  2
OBJECTS
  0
DICTIONARY
  5
C
100
AcDbDictionary
280
0
281
1
  3
ACAD_GROUP
350
D
  3
ACAD_MLINESTYLE
350
17
  3
ACAD_LAYOUT
350
1A
  3
ACAD_PLOTSETTINGS
350
19
  3
ACAD_PLOTSTYLENAME
350
E
  0
DICTIONARY
  5
D
102
{ACAD_REACTORS
330
C
102
}
100
AcDbDictionary
280
0
281
1
  0
ACDBDICTIONARYWDFLT
  5
E
102
{ACAD_REACTORS
330
C
102
}
100
AcDbDictionary
281
1
  3
Normal
350
F
100
AcDbDictionaryWithDefault
340
F
  0
DICTIONARY
  5
17
102
{ACAD_REACTORS
330
C
102
}
100
AcDbDictionary
280
0
281
1
  3
Standard
350
18
  0
DICTIONARY
  5
19
102
{ACAD_REACTORS
330
C
102
}
100
AcDbDictionary
281
1
  0
DICTIONARY
  5
1A
102
{ACAD_REACTORS
330
C
102
}
100
AcDbDictionary
281
1
  3
Model
350
276
  3
Layout1
350
277
  0
ACDBPLACEHOLDER
  5
F
102
{ACAD_REACTORS
330
E
102
}
  0
MLINESTYLE
  5
18
102
{ACAD_REACTORS
330
17
102
}
100
AcDbMlineStyle
  2
STANDARD
 70
0
  3

 62
256
 51
90.0
 52
90.0
 71
2
 49
0.5
 62
256
  6
BYLAYER
 49
-0.5
 62
256
  6
BYLAYER
  0
LAYOUT
  5
276
102
{ACAD_REACTORS
330
1A
102
}
100
AcDbPlotSettings
  1

  2
none_device
  4
ANSI_A_(11.00_x_8.50_Inches)
  6

 40
0.0
 41
0.0
 42
0.0
 43
0.0
 44
279.4
 45
215.9
 46
0.0
 47
0.0
 48
0.0
 49
0.0
140
0.0
141
0.0
142
1.0
143
1.0
 70
1024
 72
0
 73
0
 74
0
  7

 75
0
147
1.0
148
0.0
149
0.0
100
AcDbLayout
  1
Model
 70
0
 71
0
 10
0.0
 20
0.0
 11
11.0
 21
8.5
 12
0.0
 22
0.0
 32
0.0
 14
0.0
 24
0.0
 34
0.0
 15
0.0
 25
0.0
 35
0.0
146
0.0
 13
0.0
 23
0.0
 33
0.0
 16
1.0
 26
0.0
 36
0.0
 17
0.0
 27
1.0
 37
0.0
 76
0
330
217
345
0
346
0
  0
LAYOUT
  5
277
102
{ACAD_REACTORS
330
1A
102
}
100
AcDbPlotSettings
  1

  2
none_device
  4
ANSI_A_(11.00_x_8.50_Inches)
  6

 40
0.0
 41
0.0
 42
0.0
 43
0.0
 44
279.4
 45
215.9
 46
0.0
 47
0.0
 48
0.0
 49
0.0
140
0.0
141
0.0
142
1.0
143
1.0
 70
0
 72
0
 73
0
 74
0
  7

 75
0
147
1.0
148
0.0
149
0.0
100
AcDbLayout
  1
Layout1
 70
0
 71
1
 10
0.0
 20
0.0
 11
11.0
 21
8.5
 12
0.0
 22
0.0
 32
0.0
 14
0.0
 24
0.0
 34
0.0
 15
0.0
 25
0.0
 35
0.0
146
0.0
 13
0.0
 23
0.0
 33
0.0
 16
1.0
 26
0.0
 36
0.0
 17
0.0
 27
1.0
 37
0.0
 76
0
330
218
345
0
346
0
  0
ENDSEC
  0
EOF
